  0
SECTION
  2
HEADER
  9
$ACADVER
  1
AC1015
  9
$ACADMAINTVER
 70
    20
  9
$DWGCODEPAGE
  3
ANSI_932
  9
$INSBASE
 10
0.0
 20
0.0
 30
0.0
  9
$EXTMIN
 10
-0.0256167714992444
 20
-0.0181147169887481
 30
-0.0000000000112498
  9
$EXTMAX
 10
1680.025640242262
 20
1188.01813131417
 30
0.0000000000002956
  9
$LIMMIN
 10
0.0
 20
0.0
  9
$LIMMAX
 10
1680.0
 20
1188.0
  9
$ORTHOMODE
 70
     1
  9
$REGENMODE
 70
     1
  9
$FILLMODE
 70
     1
  9
$QTEXTMODE
 70
     0
  9
$MIRRTEXT
 70
     1
  9
$LTSCALE
 40
33.6
  9
$ATTMODE
 70
     1
  9
$TEXTSIZE
 40
0.2
  9
$TRACEWID
 40
0.05
  9
$TEXTSTYLE
  7
STANDARD
  9
$CLAYER
  8
LEVEL001
  9
$CELTYPE
  6
CONTINUOUS
  9
$CECOLOR
 62
   256
  9
$CELTSCALE
 40
1.0
  9
$DISPSILH
 70
     0
  9
$DIMSCALE
 40
1.0
  9
$DIMASZ
 40
0.18
  9
$DIMEXO
 40
0.0625
  9
$DIMDLI
 40
0.38
  9
$DIMRND
 40
0.0
  9
$DIMDLE
 40
0.0
  9
$DIMEXE
 40
0.18
  9
$DIMTP
 40
0.0
  9
$DIMTM
 40
0.0
  9
$DIMTXT
 40
0.18
  9
$DIMCEN
 40
0.09
  9
$DIMTSZ
 40
0.0
  9
$DIMTOL
 70
     0
  9
$DIMLIM
 70
     0
  9
$DIMTIH
 70
     1
  9
$DIMTOH
 70
     1
  9
$DIMSE1
 70
     0
  9
$DIMSE2
 70
     0
  9
$DIMTAD
 70
     0
  9
$DIMZIN
 70
     0
  9
$DIMBLK
  1

  9
$DIMASO
 70
     1
  9
$DIMSHO
 70
     1
  9
$DIMPOST
  1

  9
$DIMAPOST
  1

  9
$DIMALT
 70
     0
  9
$DIMALTD
 70
     2
  9
$DIMALTF
 40
25.4
  9
$DIMLFAC
 40
1.0
  9
$DIMTOFL
 70
     0
  9
$DIMTVP
 40
0.0
  9
$DIMTIX
 70
     0
  9
$DIMSOXD
 70
     0
  9
$DIMSAH
 70
     0
  9
$DIMBLK1
  1

  9
$DIMBLK2
  1

  9
$DIMSTYLE
  2
STANDARD
  9
$DIMCLRD
 70
     0
  9
$DIMCLRE
 70
     0
  9
$DIMCLRT
 70
     0
  9
$DIMTFAC
 40
1.0
  9
$DIMGAP
 40
0.09
  9
$DIMJUST
 70
     0
  9
$DIMSD1
 70
     0
  9
$DIMSD2
 70
     0
  9
$DIMTOLJ
 70
     1
  9
$DIMTZIN
 70
     0
  9
$DIMALTZ
 70
     0
  9
$DIMALTTZ
 70
     0
  9
$DIMUPT
 70
     0
  9
$DIMDEC
 70
     4
  9
$DIMTDEC
 70
     4
  9
$DIMALTU
 70
     2
  9
$DIMALTTD
 70
     2
  9
$DIMTXSTY
  7
STANDARD
  9
$DIMAUNIT
 70
     0
  9
$DIMADEC
 70
     0
  9
$DIMALTRND
 40
0.0
  9
$DIMAZIN
 70
     0
  9
$DIMDSEP
 70
    46
  9
$DIMATFIT
 70
     3
  9
$DIMFRAC
 70
     0
  9
$DIMLDRBLK
  1

  9
$DIMLUNIT
 70
     2
  9
$DIMLWD
 70
    -2
  9
$DIMLWE
 70
    -2
  9
$DIMTMOVE
 70
     0
  9
$LUNITS
 70
     2
  9
$LUPREC
 70
     4
  9
$SKETCHINC
 40
0.1
  9
$FILLETRAD
 40
0.0
  9
$AUNITS
 70
     0
  9
$AUPREC
 70
     0
  9
$MENU
  1
.
  9
$ELEVATION
 40
0.0
  9
$PELEVATION
 40
0.0
  9
$THICKNESS
 40
0.0
  9
$LIMCHECK
 70
     0
  9
$CHAMFERA
 40
0.0
  9
$CHAMFERB
 40
0.0
  9
$CHAMFERC
 40
0.0
  9
$CHAMFERD
 40
0.0
  9
$SKPOLY
 70
     0
  9
$TDCREATE
 40
2451212.682759178
  9
$TDUCREATE
 40
2451212.307759178
  9
$TDUPDATE
 40
2458321.580855035
  9
$TDUUPDATE
 40
2458321.205855035
  9
$TDINDWG
 40
0.0812796065
  9
$TDUSRTIMER
 40
0.0812796065
  9
$USRTIMER
 70
     1
  9
$ANGBASE
 50
0.0
  9
$ANGDIR
 70
     0
  9
$PDMODE
 70
     0
  9
$PDSIZE
 40
0.0
  9
$PLINEWID
 40
0.0
  9
$SPLFRAME
 70
     0
  9
$SPLINETYPE
 70
     6
  9
$SPLINESEGS
 70
     8
  9
$HANDSEED
  5
5B1
  9
$SURFTAB1
 70
     6
  9
$SURFTAB2
 70
     6
  9
$SURFTYPE
 70
     6
  9
$SURFU
 70
     6
  9
$SURFV
 70
     6
  9
$UCSBASE
  2

  9
$UCSNAME
  2

  9
$UCSORG
 10
0.0
 20
0.0
 30
0.0
  9
$UCSXDIR
 10
1.0
 20
0.0
 30
0.0
  9
$UCSYDIR
 10
0.0
 20
1.0
 30
0.0
  9
$UCSORTHOREF
  2

  9
$UCSORTHOVIEW
 70
     0
  9
$UCSORGTOP
 10
0.0
 20
0.0
 30
0.0
  9
$UCSORGBOTTOM
 10
0.0
 20
0.0
 30
0.0
  9
$UCSORGLEFT
 10
0.0
 20
0.0
 30
0.0
  9
$UCSORGRIGHT
 10
0.0
 20
0.0
 30
0.0
  9
$UCSORGFRONT
 10
0.0
 20
0.0
 30
0.0
  9
$UCSORGBACK
 10
0.0
 20
0.0
 30
0.0
  9
$PUCSBASE
  2

  9
$PUCSNAME
  2

  9
$PUCSORG
 10
0.0
 20
0.0
 30
0.0
  9
$PUCSXDIR
 10
1.0
 20
0.0
 30
0.0
  9
$PUCSYDIR
 10
0.0
 20
1.0
 30
0.0
  9
$PUCSORTHOREF
  2

  9
$PUCSORTHOVIEW
 70
     0
  9
$PUCSORGTOP
 10
0.0
 20
0.0
 30
0.0
  9
$PUCSORGBOTTOM
 10
0.0
 20
0.0
 30
0.0
  9
$PUCSORGLEFT
 10
0.0
 20
0.0
 30
0.0
  9
$PUCSORGRIGHT
 10
0.0
 20
0.0
 30
0.0
  9
$PUCSORGFRONT
 10
0.0
 20
0.0
 30
0.0
  9
$PUCSORGBACK
 10
0.0
 20
0.0
 30
0.0
  9
$USERI1
 70
     0
  9
$USERI2
 70
     0
  9
$USERI3
 70
     0
  9
$USERI4
 70
     0
  9
$USERI5
 70
     0
  9
$USERR1
 40
0.0
  9
$USERR2
 40
0.0
  9
$USERR3
 40
0.0
  9
$USERR4
 40
0.0
  9
$USERR5
 40
0.0
  9
$WORLDVIEW
 70
     1
  9
$SHADEDGE
 70
     3
  9
$SHADEDIF
 70
    70
  9
$TILEMODE
 70
     1
  9
$MAXACTVP
 70
    16
  9
$PINSBASE
 10
0.0
 20
0.0
 30
0.0
  9
$PLIMCHECK
 70
     0
  9
$PEXTMIN
 10
1.000000000000000E+20
 20
1.000000000000000E+20
 30
1.000000000000000E+20
  9
$PEXTMAX
 10
-1.000000000000000E+20
 20
-1.000000000000000E+20
 30
-1.000000000000000E+20
  9
$PLIMMIN
 10
0.0
 20
0.0
  9
$PLIMMAX
 10
12.0
 20
9.0
  9
$UNITMODE
 70
     0
  9
$VISRETAIN
 70
     1
  9
$PLINEGEN
 70
     0
  9
$PSLTSCALE
 70
     1
  9
$TREEDEPTH
 70
  3020
  9
$CMLSTYLE
  2
STANDARD
  9
$CMLJUST
 70
     0
  9
$CMLSCALE
 40
1.0
  9
$PROXYGRAPHICS
 70
     1
  9
$MEASUREMENT
 70
     0
  9
$CELWEIGHT
370
    -1
  9
$ENDCAPS
280
     0
  9
$JOINSTYLE
280
     0
  9
$LWDISPLAY
290
     0
  9
$INSUNITS
 70
     0
  9
$HYPERLINKBASE
  1

  9
$STYLESHEET
  1

  9
$XEDIT
290
     1
  9
$CEPSNTYPE
380
     0
  9
$PSTYLEMODE
290
     0
  9
$FINGERPRINTGUID
  2
{59F627D9-4514-482E-BEF1-053E864AD6AC}
  9
$VERSIONGUID
  2
{2BC05CDC-F9FF-4B1B-96A1-5DDD7D004194}
  9
$EXTNAMES
290
     1
  9
$PSVPSCALE
 40
0.0
  9
$OLESTARTUP
290
     0
  0
ENDSEC
  0
SECTION
  2
CLASSES
  0
CLASS
  1
ACDBDICTIONARYWDFLT
  2
AcDbDictionaryWithDefault
  3
ObjectDBX Classes
 90
        0
280
     0
281
     0
  0
CLASS
  1
TABLESTYLE
  2
AcDbTableStyle
  3
ObjectDBX Classes
 90
     4095
280
     0
281
     0
  0
CLASS
  1
DICTIONARYVAR
  2
AcDbDictionaryVar
  3
ObjectDBX Classes
 90
        0
280
     0
281
     0
  0
CLASS
  1
ACDBPLACEHOLDER
  2
AcDbPlaceHolder
  3
ObjectDBX Classes
 90
        0
280
     0
281
     0
  0
CLASS
  1
LAYOUT
  2
AcDbLayout
  3
ObjectDBX Classes
 90
        0
280
     0
281
     0
  0
CLASS
  1
MATERIAL
  2
AcDbMaterial
  3
ObjectDBX Classes
 90
     1153
280
     0
281
     0
  0
CLASS
  1
VISUALSTYLE
  2
AcDbVisualStyle
  3
ObjectDBX Classes
 90
     4095
280
     0
281
     0
  0
CLASS
  1
SCALE
  2
AcDbScale
  3
ObjectDBX Classes
 90
     1153
280
     0
281
     0
  0
CLASS
  1
MLEADERSTYLE
  2
AcDbMLeaderStyle
  3
ACDB_MLEADERSTYLE_CLASS
 90
     4095
280
     0
281
     0
  0
CLASS
  1
SORTENTSTABLE
  2
AcDbSortentsTable
  3
ObjectDBX Classes
 90
        0
280
     0
281
     0
  0
CLASS
  1
CELLSTYLEMAP
  2
AcDbCellStyleMap
  3
ObjectDBX Classes
 90
     1152
280
     0
281
     0
  0
ENDSEC
  0
SECTION
  2
TABLES
  0
TABLE
  2
VPORT
  5
1
330
0
100
AcDbSymbolTable
 70
     1
  0
VPORT
  5
3D1
330
1
100
AcDbSymbolTableRecord
100
AcDbViewportTableRecord
  2
*Active
 70
     0
 10
0.0
 20
0.0
 11
1.0
 21
1.0
 12
840.0000117353815
 22
594.0000082985908
 13
0.0
 23
0.0
 14
1.0
 24
1.0
 15
0.0
 25
0.0
 16
0.0
 26
0.0
 36
1.0
 17
0.0
 27
0.0
 37
0.0
 40
1199.226540342285
 41
1.882075471698113
 42
50.0
 43
0.0
 44
0.0
 50
0.0
 51
0.0
 71
     0
 72
   100
 73
     1
 74
     1
 75
     0
 76
     0
 77
     0
 78
     0
281
     0
 65
     1
110
0.0
120
0.0
130
0.0
111
1.0
121
0.0
131
0.0
112
0.0
122
1.0
132
0.0
 79
     0
146
0.0
1001
ACAD_NAV_VCDISPLAY
1070
     3
  0
ENDTAB
  0
TABLE
  2
LTYPE
  5
68
330
0
100
AcDbSymbolTable
 70
    25
  0
LTYPE
  5
1D
330
68
100
AcDbSymbolTableRecord
100
AcDbLinetypeTableRecord
  2
BYBLOCK
 70
     0
  3

 72
    65
 73
     0
 40
0.0
  0
LTYPE
  5
1E
330
68
100
AcDbSymbolTableRecord
100
AcDbLinetypeTableRecord
  2
BYLAYER
 70
     0
  3

 72
    65
 73
     0
 40
0.0
  0
LTYPE
  5
1F
330
68
100
AcDbSymbolTableRecord
100
AcDbLinetypeTableRecord
  2
CONTINUOUS
 70
     0
  3
Solid line
 72
    65
 73
     0
 40
0.0
  0
LTYPE
  5
20
330
68
100
AcDbSymbolTableRecord
100
AcDbLinetypeTableRecord
  2
BORDER
 70
     0
  3
__ __ . __ __ . __ __ . __ __ . __ __ . __ __ .
 72
    65
 73
     6
 40
1.75
 49
0.5
 74
     0
 49
-0.25
 74
     0
 49
0.5
 74
     0
 49
-0.25
 74
     0
 49
0.0
 74
     0
 49
-0.25
 74
     0
  0
LTYPE
  5
21
330
68
100
AcDbSymbolTableRecord
100
AcDbLinetypeTableRecord
  2
BORDER2
 70
     0
  3
__.__.__.__.__.__.__.__.__.__.__.__.__.__.__.__
 72
    65
 73
     6
 40
0.875
 49
0.25
 74
     0
 49
-0.125
 74
     0
 49
0.25
 74
     0
 49
-0.125
 74
     0
 49
0.0
 74
     0
 49
-0.125
 74
     0
  0
LTYPE
  5
22
330
68
100
AcDbSymbolTableRecord
100
AcDbLinetypeTableRecord
  2
BORDERX2
 70
     0
  3
____  ____  .  ____  ____  .  ____  ____  .  __
 72
    65
 73
     6
 40
3.5
 49
1.0
 74
     0
 49
-0.5
 74
     0
 49
1.0
 74
     0
 49
-0.5
 74
     0
 49
0.0
 74
     0
 49
-0.5
 74
     0
  0
LTYPE
  5
23
330
68
100
AcDbSymbolTableRecord
100
AcDbLinetypeTableRecord
  2
CENTER
 70
     0
  3
____ _ ____ _ ____ _ ____ _ ____ _ ____ _ ____ 
 72
    65
 73
     4
 40
2.0
 49
1.25
 74
     0
 49
-0.25
 74
     0
 49
0.25
 74
     0
 49
-0.25
 74
     0
  0
LTYPE
  5
24
330
68
100
AcDbSymbolTableRecord
100
AcDbLinetypeTableRecord
  2
CENTER2
 70
     0
  3
___ _ ___ _ ___ _ ___ _ ___ _ ___ _ ___ _ ___ _
 72
    65
 73
     4
 40
1.125
 49
0.75
 74
     0
 49
-0.125
 74
     0
 49
0.125
 74
     0
 49
-0.125
 74
     0
  0
LTYPE
  5
25
330
68
100
AcDbSymbolTableRecord
100
AcDbLinetypeTableRecord
  2
CENTERX2
 70
     0
  3
________  __  ________  __  ________  __  _____
 72
    65
 73
     4
 40
4.0
 49
2.5
 74
     0
 49
-0.5
 74
     0
 49
0.5
 74
     0
 49
-0.5
 74
     0
  0
LTYPE
  5
26
330
68
100
AcDbSymbolTableRecord
100
AcDbLinetypeTableRecord
  2
DASHDOT
 70
     0
  3
__ . __ . __ . __ . __ . __ . __ . __ . __ . __
 72
    65
 73
     4
 40
1.0
 49
0.5
 74
     0
 49
-0.25
 74
     0
 49
0.0
 74
     0
 49
-0.25
 74
     0
  0
LTYPE
  5
27
330
68
100
AcDbSymbolTableRecord
100
AcDbLinetypeTableRecord
  2
DASHDOT2
 70
     0
  3
_._._._._._._._._._._._._._._._._._._._._._._._
 72
    65
 73
     4
 40
0.5
 49
0.25
 74
     0
 49
-0.125
 74
     0
 49
0.0
 74
     0
 49
-0.125
 74
     0
  0
LTYPE
  5
28
330
68
100
AcDbSymbolTableRecord
100
AcDbLinetypeTableRecord
  2
DASHDOTX2
 70
     0
  3
____  .  ____  .  ____  .  ____  .  ____  .  __
 72
    65
 73
     4
 40
2.0
 49
1.0
 74
     0
 49
-0.5
 74
     0
 49
0.0
 74
     0
 49
-0.5
 74
     0
  0
LTYPE
  5
29
330
68
100
AcDbSymbolTableRecord
100
AcDbLinetypeTableRecord
  2
DASHED
 70
     0
  3
__ __ __ __ __ __ __ __ __ __ __ __ __ __ __ __
 72
    65
 73
     2
 40
0.75
 49
0.5
 74
     0
 49
-0.25
 74
     0
  0
LTYPE
  5
2A
330
68
100
AcDbSymbolTableRecord
100
AcDbLinetypeTableRecord
  2
DASHED2
 70
     0
  3
_ _ _ _ _ _ _ _ _ _ _ _ _ _ _ _ _ _ _ _ _ _ _ _
 72
    65
 73
     2
 40
0.375
 49
0.25
 74
     0
 49
-0.125
 74
     0
  0
LTYPE
  5
2B
330
68
100
AcDbSymbolTableRecord
100
AcDbLinetypeTableRecord
  2
DASHEDX2
 70
     0
  3
____  ____  ____  ____  ____  ____  ____  ____ 
 72
    65
 73
     2
 40
1.5
 49
1.0
 74
     0
 49
-0.5
 74
     0
  0
LTYPE
  5
2C
330
68
100
AcDbSymbolTableRecord
100
AcDbLinetypeTableRecord
  2
DIVIDE
 70
     0
  3
____ . . ____ . . ____ . . ____ . . ____ . . __
 72
    65
 73
     6
 40
1.25
 49
0.5
 74
     0
 49
-0.25
 74
     0
 49
0.0
 74
     0
 49
-0.25
 74
     0
 49
0.0
 74
     0
 49
-0.25
 74
     0
  0
LTYPE
  5
2D
330
68
100
AcDbSymbolTableRecord
100
AcDbLinetypeTableRecord
  2
DIVIDE2
 70
     0
  3
__..__..__..__..__..__..__..__..__..__..__..__.
 72
    65
 73
     6
 40
0.625
 49
0.25
 74
     0
 49
-0.125
 74
     0
 49
0.0
 74
     0
 49
-0.125
 74
     0
 49
0.0
 74
     0
 49
-0.125
 74
     0
  0
LTYPE
  5
2E
330
68
100
AcDbSymbolTableRecord
100
AcDbLinetypeTableRecord
  2
DIVIDEX2
 70
     0
  3
________  .  .  ________  .  .  ________  .  . 
 72
    65
 73
     6
 40
2.5
 49
1.0
 74
     0
 49
-0.5
 74
     0
 49
0.0
 74
     0
 49
-0.5
 74
     0
 49
0.0
 74
     0
 49
-0.5
 74
     0
  0
LTYPE
  5
2F
330
68
100
AcDbSymbolTableRecord
100
AcDbLinetypeTableRecord
  2
DOT
 70
     0
  3
. . . . . . . . . . . . . . . . . . . . . . . .
 72
    65
 73
     2
 40
0.25
 49
0.0
 74
     0
 49
-0.25
 74
     0
  0
LTYPE
  5
30
330
68
100
AcDbSymbolTableRecord
100
AcDbLinetypeTableRecord
  2
DOT2
 70
     0
  3
...............................................
 72
    65
 73
     2
 40
0.125
 49
0.0
 74
     0
 49
-0.125
 74
     0
  0
LTYPE
  5
31
330
68
100
AcDbSymbolTableRecord
100
AcDbLinetypeTableRecord
  2
DOTX2
 70
     0
  3
.  .  .  .  .  .  .  .  .  .  .  .  .  .  .  . 
 72
    65
 73
     2
 40
0.5
 49
0.0
 74
     0
 49
-0.5
 74
     0
  0
LTYPE
  5
32
330
68
100
AcDbSymbolTableRecord
100
AcDbLinetypeTableRecord
  2
HIDDEN
 70
     0
  3
__ __ __ __ __ __ __ __ __ __ __ __ __ __ __ __
 72
    65
 73
     2
 40
0.375
 49
0.25
 74
     0
 49
-0.125
 74
     0
  0
LTYPE
  5
33
330
68
100
AcDbSymbolTableRecord
100
AcDbLinetypeTableRecord
  2
HIDDEN2
 70
     0
  3
_ _ _ _ _ _ _ _ _ _ _ _ _ _ _ _ _ _ _ _ _ _ _ _
 72
    65
 73
     2
 40
0.1875
 49
0.125
 74
     0
 49
-0.0625
 74
     0
  0
LTYPE
  5
34
330
68
100
AcDbSymbolTableRecord
100
AcDbLinetypeTableRecord
  2
HIDDENX2
 70
     0
  3
____ ____ ____ ____ ____ ____ ____ ____ ____ __
 72
    65
 73
     2
 40
0.75
 49
0.5
 74
     0
 49
-0.25
 74
     0
  0
LTYPE
  5
35
330
68
100
AcDbSymbolTableRecord
100
AcDbLinetypeTableRecord
  2
PHANTOM
 70
     0
  3
______  __  __  ______  __  __  ______  __  __ 
 72
    65
 73
     6
 40
2.5
 49
1.25
 74
     0
 49
-0.25
 74
     0
 49
0.25
 74
     0
 49
-0.25
 74
     0
 49
0.25
 74
     0
 49
-0.25
 74
     0
  0
LTYPE
  5
36
330
68
100
AcDbSymbolTableRecord
100
AcDbLinetypeTableRecord
  2
PHANTOM2
 70
     0
  3
___ _ _ ___ _ _ ___ _ _ ___ _ _ ___ _ _ ___ _ _
 72
    65
 73
     6
 40
1.25
 49
0.625
 74
     0
 49
-0.125
 74
     0
 49
0.125
 74
     0
 49
-0.125
 74
     0
 49
0.125
 74
     0
 49
-0.125
 74
     0
  0
LTYPE
  5
37
330
68
100
AcDbSymbolTableRecord
100
AcDbLinetypeTableRecord
  2
PHANTOMX2
 70
     0
  3
____________    ____    ____    ____________   
 72
    65
 73
     6
 40
5.0
 49
2.5
 74
     0
 49
-0.5
 74
     0
 49
0.5
 74
     0
 49
-0.5
 74
     0
 49
0.5
 74
     0
 49
-0.5
 74
     0
  0
ENDTAB
  0
TABLE
  2
LAYER
  5
67
330
0
100
AcDbSymbolTable
 70
     3
  0
LAYER
  5
38
102
{ACAD_XDICTIONARY
360
55C
102
}
330
67
100
AcDbSymbolTableRecord
100
AcDbLayerTableRecord
  2
0
 70
     0
 62
     7
  6
CONTINUOUS
370
    -3
390
3B8
  0
LAYER
  5
39
102
{ACAD_XDICTIONARY
360
55E
102
}
330
67
100
AcDbSymbolTableRecord
100
AcDbLayerTableRecord
  2
LEVEL001
 70
     0
 62
     7
  6
CONTINUOUS
370
    -3
390
3B8
  0
LAYER
  5
3A
102
{ACAD_XDICTIONARY
360
560
102
}
330
67
100
AcDbSymbolTableRecord
100
AcDbLayerTableRecord
  2
LEVEL002
 70
     0
 62
     7
  6
CONTINUOUS
370
    -3
390
3B8
  0
ENDTAB
  0
TABLE
  2
STYLE
  5
6
330
0
100
AcDbSymbolTable
 70
     2
  0
STYLE
  5
7
330
6
100
AcDbSymbolTableRecord
100
AcDbTextStyleTableRecord
  2
STANDARD
 70
     0
 40
0.0
 41
0.8
 50
0.0
 71
     0
 42
0.2
  3
TXT.shx
  4
BIGFONT.shx
  0
STYLE
  5
8
330
6
100
AcDbSymbolTableRecord
100
AcDbTextStyleTableRecord
  2
STANDARD1
 70
     4
 40
0.0
 41
1.0
 50
0.0
 71
     0
 42
0.2
  3
TXT
  4
BIGFONT
  0
ENDTAB
  0
TABLE
  2
VIEW
  5
2
330
0
100
AcDbSymbolTable
 70
     0
  0
ENDTAB
  0
TABLE
  2
UCS
  5
3
330
0
100
AcDbSymbolTable
 70
     0
  0
ENDTAB
  0
TABLE
  2
APPID
  5
4
330
0
100
AcDbSymbolTable
 70
     6
  0
APPID
  5
5
330
4
100
AcDbSymbolTableRecord
100
AcDbRegAppTableRecord
  2
ACAD
 70
     0
  0
APPID
  5
423
330
4
100
AcDbSymbolTableRecord
100
AcDbRegAppTableRecord
  2
ACAD_EXEMPT_FROM_CAD_STANDARDS
 70
     0
  0
APPID
  5
426
330
4
100
AcDbSymbolTableRecord
100
AcDbRegAppTableRecord
  2
ACAD_NAV_VCDISPLAY
 70
     0
  0
APPID
  5
559
330
4
100
AcDbSymbolTableRecord
100
AcDbRegAppTableRecord
  2
GradientColor1ACI
 70
     0
  0
APPID
  5
55A
330
4
100
AcDbSymbolTableRecord
100
AcDbRegAppTableRecord
  2
GradientColor2ACI
 70
     0
  0
APPID
  5
5B0
330
4
100
AcDbSymbolTableRecord
100
AcDbRegAppTableRecord
  2
ACAD_MLEADERVER
 70
     0
  0
ENDTAB
  0
TABLE
  2
DIMSTYLE
  5
66
330
0
100
AcDbSymbolTable
 70
     1
100
AcDbDimStyleTable
 71
     0
  0
DIMSTYLE
105
3B
330
66
100
AcDbSymbolTableRecord
100
AcDbDimStyleTableRecord
  2
STANDARD
 70
     0
340
7
  0
ENDTAB
  0
TABLE
  2
BLOCK_RECORD
  5
9
330
0
100
AcDbSymbolTable
 70
    17
  0
BLOCK_RECORD
  5
A
102
{ACAD_XDICTIONARY
360
511
102
}
330
9
100
AcDbSymbolTableRecord
100
AcDbBlockTableRecord
  2
*MODEL_SPACE
340
3BF
  0
BLOCK_RECORD
  5
B
330
9
100
AcDbSymbolTableRecord
100
AcDbBlockTableRecord
  2
*PAPER_SPACE
340
3C0
  0
BLOCK_RECORD
  5
C
330
9
100
AcDbSymbolTableRecord
100
AcDbBlockTableRecord
  2
_ARCHTICK
340
0
  0
BLOCK_RECORD
  5
D
330
9
100
AcDbSymbolTableRecord
100
AcDbBlockTableRecord
  2
_OBLIQUE
340
0
  0
BLOCK_RECORD
  5
E
330
9
100
AcDbSymbolTableRecord
100
AcDbBlockTableRecord
  2
_BOXBLANK
340
0
  0
BLOCK_RECORD
  5
F
330
9
100
AcDbSymbolTableRecord
100
AcDbBlockTableRecord
  2
_BOXFILLED
340
0
  0
BLOCK_RECORD
  5
10
330
9
100
AcDbSymbolTableRecord
100
AcDbBlockTableRecord
  2
_CLOSED
340
0
  0
BLOCK_RECORD
  5
11
330
9
100
AcDbSymbolTableRecord
100
AcDbBlockTableRecord
  2
_OPEN
340
0
  0
BLOCK_RECORD
  5
12
330
9
100
AcDbSymbolTableRecord
100
AcDbBlockTableRecord
  2
_OPEN30
340
0
  0
BLOCK_RECORD
  5
13
330
9
100
AcDbSymbolTableRecord
100
AcDbBlockTableRecord
  2
_OPEN90
340
0
  0
BLOCK_RECORD
  5
14
330
9
100
AcDbSymbolTableRecord
100
AcDbBlockTableRecord
  2
_CLOSEDBLANK
340
0
  0
BLOCK_RECORD
  5
15
330
9
100
AcDbSymbolTableRecord
100
AcDbBlockTableRecord
  2
_DOT
340
0
  0
BLOCK_RECORD
  5
16
330
9
100
AcDbSymbolTableRecord
100
AcDbBlockTableRecord
  2
_DOTSMALL
340
0
  0
BLOCK_RECORD
  5
17
330
9
100
AcDbSymbolTableRecord
100
AcDbBlockTableRecord
  2
_DATUMBLANK
340
0
  0
BLOCK_RECORD
  5
18
330
9
100
AcDbSymbolTableRecord
100
AcDbBlockTableRecord
  2
_DATUMFILLED
340
0
  0
BLOCK_RECORD
  5
19
330
9
100
AcDbSymbolTableRecord
100
AcDbBlockTableRecord
  2
_ORIGIN
340
0
  0
BLOCK_RECORD
  5
1A
330
9
100
AcDbSymbolTableRecord
100
AcDbBlockTableRecord
  2
_NONE
340
0
  0
BLOCK_RECORD
  5
1B
330
9
100
AcDbSymbolTableRecord
100
AcDbBlockTableRecord
  2
_DOTBLANK
340
0
  0
BLOCK_RECORD
  5
1C
330
9
100
AcDbSymbolTableRecord
100
AcDbBlockTableRecord
  2
_INTEGRAL
340
0
  0
ENDTAB
  0
ENDSEC
  0
SECTION
  2
BLOCKS
  0
BLOCK
  5
40
330
A
100
AcDbEntity
  8
0
100
AcDbBlockBegin
  2
*MODEL_SPACE
 70
     0
 10
0.0
 20
0.0
 30
0.0
  3
*MODEL_SPACE
  1

  0
ENDBLK
  5
53
330
A
100
AcDbEntity
  8
0
100
AcDbBlockEnd
  0
BLOCK
  5
41
330
B
100
AcDbEntity
 67
     1
  8
0
100
AcDbBlockBegin
  2
*PAPER_SPACE
 70
     0
 10
0.0
 20
0.0
 30
0.0
  3
*PAPER_SPACE
  1

  0
ENDBLK
  5
54
330
B
100
AcDbEntity
 67
     1
  8
0
100
AcDbBlockEnd
  0
BLOCK
  5
42
330
C
100
AcDbEntity
  8
0
100
AcDbBlockBegin
  2
_ARCHTICK
 70
     0
 10
0.0
 20
0.0
 30
0.0
  3
_ARCHTICK
  1

  0
LWPOLYLINE
  5
75
330
C
100
AcDbEntity
  8
0
  6
ByBlock
 62
     0
380
     1
100
AcDbPolyline
 90
        2
 70
     1
 43
0.15
 10
-0.5
 20
-0.5
 10
0.5
 20
0.5
  0
ENDBLK
  5
55
330
C
100
AcDbEntity
  8
0
100
AcDbBlockEnd
  0
BLOCK
  5
43
330
D
100
AcDbEntity
  8
0
100
AcDbBlockBegin
  2
_OBLIQUE
 70
     0
 10
0.0
 20
0.0
 30
0.0
  3
_OBLIQUE
  1

  0
LINE
  5
79
330
D
100
AcDbEntity
  8
0
  6
ByBlock
 62
     0
380
     1
100
AcDbLine
 10
-0.5
 20
-0.5
 30
0.0
 11
0.5
 21
0.5
 31
0.0
  0
ENDBLK
  5
61
330
D
100
AcDbEntity
  8
0
100
AcDbBlockEnd
  0
BLOCK
  5
44
330
E
100
AcDbEntity
  8
0
100
AcDbBlockBegin
  2
_BOXBLANK
 70
     0
 10
0.0
 20
0.0
 30
0.0
  3
_BOXBLANK
  1

  0
LINE
  5
7A
330
E
100
AcDbEntity
  8
0
  6
ByBlock
 62
     0
380
     1
100
AcDbLine
 10
-0.5
 20
-0.5
 30
0.0
 11
0.5
 21
-0.5
 31
0.0
  0
LINE
  5
7B
330
E
100
AcDbEntity
  8
0
  6
ByBlock
 62
     0
380
     1
100
AcDbLine
 10
0.5
 20
-0.5
 30
0.0
 11
0.5
 21
0.5
 31
0.0
  0
LINE
  5
7C
330
E
100
AcDbEntity
  8
0
  6
ByBlock
 62
     0
380
     1
100
AcDbLine
 10
0.5
 20
0.5
 30
0.0
 11
-0.5
 21
0.5
 31
0.0
  0
LINE
  5
7D
330
E
100
AcDbEntity
  8
0
  6
ByBlock
 62
     0
380
     1
100
AcDbLine
 10
-0.5
 20
0.5
 30
0.0
 11
-0.5
 21
-0.5
 31
0.0
  0
LINE
  5
7E
330
E
100
AcDbEntity
  8
0
  6
ByBlock
 62
     0
380
     1
100
AcDbLine
 10
-0.5
 20
0.0
 30
0.0
 11
-1.0
 21
0.0
 31
0.0
  0
ENDBLK
  5
56
330
E
100
AcDbEntity
  8
0
100
AcDbBlockEnd
  0
BLOCK
  5
45
330
F
100
AcDbEntity
  8
0
100
AcDbBlockBegin
  2
_BOXFILLED
 70
     0
 10
0.0
 20
0.0
 30
0.0
  3
_BOXFILLED
  1

  0
SOLID
  5
7F
330
F
100
AcDbEntity
  8
0
  6
ByBlock
 62
     0
380
     1
100
AcDbTrace
 10
-0.5
 20
0.5
 30
0.0
 11
0.5
 21
0.5
 31
0.0
 12
-0.5
 22
-0.5
 32
0.0
 13
0.5
 23
-0.5
 33
0.0
  0
LINE
  5
80
330
F
100
AcDbEntity
  8
0
  6
ByBlock
 62
     0
380
     1
100
AcDbLine
 10
-0.5
 20
0.0
 30
0.0
 11
-1.0
 21
0.0
 31
0.0
  0
ENDBLK
  5
57
330
F
100
AcDbEntity
  8
0
100
AcDbBlockEnd
  0
BLOCK
  5
46
330
10
100
AcDbEntity
  8
0
100
AcDbBlockBegin
  2
_CLOSED
 70
     0
 10
0.0
 20
0.0
 30
0.0
  3
_CLOSED
  1

  0
LINE
  5
81
330
10
100
AcDbEntity
  8
0
  6
ByBlock
 62
     0
380
     1
100
AcDbLine
 10
-1.0
 20
0.16666666666667
 30
0.0
 11
0.0
 21
0.0
 31
0.0
  0
LINE
  5
82
330
10
100
AcDbEntity
  8
0
  6
ByBlock
 62
     0
380
     1
100
AcDbLine
 10
0.0
 20
0.0
 30
0.0
 11
-1.0
 21
-0.16666666666667
 31
0.0
  0
LINE
  5
83
330
10
100
AcDbEntity
  8
0
  6
ByBlock
 62
     0
380
     1
100
AcDbLine
 10
-1.0
 20
0.16666666666667
 30
0.0
 11
-1.0
 21
-0.16666666666667
 31
0.0
  0
LINE
  5
84
330
10
100
AcDbEntity
  8
0
  6
ByBlock
 62
     0
380
     1
100
AcDbLine
 10
0.0
 20
0.0
 30
0.0
 11
-1.0
 21
0.0
 31
0.0
  0
ENDBLK
  5
58
330
10
100
AcDbEntity
  8
0
100
AcDbBlockEnd
  0
BLOCK
  5
47
330
11
100
AcDbEntity
  8
0
100
AcDbBlockBegin
  2
_OPEN
 70
     0
 10
0.0
 20
0.0
 30
0.0
  3
_OPEN
  1

  0
LINE
  5
85
330
11
100
AcDbEntity
  8
0
  6
ByBlock
 62
     0
380
     1
100
AcDbLine
 10
-1.0
 20
0.16666666666667
 30
0.0
 11
0.0
 21
0.0
 31
0.0
  0
LINE
  5
86
330
11
100
AcDbEntity
  8
0
  6
ByBlock
 62
     0
380
     1
100
AcDbLine
 10
0.0
 20
0.0
 30
0.0
 11
-1.0
 21
-0.16666666666667
 31
0.0
  0
LINE
  5
87
330
11
100
AcDbEntity
  8
0
  6
ByBlock
 62
     0
380
     1
100
AcDbLine
 10
0.0
 20
0.0
 30
0.0
 11
-1.0
 21
0.0
 31
0.0
  0
ENDBLK
  5
62
330
11
100
AcDbEntity
  8
0
100
AcDbBlockEnd
  0
BLOCK
  5
48
330
12
100
AcDbEntity
  8
0
100
AcDbBlockBegin
  2
_OPEN30
 70
     0
 10
0.0
 20
0.0
 30
0.0
  3
_OPEN30
  1

  0
LINE
  5
88
330
12
100
AcDbEntity
  8
0
  6
ByBlock
 62
     0
380
     1
100
AcDbLine
 10
-1.0
 20
0.2679491924311
 30
0.0
 11
0.0
 21
0.0
 31
0.0
  0
LINE
  5
89
330
12
100
AcDbEntity
  8
0
  6
ByBlock
 62
     0
380
     1
100
AcDbLine
 10
0.0
 20
0.0
 30
0.0
 11
-1.0
 21
-0.2679491924311
 31
0.0
  0
LINE
  5
8A
330
12
100
AcDbEntity
  8
0
  6
ByBlock
 62
     0
380
     1
100
AcDbLine
 10
0.0
 20
0.0
 30
0.0
 11
-1.0
 21
0.0
 31
0.0
  0
ENDBLK
  5
63
330
12
100
AcDbEntity
  8
0
100
AcDbBlockEnd
  0
BLOCK
  5
49
330
13
100
AcDbEntity
  8
0
100
AcDbBlockBegin
  2
_OPEN90
 70
     0
 10
0.0
 20
0.0
 30
0.0
  3
_OPEN90
  1

  0
LINE
  5
8B
330
13
100
AcDbEntity
  8
0
  6
ByBlock
 62
     0
380
     1
100
AcDbLine
 10
-0.5
 20
0.5
 30
0.0
 11
0.0
 21
0.0
 31
0.0
  0
LINE
  5
8C
330
13
100
AcDbEntity
  8
0
  6
ByBlock
 62
     0
380
     1
100
AcDbLine
 10
0.0
 20
0.0
 30
0.0
 11
-0.5
 21
-0.5
 31
0.0
  0
LINE
  5
8D
330
13
100
AcDbEntity
  8
0
  6
ByBlock
 62
     0
380
     1
100
AcDbLine
 10
0.0
 20
0.0
 30
0.0
 11
-1.0
 21
0.0
 31
0.0
  0
ENDBLK
  5
64
330
13
100
AcDbEntity
  8
0
100
AcDbBlockEnd
  0
BLOCK
  5
4A
330
14
100
AcDbEntity
  8
0
100
AcDbBlockBegin
  2
_CLOSEDBLANK
 70
     0
 10
0.0
 20
0.0
 30
0.0
  3
_CLOSEDBLANK
  1

  0
LINE
  5
8E
330
14
100
AcDbEntity
  8
0
  6
ByBlock
 62
     0
380
     1
100
AcDbLine
 10
-1.0
 20
0.16666666666667
 30
0.0
 11
0.0
 21
0.0
 31
0.0
  0
LINE
  5
8F
330
14
100
AcDbEntity
  8
0
  6
ByBlock
 62
     0
380
     1
100
AcDbLine
 10
0.0
 20
0.0
 30
0.0
 11
-1.0
 21
-0.16666666666667
 31
0.0
  0
LINE
  5
90
330
14
100
AcDbEntity
  8
0
  6
ByBlock
 62
     0
380
     1
100
AcDbLine
 10
-1.0
 20
0.16666666666667
 30
0.0
 11
-1.0
 21
-0.16666666666667
 31
0.0
  0
ENDBLK
  5
59
330
14
100
AcDbEntity
  8
0
100
AcDbBlockEnd
  0
BLOCK
  5
4B
330
15
100
AcDbEntity
  8
0
100
AcDbBlockBegin
  2
_DOT
 70
     0
 10
0.0
 20
0.0
 30
0.0
  3
_DOT
  1

  0
LWPOLYLINE
  5
91
330
15
100
AcDbEntity
  8
0
  6
ByBlock
 62
     0
380
     1
100
AcDbPolyline
 90
        2
 70
     1
 43
0.5
 10
-0.25
 20
0.0
 42
1.0
 10
0.25
 20
0.0
 42
1.0
  0
LINE
  5
95
330
15
100
AcDbEntity
  8
0
  6
ByBlock
 62
     0
380
     1
100
AcDbLine
 10
-0.5
 20
0.0
 30
0.0
 11
-1.0
 21
0.0
 31
0.0
  0
ENDBLK
  5
5C
330
15
100
AcDbEntity
  8
0
100
AcDbBlockEnd
  0
BLOCK
  5
4C
330
16
100
AcDbEntity
  8
0
100
AcDbBlockBegin
  2
_DOTSMALL
 70
     0
 10
0.0
 20
0.0
 30
0.0
  3
_DOTSMALL
  1

  0
LWPOLYLINE
  5
96
330
16
100
AcDbEntity
  8
0
  6
ByBlock
 62
     0
380
     1
100
AcDbPolyline
 90
        2
 70
     1
 43
0.5
 10
-0.0625
 20
0.0
 42
1.0
 10
0.0625
 20
0.0
 42
1.0
  0
ENDBLK
  5
5E
330
16
100
AcDbEntity
  8
0
100
AcDbBlockEnd
  0
BLOCK
  5
4D
330
17
100
AcDbEntity
  8
0
100
AcDbBlockBegin
  2
_DATUMBLANK
 70
     0
 10
0.0
 20
0.0
 30
0.0
  3
_DATUMBLANK
  1

  0
LINE
  5
9A
330
17
100
AcDbEntity
  8
0
  6
ByBlock
 62
     0
380
     1
100
AcDbLine
 10
0.0
 20
0.5773502700000001
 30
0.0
 11
-1.0
 21
0.0
 31
0.0
  0
LINE
  5
9B
330
17
100
AcDbEntity
  8
0
  6
ByBlock
 62
     0
380
     1
100
AcDbLine
 10
-1.0
 20
0.0
 30
0.0
 11
0.0
 21
-0.5773502700000001
 31
0.0
  0
LINE
  5
9C
330
17
100
AcDbEntity
  8
0
  6
ByBlock
 62
     0
380
     1
100
AcDbLine
 10
0.0
 20
-0.5773502700000001
 30
0.0
 11
0.0
 21
0.5773502700000001
 31
0.0
  0
ENDBLK
  5
5A
330
17
100
AcDbEntity
  8
0
100
AcDbBlockEnd
  0
BLOCK
  5
4E
330
18
100
AcDbEntity
  8
0
100
AcDbBlockBegin
  2
_DATUMFILLED
 70
     0
 10
0.0
 20
0.0
 30
0.0
  3
_DATUMFILLED
  1

  0
SOLID
  5
9D
330
18
100
AcDbEntity
  8
0
  6
ByBlock
 62
     0
380
     1
100
AcDbTrace
 10
0.0
 20
0.5773502700000001
 30
0.0
 11
-1.0
 21
0.0
 31
0.0
 12
0.0
 22
-0.5773502700000001
 32
0.0
 13
0.0
 23
-0.5773502700000001
 33
0.0
  0
ENDBLK
  5
5B
330
18
100
AcDbEntity
  8
0
100
AcDbBlockEnd
  0
BLOCK
  5
4F
330
19
100
AcDbEntity
  8
0
100
AcDbBlockBegin
  2
_ORIGIN
 70
     0
 10
0.0
 20
0.0
 30
0.0
  3
_ORIGIN
  1

  0
CIRCLE
  5
9E
330
19
100
AcDbEntity
  8
0
  6
ByBlock
 62
     0
380
     1
100
AcDbCircle
 10
0.0
 20
0.0
 30
0.0
 40
0.5
  0
LINE
  5
9F
330
19
100
AcDbEntity
  8
0
  6
ByBlock
 62
     0
380
     1
100
AcDbLine
 10
0.0
 20
0.0
 30
0.0
 11
-1.0
 21
0.0
 31
0.0
  0
ENDBLK
  5
65
330
19
100
AcDbEntity
  8
0
100
AcDbBlockEnd
  0
BLOCK
  5
50
330
1A
100
AcDbEntity
  8
0
100
AcDbBlockBegin
  2
_NONE
 70
     0
 10
0.0
 20
0.0
 30
0.0
  3
_NONE
  1

  0
CIRCLE
  5
A0
330
1A
100
AcDbEntity
  8
0
  6
ByBlock
 62
     0
380
     1
100
AcDbCircle
 10
0.0
 20
0.0
 30
0.0
 40
0.25
  0
ENDBLK
  5
60
330
1A
100
AcDbEntity
  8
0
100
AcDbBlockEnd
  0
BLOCK
  5
51
330
1B
100
AcDbEntity
  8
0
100
AcDbBlockBegin
  2
_DOTBLANK
 70
     0
 10
0.0
 20
0.0
 30
0.0
  3
_DOTBLANK
  1

  0
CIRCLE
  5
A1
330
1B
100
AcDbEntity
  8
0
  6
ByBlock
 62
     0
380
     1
100
AcDbCircle
 10
0.0
 20
0.0
 30
0.0
 40
0.5
  0
LINE
  5
A2
330
1B
100
AcDbEntity
  8
0
  6
ByBlock
 62
     0
380
     1
100
AcDbLine
 10
-0.5
 20
0.0
 30
0.0
 11
-1.0
 21
0.0
 31
0.0
  0
ENDBLK
  5
5D
330
1B
100
AcDbEntity
  8
0
100
AcDbBlockEnd
  0
BLOCK
  5
52
330
1C
100
AcDbEntity
  8
0
100
AcDbBlockBegin
  2
_INTEGRAL
 70
     0
 10
0.0
 20
0.0
 30
0.0
  3
_INTEGRAL
  1

  0
ARC
  5
A3
330
1C
100
AcDbEntity
  8
0
  6
ByBlock
 62
     0
380
     1
100
AcDbCircle
 10
0.444888
 20
-0.091335
 30
0.0
 40
0.454167
100
AcDbArc
 50
102.0
 51
168.0
  0
ARC
  5
A4
330
1C
100
AcDbEntity
  8
0
  6
ByBlock
 62
     0
380
     1
100
AcDbCircle
 10
-0.444888
 20
0.091335
 30
0.0
 40
0.454167
100
AcDbArc
 50
282.0
 51
348.0
  0
ENDBLK
  5
5F
330
1C
100
AcDbEntity
  8
0
100
AcDbBlockEnd
  0
ENDSEC
  0
SECTION
  2
ENTITIES
  0
LWPOLYLINE
  5
A5
330
A
100
AcDbEntity
  8
LEVEL001
  6
Continuous
 62
     3
370
    40
100
AcDbPolyline
 90
        5
 70
     0
 43
0.0
 10
62.00000000010899
 20
48.000000000009
 10
1618.0000000001
 20
48.000000000009
 10
1618.0000000001
 20
1140.0
 10
62.00000000010899
 20
1140.0
 10
62.00000000010899
 20
48.000000000009
  0
LINE
  5
AC
330
A
100
AcDbEntity
  8
LEVEL001
  6
Continuous
 62
     3
370
    40
100
AcDbLine
 10
1218.0000000001
 20
1140.0
 30
0.0
 11
1218.0000000001
 21
48.000000000009
 31
0.0
  0
LWPOLYLINE
  5
AD
102
{ACAD_REACTORS
330
55B
102
}
330
A
100
AcDbEntity
  8
LEVEL001
  6
Continuous
 62
     3
100
AcDbPolyline
 90
        6
 70
     0
 43
0.0
 10
1376.6000000002
 20
1088.3
 10
1347.8000000002
 20
1088.3
 10
1347.8000000002
 20
1045.1
 10
1362.2000000002
 20
1045.1
 10
1362.2000000002
 20
1052.3
 10
1376.6000000002
 20
1052.3
  0
ARC
  5
B5
330
A
100
AcDbEntity
  8
LEVEL001
  6
Continuous
 62
     3
100
AcDbCircle
 10
1376.6000000002
 20
1070.3
 30
0.0
 40
18.0
100
AcDbArc
 50
270.0
 51
90.0
  0
LINE
  5
B6
330
A
100
AcDbEntity
  8
LEVEL001
  6
Continuous
 62
     3
100
AcDbLine
 10
1362.2000000002
 20
1066.7
 30
0.0
 11
1376.6000000002
 21
1066.7
 31
0.0
  0
ARC
  5
B7
330
A
100
AcDbEntity
  8
LEVEL001
  6
Continuous
 62
     3
100
AcDbCircle
 10
1376.6000000002
 20
1070.3
 30
0.0
 40
3.6
100
AcDbArc
 50
270.0
 51
90.0
  0
LINE
  5
B8
330
A
100
AcDbEntity
  8
LEVEL001
  6
Continuous
 62
     3
100
AcDbLine
 10
1376.6000000002
 20
1073.9
 30
0.0
 11
1362.2000000002
 21
1073.9
 31
0.0
  0
LINE
  5
B9
330
A
100
AcDbEntity
  8
LEVEL001
  6
Continuous
 62
     3
100
AcDbLine
 10
1362.2000000002
 20
1073.9
 30
0.0
 11
1362.2000000002
 21
1066.7
 31
0.0
  0
LWPOLYLINE
  5
BA
102
{ACAD_REACTORS
330
55B
102
}
330
A
100
AcDbEntity
  8
LEVEL001
  6
Continuous
 62
     3
100
AcDbPolyline
 90
       26
 70
     0
 43
0.0
 10
1383.8000000002
 20
1045.1
 10
1412.6000000002
 20
1088.3
 10
1448.6000000002
 20
1088.3
 10
1448.6000000002
 20
1059.5
 10
1470.2000000002
 20
1059.5
 10
1470.2000000002
 20
1073.9
 10
1455.8000000002
 20
1073.9
 10
1455.8000000002
 20
1088.3
 10
1542.2000000002
 20
1088.3
 10
1542.2000000002
 20
1073.9
 10
1513.4000000002
 20
1073.9
 10
1513.4000000002
 20
1070.3
 10
1538.6000000002
 20
1070.3
 10
1538.6000000002
 20
1063.1
 10
1513.4000000002
 20
1063.1
 10
1513.4000000002
 20
1059.5
 10
1542.2000000002
 20
1059.5
 10
1542.2000000002
 20
1045.1
 10
1499.0000000002
 20
1045.1
 10
1499.0000000002
 20
1073.9
 10
1484.6000000002
 20
1073.9
 10
1484.6000000002
 20
1045.1
 10
1434.2000000002
 20
1045.1
 10
1434.2000000002
 20
1088.3
 10
1405.4000000002
 20
1045.1
 10
1383.8000000002
 20
1045.1
  0
LWPOLYLINE
  5
D6
102
{ACAD_REACTORS
330
55B
102
}
330
A
100
AcDbEntity
  8
LEVEL001
  6
Continuous
 62
     3
100
AcDbPolyline
 90
        4
 70
     0
 43
0.0
 10
1429.4000000002
 20
1072.4466769389
 10
1411.1688820409
 20
1045.1
 10
1429.4000000002
 20
1045.1
 10
1429.4000000002
 20
1072.4466769389
  0
ARC
  5
DC
330
A
100
AcDbEntity
  8
LEVEL001
  6
Continuous
 62
     3
100
AcDbCircle
 10
1563.8000000002
 20
1066.7
 30
0.0
 40
21.6
100
AcDbArc
 50
90.0
 51
270.0
  0
ARC
  5
DD
330
A
100
AcDbEntity
  8
LEVEL001
  6
Continuous
 62
     3
100
AcDbCircle
 10
1563.8000000002
 20
1066.7
 30
0.0
 40
7.2
100
AcDbArc
 50
90.0
 51
270.0
  0
LWPOLYLINE
  5
DE
102
{ACAD_REACTORS
330
55B
102
}
330
A
100
AcDbEntity
  8
LEVEL001
  6
Continuous
 62
     3
100
AcDbPolyline
 90
        4
 70
     0
 43
0.0
 10
1563.8000000002
 20
1088.3
 10
1585.4000000002
 20
1088.3
 10
1585.4000000002
 20
1073.9
 10
1563.8000000002
 20
1073.9
  0
LINE
  5
E4
102
{ACAD_REACTORS
330
55B
102
}
330
A
100
AcDbEntity
  8
LEVEL001
  6
Continuous
 62
     3
100
AcDbLine
 10
1347.8000000002
 20
1088.3
 30
0.0
 11
1347.8000000002
 21
1045.1
 31
0.0
  0
LINE
  5
E5
330
A
100
AcDbEntity
  8
LEVEL001
  6
Continuous
 62
     3
100
AcDbLine
 10
1347.8000000002
 20
1045.1
 30
0.0
 11
1362.2000000002
 21
1045.1
 31
0.0
  0
LINE
  5
E6
330
A
100
AcDbEntity
  8
LEVEL001
  6
Continuous
 62
     3
100
AcDbLine
 10
1362.2000000002
 20
1045.1
 30
0.0
 11
1362.2000000002
 21
1052.3
 31
0.0
  0
LINE
  5
E7
330
A
100
AcDbEntity
  8
LEVEL001
  6
Continuous
 62
     3
100
AcDbLine
 10
1362.2000000002
 20
1052.3
 30
0.0
 11
1376.6000000002
 21
1052.3
 31
0.0
  0
ARC
  5
E8
102
{ACAD_REACTORS
330
55B
102
}
330
A
100
AcDbEntity
  8
LEVEL001
  6
Continuous
 62
     3
100
AcDbCircle
 10
1376.6000000002
 20
1070.3
 30
0.0
 40
18.0
100
AcDbArc
 50
270.0
 51
90.0
  0
LINE
  5
E9
330
A
100
AcDbEntity
  8
LEVEL001
  6
Continuous
 62
     3
100
AcDbLine
 10
1376.6000000002
 20
1088.3
 30
0.0
 11
1347.8000000002
 21
1088.3
 31
0.0
  0
LINE
  5
EA
102
{ACAD_REACTORS
330
55B
102
}
330
A
100
AcDbEntity
  8
LEVEL001
  6
Continuous
 62
     3
100
AcDbLine
 10
1362.2000000002
 20
1073.9
 30
0.0
 11
1362.2000000002
 21
1066.7
 31
0.0
  0
LINE
  5
EB
102
{ACAD_REACTORS
330
55B
102
}
330
A
100
AcDbEntity
  8
LEVEL001
  6
Continuous
 62
     3
100
AcDbLine
 10
1362.2000000002
 20
1066.7
 30
0.0
 11
1376.6000000002
 21
1066.7
 31
0.0
  0
ARC
  5
EC
102
{ACAD_REACTORS
330
55B
102
}
330
A
100
AcDbEntity
  8
LEVEL001
  6
Continuous
 62
     3
100
AcDbCircle
 10
1376.6000000002
 20
1070.3
 30
0.0
 40
3.6
100
AcDbArc
 50
270.0
 51
90.0
  0
LINE
  5
ED
102
{ACAD_REACTORS
330
55B
102
}
330
A
100
AcDbEntity
  8
LEVEL001
  6
Continuous
 62
     3
100
AcDbLine
 10
1376.6000000002
 20
1073.9
 30
0.0
 11
1362.2000000002
 21
1073.9
 31
0.0
  0
LINE
  5
EE
102
{ACAD_REACTORS
330
55B
102
}
330
A
100
AcDbEntity
  8
LEVEL001
  6
Continuous
 62
     3
100
AcDbLine
 10
1412.6000000002
 20
1088.3
 30
0.0
 11
1383.8000000002
 21
1045.1
 31
0.0
  0
LINE
  5
EF
330
A
100
AcDbEntity
  8
LEVEL001
  6
Continuous
 62
     3
100
AcDbLine
 10
1383.8000000002
 20
1045.1
 30
0.0
 11
1405.4000000002
 21
1045.1
 31
0.0
  0
LINE
  5
F0
330
A
100
AcDbEntity
  8
LEVEL001
  6
Continuous
 62
     3
100
AcDbLine
 10
1405.4000000002
 20
1045.1
 30
0.0
 11
1434.2000000002
 21
1088.3
 31
0.0
  0
LINE
  5
F1
330
A
100
AcDbEntity
  8
LEVEL001
  6
Continuous
 62
     3
100
AcDbLine
 10
1434.2000000002
 20
1088.3
 30
0.0
 11
1412.6000000002
 21
1088.3
 31
0.0
  0
LINE
  5
F2
102
{ACAD_REACTORS
330
55B
102
}
330
A
100
AcDbEntity
  8
LEVEL001
  6
Continuous
 62
     3
100
AcDbLine
 10
1429.4000000002
 20
1045.1
 30
0.0
 11
1429.4000000002
 21
1072.4466769389
 31
0.0
  0
LINE
  5
F3
330
A
100
AcDbEntity
  8
LEVEL001
  6
Continuous
 62
     3
100
AcDbLine
 10
1429.4000000002
 20
1072.4466769389
 30
0.0
 11
1411.1688820409
 21
1045.1
 31
0.0
  0
LINE
  5
F4
330
A
100
AcDbEntity
  8
LEVEL001
  6
Continuous
 62
     3
100
AcDbLine
 10
1411.1688820409
 20
1045.1
 30
0.0
 11
1429.4000000002
 21
1045.1
 31
0.0
  0
LINE
  5
F5
330
A
100
AcDbEntity
  8
LEVEL001
  6
Continuous
 62
     3
100
AcDbLine
 10
1434.2000000002
 20
1045.1
 30
0.0
 11
1484.6000000002
 21
1045.1
 31
0.0
  0
LINE
  5
F6
330
A
100
AcDbEntity
  8
LEVEL001
  6
Continuous
 62
     3
100
AcDbLine
 10
1484.6000000002
 20
1045.1
 30
0.0
 11
1484.6000000002
 21
1073.9
 31
0.0
  0
LINE
  5
F7
330
A
100
AcDbEntity
  8
LEVEL001
  6
Continuous
 62
     3
100
AcDbLine
 10
1484.6000000002
 20
1073.9
 30
0.0
 11
1499.0000000002
 21
1073.9
 31
0.0
  0
LINE
  5
F8
330
A
100
AcDbEntity
  8
LEVEL001
  6
Continuous
 62
     3
100
AcDbLine
 10
1499.0000000002
 20
1073.9
 30
0.0
 11
1499.0000000002
 21
1045.1
 31
0.0
  0
LINE
  5
F9
330
A
100
AcDbEntity
  8
LEVEL001
  6
Continuous
 62
     3
100
AcDbLine
 10
1499.0000000002
 20
1045.1
 30
0.0
 11
1542.2000000002
 21
1045.1
 31
0.0
  0
LINE
  5
FA
330
A
100
AcDbEntity
  8
LEVEL001
  6
Continuous
 62
     3
100
AcDbLine
 10
1542.2000000002
 20
1045.1
 30
0.0
 11
1542.2000000002
 21
1059.5
 31
0.0
  0
LINE
  5
FB
330
A
100
AcDbEntity
  8
LEVEL001
  6
Continuous
 62
     3
100
AcDbLine
 10
1542.2000000002
 20
1059.5
 30
0.0
 11
1513.4000000002
 21
1059.5
 31
0.0
  0
LINE
  5
FC
330
A
100
AcDbEntity
  8
LEVEL001
  6
Continuous
 62
     3
100
AcDbLine
 10
1513.4000000002
 20
1059.5
 30
0.0
 11
1513.4000000002
 21
1063.1
 31
0.0
  0
LINE
  5
FD
330
A
100
AcDbEntity
  8
LEVEL001
  6
Continuous
 62
     3
100
AcDbLine
 10
1513.4000000002
 20
1063.1
 30
0.0
 11
1538.6000000002
 21
1063.1
 31
0.0
  0
LINE
  5
FE
330
A
100
AcDbEntity
  8
LEVEL001
  6
Continuous
 62
     3
100
AcDbLine
 10
1538.6000000002
 20
1063.1
 30
0.0
 11
1538.6000000002
 21
1070.3
 31
0.0
  0
LINE
  5
FF
330
A
100
AcDbEntity
  8
LEVEL001
  6
Continuous
 62
     3
100
AcDbLine
 10
1538.6000000002
 20
1070.3
 30
0.0
 11
1513.4000000002
 21
1070.3
 31
0.0
  0
LINE
  5
100
330
A
100
AcDbEntity
  8
LEVEL001
  6
Continuous
 62
     3
100
AcDbLine
 10
1513.4000000002
 20
1070.3
 30
0.0
 11
1513.4000000002
 21
1073.9
 31
0.0
  0
LINE
  5
101
330
A
100
AcDbEntity
  8
LEVEL001
  6
Continuous
 62
     3
100
AcDbLine
 10
1513.4000000002
 20
1073.9
 30
0.0
 11
1542.2000000002
 21
1073.9
 31
0.0
  0
LINE
  5
102
330
A
100
AcDbEntity
  8
LEVEL001
  6
Continuous
 62
     3
100
AcDbLine
 10
1542.2000000002
 20
1073.9
 30
0.0
 11
1542.2000000002
 21
1088.3
 31
0.0
  0
LINE
  5
103
330
A
100
AcDbEntity
  8
LEVEL001
  6
Continuous
 62
     3
100
AcDbLine
 10
1542.2000000002
 20
1088.3
 30
0.0
 11
1455.8000000002
 21
1088.3
 31
0.0
  0
LINE
  5
104
330
A
100
AcDbEntity
  8
LEVEL001
  6
Continuous
 62
     3
100
AcDbLine
 10
1455.8000000002
 20
1088.3
 30
0.0
 11
1455.8000000002
 21
1073.9
 31
0.0
  0
LINE
  5
105
330
A
100
AcDbEntity
  8
LEVEL001
  6
Continuous
 62
     3
100
AcDbLine
 10
1455.8000000002
 20
1073.9
 30
0.0
 11
1470.2000000002
 21
1073.9
 31
0.0
  0
LINE
  5
106
330
A
100
AcDbEntity
  8
LEVEL001
  6
Continuous
 62
     3
100
AcDbLine
 10
1470.2000000002
 20
1073.9
 30
0.0
 11
1470.2000000002
 21
1059.5
 31
0.0
  0
LINE
  5
107
102
{ACAD_REACTORS
330
55B
102
}
330
A
100
AcDbEntity
  8
LEVEL001
  6
Continuous
 62
     3
100
AcDbLine
 10
1470.2000000002
 20
1059.5
 30
0.0
 11
1448.6000000002
 21
1059.5
 31
0.0
  0
LINE
  5
108
102
{ACAD_REACTORS
330
55B
102
}
330
A
100
AcDbEntity
  8
LEVEL001
  6
Continuous
 62
     3
100
AcDbLine
 10
1448.6000000002
 20
1059.5
 30
0.0
 11
1448.6000000002
 21
1088.3
 31
0.0
  0
LINE
  5
109
330
A
100
AcDbEntity
  8
LEVEL001
  6
Continuous
 62
     3
100
AcDbLine
 10
1448.6000000002
 20
1088.3
 30
0.0
 11
1434.2000000002
 21
1088.3
 31
0.0
  0
LINE
  5
10A
330
A
100
AcDbEntity
  8
LEVEL001
  6
Continuous
 62
     3
100
AcDbLine
 10
1434.2000000002
 20
1088.3
 30
0.0
 11
1434.2000000002
 21
1045.1
 31
0.0
  0
LINE
  5
10B
102
{ACAD_REACTORS
330
55B
102
}
330
A
100
AcDbEntity
  8
LEVEL001
  6
Continuous
 62
     3
100
AcDbLine
 10
1563.8000000002
 20
1045.1
 30
0.0
 11
1585.4000000002
 21
1045.1
 31
0.0
  0
LINE
  5
10C
102
{ACAD_REACTORS
330
55B
102
}
330
A
100
AcDbEntity
  8
LEVEL001
  6
Continuous
 62
     3
100
AcDbLine
 10
1585.4000000002
 20
1045.1
 30
0.0
 11
1585.4000000002
 21
1059.5
 31
0.0
  0
LINE
  5
10D
102
{ACAD_REACTORS
330
55B
102
}
330
A
100
AcDbEntity
  8
LEVEL001
  6
Continuous
 62
     3
100
AcDbLine
 10
1585.4000000002
 20
1059.5
 30
0.0
 11
1563.8000000002
 21
1059.5
 31
0.0
  0
ARC
  5
10E
102
{ACAD_REACTORS
330
55B
102
}
330
A
100
AcDbEntity
  8
LEVEL001
  6
Continuous
 62
     3
100
AcDbCircle
 10
1563.8000000002
 20
1066.7
 30
0.0
 40
7.2
100
AcDbArc
 50
90.0
 51
270.0
  0
LINE
  5
10F
102
{ACAD_REACTORS
330
55B
102
}
330
A
100
AcDbEntity
  8
LEVEL001
  6
Continuous
 62
     3
100
AcDbLine
 10
1563.8000000002
 20
1073.9
 30
0.0
 11
1585.4000000002
 21
1073.9
 31
0.0
  0
LINE
  5
110
330
A
100
AcDbEntity
  8
LEVEL001
  6
Continuous
 62
     3
100
AcDbLine
 10
1585.4000000002
 20
1073.9
 30
0.0
 11
1585.4000000002
 21
1088.3
 31
0.0
  0
LINE
  5
111
330
A
100
AcDbEntity
  8
LEVEL001
  6
Continuous
 62
     3
100
AcDbLine
 10
1585.4000000002
 20
1088.3
 30
0.0
 11
1563.8000000002
 21
1088.3
 31
0.0
  0
ARC
  5
112
102
{ACAD_REACTORS
330
55B
102
}
330
A
100
AcDbEntity
  8
LEVEL001
  6
Continuous
 62
     3
100
AcDbCircle
 10
1563.8000000002
 20
1066.7
 30
0.0
 40
21.6
100
AcDbArc
 50
90.0
 51
270.0
  0
TEXT
  5
113
330
A
100
AcDbEntity
  8
LEVEL001
 62
     3
100
AcDbText
 10
1347.8000000002
 20
1095.5
 30
0.0
 40
15.0
  1
ケージーパルテック株式会社
 41
0.8
100
AcDbText
  0
LWPOLYLINE
  5
114
102
{ACAD_REACTORS
330
55B
102
}
330
A
100
AcDbEntity
  8
LEVEL001
  6
Continuous
 62
     3
100
AcDbPolyline
 90
        4
 70
     0
 43
0.0
 10
1333.4000000002
 20
1054.7
 10
1315.4000000002
 20
1083.5
 10
1333.4000000002
 20
1083.5
 10
1333.4000000002
 20
1054.7
  0
LINE
  5
11A
330
A
100
AcDbEntity
  8
LEVEL001
  6
Continuous
 62
     3
100
AcDbLine
 10
1315.4000000002
 20
1083.5
 30
0.0
 11
1333.4000000002
 21
1054.7
 31
0.0
  0
LINE
  5
11B
102
{ACAD_REACTORS
330
55B
102
}
330
A
100
AcDbEntity
  8
LEVEL001
  6
Continuous
 62
     3
100
AcDbLine
 10
1333.4000000002
 20
1054.7
 30
0.0
 11
1333.4000000002
 21
1083.5
 31
0.0
  0
LINE
  5
11C
330
A
100
AcDbEntity
  8
LEVEL001
  6
Continuous
 62
     3
100
AcDbLine
 10
1333.4000000002
 20
1083.5
 30
0.0
 11
1315.4000000002
 21
1083.5
 31
0.0
  0
LWPOLYLINE
  5
11D
330
A
100
AcDbEntity
  8
LEVEL001
  6
Continuous
 62
     3
100
AcDbPolyline
 90
        3
 70
     0
 43
0.0
 10
1276.2000000002
 20
1121.9
 10
1250.6000000002
 20
1083.5
 10
1276.2000000002
 20
1045.1
  0
LWPOLYLINE
  5
122
330
A
100
AcDbEntity
  8
LEVEL001
  6
Continuous
 62
     3
100
AcDbPolyline
 90
        3
 70
     0
 43
0.0
 10
1297.8000000002
 20
1045.1
 10
1272.2000000002
 20
1083.5
 10
1297.8000000002
 20
1121.9
  0
LWPOLYLINE
  5
127
330
A
100
AcDbEntity
  8
LEVEL001
  6
Continuous
 62
     3
100
AcDbPolyline
 90
        3
 70
     0
 43
0.0
 10
1308.6000000002
 20
1121.9
 10
1283.0000000002
 20
1083.5
 10
1308.6000000002
 20
1045.1
  0
LWPOLYLINE
  5
12C
330
A
100
AcDbEntity
  8
LEVEL001
  6
Continuous
 62
     3
100
AcDbPolyline
 90
        3
 70
     0
 43
0.0
 10
1330.2000000002
 20
1045.1
 10
1304.6000000002
 20
1083.5
 10
1330.2000000002
 20
1121.9
  0
LWPOLYLINE
  5
131
102
{ACAD_REACTORS
330
55B
102
}
330
A
100
AcDbEntity
  8
LEVEL001
  6
Continuous
 62
     3
100
AcDbPolyline
 90
        3
 70
     0
 43
0.0
 10
1276.2000000002
 20
1045.1
 10
1250.6000000002
 20
1083.5
 10
1276.2000000002
 20
1121.9
  0
LINE
  5
136
102
{ACAD_REACTORS
330
55B
102
}
330
A
100
AcDbEntity
  8
LEVEL001
  6
Continuous
 62
     3
100
AcDbLine
 10
1276.2000000002
 20
1121.9
 30
0.0
 11
1297.8000000002
 21
1121.9
 31
0.0
  0
LWPOLYLINE
  5
137
102
{ACAD_REACTORS
330
55B
102
}
330
A
100
AcDbEntity
  8
LEVEL001
  6
Continuous
 62
     3
100
AcDbPolyline
 90
        3
 70
     0
 43
0.0
 10
1297.8000000002
 20
1121.9
 10
1272.2000000002
 20
1083.5
 10
1297.8000000002
 20
1045.1
  0
LINE
  5
13C
102
{ACAD_REACTORS
330
55B
102
}
330
A
100
AcDbEntity
  8
LEVEL001
  6
Continuous
 62
     3
100
AcDbLine
 10
1297.8000000002
 20
1045.1
 30
0.0
 11
1276.2000000002
 21
1045.1
 31
0.0
  0
LWPOLYLINE
  5
13D
102
{ACAD_REACTORS
330
55B
102
}
330
A
100
AcDbEntity
  8
LEVEL001
  6
Continuous
 62
     3
100
AcDbPolyline
 90
        3
 70
     0
 43
0.0
 10
1308.6000000002
 20
1045.1
 10
1283.0000000002
 20
1083.5
 10
1308.6000000002
 20
1121.9
  0
LINE
  5
142
102
{ACAD_REACTORS
330
55B
102
}
330
A
100
AcDbEntity
  8
LEVEL001
  6
Continuous
 62
     3
100
AcDbLine
 10
1308.6000000002
 20
1121.9
 30
0.0
 11
1330.2000000002
 21
1121.9
 31
0.0
  0
LWPOLYLINE
  5
143
102
{ACAD_REACTORS
330
55B
102
}
330
A
100
AcDbEntity
  8
LEVEL001
  6
Continuous
 62
     3
100
AcDbPolyline
 90
        3
 70
     0
 43
0.0
 10
1330.2000000002
 20
1121.9
 10
1304.6000000002
 20
1083.5
 10
1330.2000000002
 20
1045.1
  0
LINE
  5
148
102
{ACAD_REACTORS
330
55B
102
}
330
A
100
AcDbEntity
  8
LEVEL001
  6
Continuous
 62
     3
100
AcDbLine
 10
1330.2000000002
 20
1045.1
 30
0.0
 11
1308.6000000002
 21
1045.1
 31
0.0
  0
LINE
  5
149
330
A
100
AcDbEntity
  8
LEVEL001
  6
Continuous
 62
     3
100
AcDbLine
 10
1218.0000000001
 20
1027.0
 30
0.0
 11
1618.0000000001
 21
1027.0
 31
0.0
  0
LINE
  5
14A
330
A
100
AcDbEntity
  8
LEVEL001
  6
Continuous
 62
     3
100
AcDbLine
 10
1218.0000000001
 20
947.00000000001
 30
0.0
 11
1618.0000000001
 21
947.00000000001
 31
0.0
  0
LINE
  5
14B
330
A
100
AcDbEntity
  8
LEVEL001
  6
Continuous
 62
     3
100
AcDbLine
 10
1218.0000000001
 20
867.0000000000099
 30
0.0
 11
1618.0000000001
 21
867.0000000000099
 31
0.0
  0
TEXT
  5
14C
330
A
100
AcDbEntity
  8
LEVEL001
 62
     3
100
AcDbText
 10
1223.3600000001
 20
1006.0
 30
0.0
 40
12.0
  1
商品名：
 41
0.8
 72
     1
 11
1243.2000000001
 21
1012.0
 31
0.0
100
AcDbText
 73
     2
  0
TEXT
  5
14D
330
A
100
AcDbEntity
  8
LEVEL001
 62
     3
100
AcDbText
 10
1223.1200000001
 20
926.0000000000101
 30
0.0
 40
12.0
  1
形式：
 41
0.8
 72
     1
 11
1237.2000000001
 21
932.0000000000099
 31
0.0
100
AcDbText
 73
     2
  0
TEXT
  5
14E
330
A
100
AcDbEntity
  8
LEVEL001
 62
     3
100
AcDbText
 10
1223.1200000001
 20
846.00000000001
 30
0.0
 40
12.0
  1
仕様：
 41
0.8
 72
     1
 11
1237.2000000001
 21
852.00000000001
 31
0.0
100
AcDbText
 73
     2
  0
LINE
  5
14F
330
A
100
AcDbEntity
  8
LEVEL001
  6
Continuous
 62
     3
100
AcDbLine
 10
1218.0000000001
 20
288.00000000001
 30
0.0
 11
1618.0000000001
 21
288.00000000001
 31
0.0
  0
TEXT
  5
150
330
A
100
AcDbEntity
  8
LEVEL001
 62
     3
100
AcDbText
 10
1223.2800000001
 20
267.00000000001
 30
0.0
 40
12.0
  1
図面名称：
 41
0.8
 72
     1
 11
1249.2000000001
 21
273.00000000001
 31
0.0
100
AcDbText
 73
     2
  0
LINE
  5
151
330
A
100
AcDbEntity
  8
LEVEL001
  6
Continuous
 62
     3
100
AcDbLine
 10
1218.0000000001
 20
208.00000000001
 30
0.0
 11
1618.0000000001
 21
208.00000000001
 31
0.0
  0
TEXT
  5
152
330
A
100
AcDbEntity
  8
LEVEL001
 62
     3
100
AcDbText
 10
1223.1200000001
 20
187.00000000001
 30
0.0
 40
12.0
  1
縮尺：
 41
0.8
 72
     1
 11
1237.2000000001
 21
193.00000000001
 31
0.0
100
AcDbText
 73
     2
  0
LINE
  5
153
330
A
100
AcDbEntity
  8
LEVEL001
  6
Continuous
 62
     3
100
AcDbLine
 10
1218.0000000001
 20
128.00000000001
 30
0.0
 11
1618.0000000001
 21
128.00000000001
 31
0.0
  0
TEXT
  5
154
330
A
100
AcDbEntity
  8
LEVEL001
 62
     3
100
AcDbText
 10
1223.8400000001
 20
108.88614091451
 30
0.0
 40
12.0
  1
用紙サイズ：
 41
0.8
 72
     1
 11
1255.2000000001
 21
114.88614091451
 31
0.0
100
AcDbText
 73
     2
  0
TEXT
  5
155
330
A
100
AcDbEntity
  8
LEVEL001
 62
     3
100
AcDbText
 10
1425.306666666767
 20
189.06666666668
 30
0.0
 40
11.2
  1
作成日付：
 41
0.8
 72
     1
 11
1449.2000000001
 21
194.66666666668
 31
0.0
100
AcDbText
 73
     2
  0
TEXT
  5
156
330
A
100
AcDbEntity
  8
LEVEL001
 62
     3
100
AcDbText
 10
1425.306666666767
 20
162.40000000001
 30
0.0
 40
11.2
  1
変更日付：
 41
0.8
 72
     1
 11
1449.2000000001
 21
168.00000000001
 31
0.0
100
AcDbText
 73
     2
  0
LINE
  5
157
330
A
100
AcDbEntity
  8
LEVEL001
  6
Continuous
 62
     3
100
AcDbLine
 10
1418.0000000001
 20
181.33333333334
 30
0.0
 11
1618.0000000001
 21
181.33333333334
 31
0.0
  0
TEXT
  5
158
330
A
100
AcDbEntity
  8
LEVEL001
 62
     3
100
AcDbText
 10
1423.5200000001
 20
107.00000000001
 30
0.0
 40
12.0
  1
ファイル名：
 41
0.8
 72
     1
 11
1455.2000000001
 21
113.00000000001
 31
0.0
100
AcDbText
 73
     2
  0
LINE
  5
159
330
A
100
AcDbEntity
  8
LEVEL001
  6
Continuous
 62
     3
100
AcDbLine
 10
1418.0000000001
 20
208.00000000001
 30
0.0
 11
1418.0000000001
 21
48.000000000009
 31
0.0
  0
LINE
  5
15A
330
A
100
AcDbEntity
  8
LEVEL001
  6
Continuous
 62
     3
100
AcDbLine
 10
1418.0000000001
 20
154.66666666668
 30
0.0
 11
1618.0000000001
 21
154.66666666668
 31
0.0
  0
LWPOLYLINE
  5
15B
330
A
100
AcDbEntity
  8
0
  6
DOT
100
AcDbPolyline
 90
        5
 70
     0
 43
0.0
 10
0.0
 20
0.0
 10
1680.0
 20
0.0
 10
1680.0
 20
1188.0
 10
0.0
 20
1188.0
 10
0.0
 20
0.0
  0
LWPOLYLINE
  5
162
330
A
100
AcDbEntity
  8
LEVEL001
  6
Continuous
 62
     7
370
    30
100
AcDbPolyline
 90
        5
 70
     0
 43
0.0
 10
82.000000000109
 20
896.52520323552
 10
82.000000000109
 20
56.525203235522
 10
682.00000000011
 20
56.525203235522
 10
682.00000000011
 20
896.52520323552
 10
82.000000000109
 20
896.52520323552
  0
LINE
  5
169
330
A
100
AcDbEntity
  8
LEVEL001
  6
Continuous
 62
     7
370
    30
100
AcDbLine
 10
682.00000000011
 20
456.52520323552
 30
0.0
 11
82.000000000109
 21
456.52520323552
 31
0.0
  0
LINE
  5
16A
330
A
100
AcDbEntity
  8
LEVEL001
  6
Continuous
 62
     7
370
    30
100
AcDbLine
 10
82.000000000109
 20
656.52520323552
 30
0.0
 11
682.00000000011
 21
656.52520323552
 31
0.0
  0
LINE
  5
16B
330
A
100
AcDbEntity
  8
LEVEL001
  6
Continuous
 62
     7
370
    30
100
AcDbLine
 10
182.00000000011
 20
896.52520323552
 30
0.0
 11
182.00000000011
 21
56.525203235522
 31
0.0
  0
LINE
  5
16C
330
A
100
AcDbEntity
  8
LEVEL001
  6
Continuous
 62
     7
370
    30
100
AcDbLine
 10
282.00000000011
 20
56.525203235522
 30
0.0
 11
282.00000000011
 21
896.52520323552
 31
0.0
  0
LINE
  5
16D
330
A
100
AcDbEntity
  8
LEVEL001
  6
Continuous
 62
     7
370
    30
100
AcDbLine
 10
382.00000000011
 20
896.52520323552
 30
0.0
 11
382.00000000011
 21
56.525203235522
 31
0.0
  0
LINE
  5
16E
330
A
100
AcDbEntity
  8
LEVEL001
  6
Continuous
 62
     7
370
    30
100
AcDbLine
 10
482.0000000001099
 20
56.525203235522
 30
0.0
 11
482.0000000001099
 21
896.52520323552
 31
0.0
  0
LINE
  5
16F
330
A
100
AcDbEntity
  8
LEVEL001
  6
Continuous
 62
     7
370
    30
100
AcDbLine
 10
82.000000000109
 20
856.52520323552
 30
0.0
 11
682.00000000011
 21
856.52520323552
 31
0.0
  0
LINE
  5
170
330
A
100
AcDbEntity
  8
LEVEL001
  6
Continuous
 62
     7
370
    30
100
AcDbLine
 10
82.000000000109
 20
256.52520323552
 30
0.0
 11
682.00000000011
 21
256.52520323552
 31
0.0
  0
TEXT
  5
171
330
A
100
AcDbEntity
  8
LEVEL001
 62
     8
100
AcDbText
 10
116.00000000011
 20
870.52520323552
 30
0.0
 40
12.0
  1
品　番
 41
0.8
 72
     1
 11
132.00000000011
 21
876.5252032355201
 31
0.0
100
AcDbText
 73
     2
  0
TEXT
  5
172
330
A
100
AcDbEntity
  8
LEVEL001
 62
     8
100
AcDbText
 10
198.7200000001099
 20
870.52520323552
 30
0.0
 40
12.0
  1
ＫＧ３２０６
 41
0.8
 72
     1
 11
232.00000000011
 21
876.5252032355201
 31
0.0
100
AcDbText
 73
     2
  0
TEXT
  5
173
330
A
100
AcDbEntity
  8
LEVEL001
 62
     8
100
AcDbText
 10
298.72000000011
 20
870.52520323552
 30
0.0
 40
12.0
  1
ＫＧ３８０９
 41
0.8
 72
     1
 11
332.00000000011
 21
876.5252032355201
 31
0.0
100
AcDbText
 73
     2
  0
TEXT
  5
174
330
A
100
AcDbEntity
  8
LEVEL001
 62
     8
100
AcDbText
 10
398.72000000011
 20
870.52520323552
 30
0.0
 40
12.0
  1
ＫＧ５００９
 41
0.8
 72
     1
 11
432.0000000001099
 21
876.5252032355201
 31
0.0
100
AcDbText
 73
     2
  0
TEXT
  5
175
330
A
100
AcDbEntity
  8
LEVEL001
 62
     8
100
AcDbText
 10
552.5600000001101
 20
868.5252032355201
 30
0.0
 40
16.0
  1
曲げ加工
 41
0.8
 72
     1
 11
582.00000000011
 21
876.5252032355201
 31
0.0
100
AcDbText
 73
     2
  0
TEXT
  5
176
330
A
100
AcDbEntity
  8
LEVEL001
 62
     8
100
AcDbText
 10
97.44000000010998
 20
748.52520323552
 30
0.0
 40
16.0
  1
曲げ加工１
 41
0.8
 72
     1
 11
132.00000000011
 21
756.52520323552
 31
0.0
100
AcDbText
 73
     2
  0
TEXT
  5
177
330
A
100
AcDbEntity
  8
LEVEL001
 62
     8
100
AcDbText
 10
95.73333333344331
 20
548.52520323552
 30
0.0
 40
16.0
  1
曲げ加工２
 41
0.8
 72
     1
 11
132.00000000011
 21
556.52520323552
 31
0.0
100
AcDbText
 73
     2
  0
TEXT
  5
178
330
A
100
AcDbEntity
  8
LEVEL001
 62
     8
100
AcDbText
 10
95.73333333344335
 20
348.52520323552
 30
0.0
 40
16.0
  1
曲げ加工３
 41
0.8
 72
     1
 11
132.00000000011
 21
356.52520323552
 31
0.0
100
AcDbText
 73
     2
  0
TEXT
  5
179
330
A
100
AcDbEntity
  8
LEVEL001
 62
     8
100
AcDbText
 10
95.73333333344333
 20
148.52520323552
 30
0.0
 40
16.0
  1
曲げ加工４
 41
0.8
 72
     1
 11
132.00000000011
 21
156.52520323552
 31
0.0
100
AcDbText
 73
     2
  0
TEXT
  5
17A
330
A
100
AcDbEntity
  8
LEVEL001
 62
     8
100
AcDbText
 10
203.4133333334433
 20
748.52520323552
 30
0.0
 40
16.0
  1
Ｒ＝５０
 41
0.8
 72
     1
 11
232.00000000011
 21
756.52520323552
 31
0.0
100
AcDbText
 73
     2
  0
TEXT
  5
17B
330
A
100
AcDbEntity
  8
LEVEL001
 62
     8
100
AcDbText
 10
303.4133333334434
 20
748.52520323552
 30
0.0
 40
16.0
  1
Ｒ＝６０
 41
0.8
 72
     1
 11
332.00000000011
 21
756.52520323552
 31
0.0
100
AcDbText
 73
     2
  0
TEXT
  5
17C
330
A
100
AcDbEntity
  8
LEVEL001
 62
     8
100
AcDbText
 10
403.4133333334433
 20
748.52520323552
 30
0.0
 40
16.0
  1
Ｒ＝８０
 41
0.8
 72
     1
 11
432.0000000001099
 21
756.52520323552
 31
0.0
100
AcDbText
 73
     2
  0
TEXT
  5
17D
330
A
100
AcDbEntity
  8
LEVEL001
 62
     8
100
AcDbText
 10
192.00000000011
 20
556.52520323552
 30
0.0
 40
16.0
  1
Ｒ＝６５
 41
0.8
100
AcDbText
  0
TEXT
  5
17E
330
A
100
AcDbEntity
  8
LEVEL001
 62
     8
100
AcDbText
 10
192.00000000011
 20
535.19186990219
 30
0.0
 40
16.0
  1
Ｗ＝１３０
 41
0.8
100
AcDbText
  0
TEXT
  5
17F
330
A
100
AcDbEntity
  8
LEVEL001
 62
     8
100
AcDbText
 10
292.00000000011
 20
556.52520323552
 30
0.0
 40
16.0
  1
Ｒ＝７５
 41
0.8
100
AcDbText
  0
TEXT
  5
180
330
A
100
AcDbEntity
  8
LEVEL001
 62
     8
100
AcDbText
 10
292.00000000011
 20
535.19186990219
 30
0.0
 40
16.0
  1
Ｗ＝１５０
 41
0.8
100
AcDbText
  0
TEXT
  5
181
330
A
100
AcDbEntity
  8
LEVEL001
 62
     8
100
AcDbText
 10
392.00000000011
 20
556.52520323552
 30
0.0
 40
16.0
  1
Ｒ＝１００
 41
0.8
100
AcDbText
  0
TEXT
  5
182
330
A
100
AcDbEntity
  8
LEVEL001
 62
     8
100
AcDbText
 10
392.00000000011
 20
535.19186990219
 30
0.0
 40
16.0
  1
Ｗ＝２００
 41
0.8
100
AcDbText
  0
TEXT
  5
183
330
A
100
AcDbEntity
  8
LEVEL001
 62
     8
100
AcDbText
 10
203.84000000011
 20
348.52520323552
 30
0.0
 40
16.0
  1
Ａ＝５０
 41
0.8
 72
     1
 11
232.00000000011
 21
356.52520323552
 31
0.0
100
AcDbText
 73
     2
  0
TEXT
  5
184
330
A
100
AcDbEntity
  8
LEVEL001
 62
     8
100
AcDbText
 10
303.84000000011
 20
348.52520323552
 30
0.0
 40
16.0
  1
Ａ＝６０
 41
0.8
 72
     1
 11
332.00000000011
 21
356.52520323552
 31
0.0
100
AcDbText
 73
     2
  0
TEXT
  5
185
330
A
100
AcDbEntity
  8
LEVEL001
 62
     8
100
AcDbText
 10
403.8400000001099
 20
348.52520323552
 30
0.0
 40
16.0
  1
Ａ＝８０
 41
0.8
 72
     1
 11
432.0000000001099
 21
356.52520323552
 31
0.0
100
AcDbText
 73
     2
  0
TEXT
  5
186
330
A
100
AcDbEntity
  8
LEVEL001
 62
     8
100
AcDbText
 10
203.4133333334433
 20
148.52520323552
 30
0.0
 40
16.0
  1
Ｂ＝８０
 41
0.8
 72
     1
 11
232.00000000011
 21
156.52520323552
 31
0.0
100
AcDbText
 73
     2
  0
TEXT
  5
187
330
A
100
AcDbEntity
  8
LEVEL001
 62
     8
100
AcDbText
 10
295.7333333334434
 20
148.52520323552
 30
0.0
 40
16.0
  1
Ｂ＝１００
 41
0.8
 72
     1
 11
332.00000000011
 21
156.52520323552
 31
0.0
100
AcDbText
 73
     2
  0
TEXT
  5
188
330
A
100
AcDbEntity
  8
LEVEL001
 62
     8
100
AcDbText
 10
395.7333333334434
 20
148.52520323552
 30
0.0
 40
16.0
  1
Ｂ＝１００
 41
0.8
 72
     1
 11
432.0000000001099
 21
156.52520323552
 31
0.0
100
AcDbText
 73
     2
  0
ARC
  5
189
330
A
100
AcDbEntity
  8
LEVEL001
  6
DASHDOT
 62
     6
370
    15
100
AcDbCircle
 10
586.62598239825
 20
746.4983540158699
 30
0.0
 40
25.0
100
AcDbArc
 50
130.00000000003
 51
179.99999999999
  0
LINE
  5
18A
330
A
100
AcDbEntity
  8
LEVEL001
  6
DASHDOT
 62
     6
370
    15
100
AcDbLine
 10
570.5562921560799
 20
765.64946509383
 30
0.0
 11
610.1504174502399
 21
798.87288102499
 31
0.0
  0
ARC
  5
18B
330
A
100
AcDbEntity
  8
LEVEL001
  6
Continuous
 62
     7
100
AcDbCircle
 10
586.62598239825
 20
746.4983540158699
 30
0.0
 40
35.0
100
AcDbArc
 50
130.00000000003
 51
180.0
  0
ARC
  5
18C
330
A
100
AcDbEntity
  8
LEVEL001
  6
Continuous
 62
     7
100
AcDbCircle
 10
586.62598239826
 20
746.4983540158699
 30
0.0
 40
15.0
100
AcDbArc
 50
130.00000000004
 51
180.0
  0
LINE
  5
18D
330
A
100
AcDbEntity
  8
LEVEL001
  6
Continuous
 62
     7
100
AcDbLine
 10
576.98416825295
 20
757.9890206626499
 30
0.0
 11
610.7260801242699
 21
786.30184646912
 31
0.0
  0
LINE
  5
18E
330
A
100
AcDbEntity
  8
LEVEL001
  6
Continuous
 62
     7
100
AcDbLine
 10
564.12841605921
 20
773.3099095250199
 30
0.0
 11
597.87032793053
 21
801.6227353314899
 31
0.0
  0
LINE
  5
18F
330
A
100
AcDbEntity
  8
LEVEL001
  6
DASHDOT
 62
     6
370
    15
100
AcDbLine
 10
561.62598239826
 20
684.0365992469299
 30
0.0
 11
561.62598239826
 21
746.4983540158699
 31
0.0
  0
LINE
  5
190
330
A
100
AcDbEntity
  8
LEVEL001
  6
Continuous
 62
     7
100
AcDbLine
 10
551.62598239826
 20
702.18389875593
 30
0.0
 11
551.62598239826
 21
746.4983540158699
 31
0.0
  0
LINE
  5
191
330
A
100
AcDbEntity
  8
LEVEL001
  6
Continuous
 62
     7
100
AcDbLine
 10
571.62598239826
 20
702.18389875593
 30
0.0
 11
571.62598239826
 21
746.4983540158699
 31
0.0
  0
ARC
  5
192
330
A
100
AcDbEntity
  8
LEVEL001
  6
DASHDOT
 62
     6
370
    15
100
AcDbCircle
 10
574.29043242775
 20
553.00877600633
 30
0.0
 40
32.5
100
AcDbArc
 50
90.0
 51
270.0
  0
LINE
  5
193
330
A
100
AcDbEntity
  8
LEVEL001
  6
Continuous
 62
     7
100
AcDbLine
 10
574.29043242775
 20
595.50877600633
 30
0.0
 11
623.48683177308
 21
595.50877600633
 31
0.0
  0
ARC
  5
194
330
A
100
AcDbEntity
  8
LEVEL001
  6
Continuous
 62
     7
100
AcDbCircle
 10
574.29043242775
 20
553.00877600633
 30
0.0
 40
42.5
100
AcDbArc
 50
90.0
 51
270.0
  0
ARC
  5
195
330
A
100
AcDbEntity
  8
LEVEL001
  6
Continuous
 62
     7
100
AcDbCircle
 10
574.29043242775
 20
553.00877600633
 30
0.0
 40
22.5
100
AcDbArc
 50
90.0
 51
270.0
  0
LINE
  5
196
330
A
100
AcDbEntity
  8
LEVEL001
  6
Continuous
 62
     7
100
AcDbLine
 10
574.29043242775
 20
575.5087760063299
 30
0.0
 11
623.48683177308
 21
575.5087760063299
 31
0.0
  0
LINE
  5
197
330
A
100
AcDbEntity
  8
LEVEL001
  6
Continuous
 62
     7
100
AcDbLine
 10
574.29043242775
 20
530.5087760063299
 30
0.0
 11
627.3755388107299
 21
530.5087760063299
 31
0.0
  0
LINE
  5
198
330
A
100
AcDbEntity
  8
LEVEL001
  6
Continuous
 62
     7
100
AcDbLine
 10
574.29043242775
 20
510.5087760063299
 30
0.0
 11
627.3755388107299
 21
510.5087760063299
 31
0.0
  0
LINE
  5
199
330
A
100
AcDbEntity
  8
LEVEL001
  6
DASHDOT
 62
     6
370
    15
100
AcDbLine
 10
574.29043242775
 20
585.5087760063299
 30
0.0
 11
639.90581704313
 21
585.5087760063299
 31
0.0
  0
LINE
  5
19A
330
A
100
AcDbEntity
  8
LEVEL001
  6
DASHDOT
 62
     6
370
    15
100
AcDbLine
 10
574.29043242775
 20
520.50877600633
 30
0.0
 11
639.90581704313
 21
520.50877600633
 31
0.0
  0
LINE
  5
19B
330
A
100
AcDbEntity
  8
LEVEL001
  6
DASHDOT
 62
     6
370
    15
100
AcDbLine
 10
527.65278676806
 20
305.81866904614
 30
0.0
 11
581.2358309820499
 21
350.78018168334
 31
0.0
  0
ARC
  5
19C
330
A
100
AcDbEntity
  8
LEVEL001
  6
DASHDOT
 62
     6
370
    15
100
AcDbCircle
 10
597.30552122419
 20
331.62907060534
 30
0.0
 40
25.0
100
AcDbArc
 50
90.000000000002
 51
129.99999999992
  0
ARC
  5
19D
330
A
100
AcDbEntity
  8
LEVEL001
  6
Continuous
 62
     7
100
AcDbCircle
 10
597.30552122419
 20
331.62907060534
 30
0.0
 40
35.0
100
AcDbArc
 50
90.0
 51
129.99999999992
  0
ARC
  5
19E
330
A
100
AcDbEntity
  8
LEVEL001
  6
Continuous
 62
     7
100
AcDbCircle
 10
597.30552122419
 20
331.62907060534
 30
0.0
 40
15.0
100
AcDbArc
 50
90.00000000000399
 51
129.99999999993
  0
LINE
  5
19F
330
A
100
AcDbEntity
  8
LEVEL001
  6
Continuous
 62
     7
100
AcDbLine
 10
521.2249106712
 20
313.47911347734
 30
0.0
 11
574.80795488519
 21
358.44062611454
 31
0.0
  0
LINE
  5
1A0
330
A
100
AcDbEntity
  8
LEVEL001
  6
Continuous
 62
     7
100
AcDbLine
 10
534.0806628649099
 20
298.15822461495
 30
0.0
 11
587.6637070789
 21
343.11973725214
 31
0.0
  0
ARC
  5
1A1
330
A
100
AcDbEntity
  8
LEVEL001
  6
Continuous
 62
     7
100
AcDbCircle
 10
638.20626536755
 20
356.62907060534
 30
0.0
 40
10.0
100
AcDbArc
 50
270.0
 51
90.0
  0
LINE
  5
1A2
330
A
100
AcDbEntity
  8
LEVEL001
  6
Continuous
 62
     7
100
AcDbLine
 10
597.30552122419
 20
366.62907060534
 30
0.0
 11
638.20626536755
 21
366.62907060534
 31
0.0
  0
LINE
  5
1A3
330
A
100
AcDbEntity
  8
LEVEL001
  6
Continuous
 62
     7
100
AcDbLine
 10
597.30552122419
 20
346.62907060534
 30
0.0
 11
638.20626536755
 21
346.62907060534
 31
0.0
  0
LINE
  5
1A4
330
A
100
AcDbEntity
  8
LEVEL001
  6
Continuous
 62
     7
100
AcDbLine
 10
534.0806628649099
 20
415.09991659574
 30
0.0
 11
587.6637070789
 21
370.13840395855
 31
0.0
  0
LINE
  5
1A5
330
A
100
AcDbEntity
  8
LEVEL001
  6
DASHDOT
 62
     6
370
    15
100
AcDbLine
 10
527.65278676806
 20
407.43947216454
 30
0.0
 11
581.2358309820499
 21
362.47795952735
 31
0.0
  0
LINE
  5
1A6
330
A
100
AcDbEntity
  8
LEVEL001
  6
DASHDOT
 62
     6
370
    15
100
AcDbLine
 10
597.30552122419
 20
356.62907060534
 30
0.0
 11
653.82164998294
 21
356.62907060534
 31
0.0
  0
ARC
  5
1A7
330
A
100
AcDbEntity
  8
LEVEL001
  6
Continuous
 62
     7
100
AcDbCircle
 10
597.30552122419
 20
381.62907060534
 30
0.0
 40
15.0
100
AcDbArc
 50
230.00000000007
 51
270.0
  0
LINE
  5
1A8
330
A
100
AcDbEntity
  8
LEVEL001
  6
Continuous
 62
     7
100
AcDbLine
 10
521.2249106712
 20
399.77902773334
 30
0.0
 11
572.64902709892
 21
356.62907060534
 31
0.0
  0
LINE
  5
1A9
330
A
100
AcDbEntity
  8
LEVEL001
  6
Continuous
 62
     7
100
AcDbLine
 10
559.6351188431599
 20
159.55639072415
 30
0.0
 11
608.8315181885
 21
159.55639072415
 31
0.0
  0
LINE
  5
1AA
330
A
100
AcDbEntity
  8
LEVEL001
  6
Continuous
 62
     7
100
AcDbLine
 10
559.6351188431599
 20
139.55639072415
 30
0.0
 11
612.7202252261399
 21
139.55639072415
 31
0.0
  0
LINE
  5
1AB
330
A
100
AcDbEntity
  8
LEVEL001
  6
Continuous
 62
     7
100
AcDbLine
 10
559.6351188431599
 20
139.55639072415
 30
0.0
 11
559.6351188431599
 21
159.55639072415
 31
0.0
  0
ARC
  5
1AC
330
A
100
AcDbEntity
  8
LEVEL001
  6
Continuous
 62
     7
100
AcDbCircle
 10
549.6351188431599
 20
169.55639072415
 30
0.0
 40
10.0
100
AcDbArc
 50
89.99999999999101
 51
180.0
  0
LINE
  5
1AD
330
A
100
AcDbEntity
  8
LEVEL001
  6
Continuous
 62
     7
100
AcDbLine
 10
549.6351188431599
 20
179.55639072415
 30
0.0
 11
608.8315181885
 21
179.55639072415
 31
0.0
  0
LINE
  5
1AE
330
A
100
AcDbEntity
  8
LEVEL001
  6
Continuous
 62
     7
100
AcDbLine
 10
539.6351188431599
 20
129.55639072415
 30
0.0
 11
539.6351188431599
 21
169.55639072415
 31
0.0
  0
ARC
  5
1AF
330
A
100
AcDbEntity
  8
LEVEL001
  6
Continuous
 62
     7
100
AcDbCircle
 10
549.6351188431599
 20
129.55639072415
 30
0.0
 40
10.0
100
AcDbArc
 50
180.0
 51
270.00000000001
  0
LINE
  5
1B0
330
A
100
AcDbEntity
  8
LEVEL001
  6
Continuous
 62
     7
100
AcDbLine
 10
549.6351188431599
 20
119.55639072415
 30
0.0
 11
612.7202252261399
 21
119.55639072415
 31
0.0
  0
LINE
  5
1B1
330
A
100
AcDbEntity
  8
LEVEL001
  6
DASHDOT
 62
     6
370
    15
100
AcDbLine
 10
532.6576683976299
 20
129.55639072415
 30
0.0
 11
625.25050345855
 21
129.55639072415
 31
0.0
  0
LINE
  5
1B2
330
A
100
AcDbEntity
  8
LEVEL001
  6
DASHDOT
 62
     6
370
    15
100
AcDbLine
 10
532.6576683976299
 20
169.55639072415
 30
0.0
 11
625.25050345855
 21
169.55639072415
 31
0.0
  0
LINE
  5
1B3
330
A
100
AcDbEntity
  8
LEVEL001
  6
DASHDOT
 62
     6
370
    15
100
AcDbLine
 10
549.6351188431599
 20
111.20844867407
 30
0.0
 11
549.6351188431599
 21
187.25427518799
 31
0.0
  0
LINE
  5
1B4
330
A
100
AcDbEntity
  8
LEVEL002
  6
Continuous
 62
     7
100
AcDbLine
 10
166.50000000011
 20
1016.5240488651
 30
0.0
 11
157.50000000011
 21
1016.5240488651
 31
0.0
  0
ARC
  5
1B5
330
A
100
AcDbEntity
  8
LEVEL002
  6
Continuous
 62
     7
100
AcDbCircle
 10
178.00000000011
 20
1016.5240488651
 30
0.0
 40
4.0
100
AcDbArc
 50
179.99999999996
 51
240.56809573226
  0
ARC
  5
1B6
330
A
100
AcDbEntity
  8
LEVEL002
  6
Continuous
 62
     7
100
AcDbCircle
 10
177.01722240132
 20
1014.7821682173
 30
0.0
 40
2.0
100
AcDbArc
 50
240.5680957319
 51
293.7936869368
  0
ARC
  5
1B7
330
A
100
AcDbEntity
  8
LEVEL002
  6
Continuous
 62
     7
100
AcDbCircle
 10
175.00000000009
 20
1019.3571888494
 30
0.0
 40
7.0
100
AcDbArc
 50
293.79368693764
 51
79.741927214409
  0
ARC
  5
1B8
330
A
100
AcDbEntity
  8
LEVEL002
  6
Continuous
 62
     7
100
AcDbCircle
 10
146.0000000001
 20
1016.5240488651
 30
0.0
 40
4.0
100
AcDbArc
 50
299.43190426771
 51
0.0
  0
ARC
  5
1B9
330
A
100
AcDbEntity
  8
LEVEL002
  6
Continuous
 62
     7
100
AcDbCircle
 10
146.9827775989
 20
1014.7821682173
 30
0.0
 40
2.0
100
AcDbArc
 50
246.2063130627401
 51
299.43190426813
  0
ARC
  5
1BA
330
A
100
AcDbEntity
  8
LEVEL002
  6
Continuous
 62
     7
100
AcDbCircle
 10
149.0000000001
 20
1019.3571888494
 30
0.0
 40
7.0
100
AcDbArc
 50
100.25807278548
 51
246.20631306246
  0
ARC
  5
1BB
330
A
100
AcDbEntity
  8
LEVEL002
  6
Continuous
 62
     7
100
AcDbCircle
 10
162.0000000001
 20
947.5240488651399
 30
0.0
 40
80.0
100
AcDbArc
 50
79.74192721451401
 51
100.25807278548
  0
LINE
  5
1BC
330
A
100
AcDbEntity
  8
LEVEL002
  6
Continuous
 62
     2
100
AcDbLine
 10
157.50000000011
 20
1016.5240488651
 30
0.0
 11
157.50000000011
 21
960.73917766568
 31
0.0
  0
LINE
  5
1BD
330
A
100
AcDbEntity
  8
LEVEL002
  6
Continuous
 62
     2
100
AcDbLine
 10
166.50000000011
 20
958.6968896802
 30
0.0
 11
166.50000000011
 21
1016.5240488651
 31
0.0
  0
LINE
  5
1BE
330
A
100
AcDbEntity
  8
LEVEL001
  6
DASHDOT
 62
     6
370
    15
100
AcDbLine
 10
162.00000000011
 20
1037.7843425333
 30
0.0
 11
162.00000000011
 21
934.15228562485
 31
0.0
  0
LINE
  5
1BF
330
A
100
AcDbEntity
  8
LEVEL002
  6
Continuous
 62
     2
100
AcDbLine
 10
150.0000000001
 20
1016.5240488651
 30
0.0
 11
174.0000000001
 21
1016.5240488651
 31
0.0
  0
LINE
  5
1C0
330
A
100
AcDbEntity
  8
LEVEL002
  6
Continuous
 62
     7
100
AcDbLine
 10
178.0000000001
 20
1022.5240488651
 30
0.0
 11
146.0000000001
 21
1022.5240488651
 31
0.0
  0
LINE
  5
1C1
330
A
100
AcDbEntity
  8
LEVEL002
  6
Continuous
 62
     7
100
AcDbLine
 10
178.0000000001
 20
1016.5240488651
 30
0.0
 11
178.0000000001
 21
1022.5240488651
 31
0.0
  0
LINE
  5
1C2
330
A
100
AcDbEntity
  8
LEVEL002
  6
Continuous
 62
     7
100
AcDbLine
 10
146.0000000001
 20
1022.5240488651
 30
0.0
 11
146.0000000001
 21
1016.5240488651
 31
0.0
  0
LINE
  5
1C3
330
A
100
AcDbEntity
  8
LEVEL002
  6
Continuous
 62
     7
100
AcDbLine
 10
146.0000000001
 20
1016.5240488651
 30
0.0
 11
150.0000000001
 21
1016.5240488651
 31
0.0
  0
LINE
  5
1C4
330
A
100
AcDbEntity
  8
LEVEL002
  6
Continuous
 62
     7
100
AcDbLine
 10
174.0000000001
 20
1016.5240488651
 30
0.0
 11
178.0000000001
 21
1016.5240488651
 31
0.0
  0
LINE
  5
1C5
330
A
100
AcDbEntity
  8
LEVEL002
  6
Continuous
 62
     7
100
AcDbLine
 10
381.00000000011
 20
1013.5240488651
 30
0.0
 11
381.00000000011
 21
1022.5240488651
 31
0.0
  0
LINE
  5
1C6
330
A
100
AcDbEntity
  8
LEVEL002
  6
Continuous
 62
     7
100
AcDbLine
 10
381.00000000011
 20
1022.5240488651
 30
0.0
 11
343.00000000011
 21
1022.5240488651
 31
0.0
  0
LINE
  5
1C7
330
A
100
AcDbEntity
  8
LEVEL002
  6
Continuous
 62
     7
100
AcDbLine
 10
343.00000000011
 20
1022.5240488651
 30
0.0
 11
343.00000000011
 21
1013.5240488651
 31
0.0
  0
ARC
  5
1C8
330
A
100
AcDbEntity
  8
LEVEL002
  6
Continuous
 62
     7
100
AcDbCircle
 10
379.98316795481
 20
1013.9339721936
 30
0.0
 40
5.0
100
AcDbArc
 50
184.7026535332
 51
303.49162581234
  0
ARC
  5
1C9
330
A
100
AcDbEntity
  8
LEVEL002
  6
Continuous
 62
     7
100
AcDbCircle
 10
377.5000000001
 20
1017.6868213658
 30
0.0
 40
9.5
100
AcDbArc
 50
303.4916258123601
 51
80.138290486745
  0
ARC
  5
1CA
330
A
100
AcDbEntity
  8
LEVEL002
  6
Continuous
 62
     7
100
AcDbCircle
 10
344.01683204541
 20
1013.9339721936
 30
0.0
 40
5.0
100
AcDbArc
 50
236.50837418768
 51
355.2973464668
  0
ARC
  5
1CB
330
A
100
AcDbEntity
  8
LEVEL002
  6
Continuous
 62
     7
100
AcDbCircle
 10
346.50000000011
 20
1017.6868213658
 30
0.0
 40
9.5
100
AcDbArc
 50
99.86170951318101
 51
236.5083741877
  0
ARC
  5
1CC
330
A
100
AcDbEntity
  8
LEVEL002
  6
Continuous
 62
     7
100
AcDbCircle
 10
362.00000000011
 20
928.52404886514
 30
0.0
 40
100.0
100
AcDbArc
 50
80.13829048680399
 51
99.86170951319799
  0
LINE
  5
1CD
330
A
100
AcDbEntity
  8
LEVEL002
  6
Continuous
 62
     7
100
AcDbLine
 10
343.00000000011
 20
1013.5240488651
 30
0.0
 11
349.00000000011
 21
1013.5240488651
 31
0.0
  0
LINE
  5
1CE
330
A
100
AcDbEntity
  8
LEVEL002
  6
Continuous
 62
     7
100
AcDbLine
 10
375.00000000011
 20
1013.5240488651
 30
0.0
 11
381.00000000011
 21
1013.5240488651
 31
0.0
  0
LINE
  5
1CF
330
A
100
AcDbEntity
  8
LEVEL002
  6
Continuous
 62
     2
100
AcDbLine
 10
349.00000000011
 20
1013.5240488651
 30
0.0
 11
375.00000000011
 21
1013.5240488651
 31
0.0
  0
LINE
  5
1D0
330
A
100
AcDbEntity
  8
LEVEL002
  6
Continuous
 62
     2
100
AcDbLine
 10
366.50000000011
 20
1013.5240488651
 30
0.0
 11
357.50000000011
 21
1013.5240488651
 31
0.0
  0
LINE
  5
1D1
330
A
100
AcDbEntity
  8
LEVEL002
  6
Continuous
 62
     2
100
AcDbLine
 10
366.50000000011
 20
957.7391776656799
 30
0.0
 11
366.50000000011
 21
1013.5240488651
 31
0.0
  0
LINE
  5
1D2
330
A
100
AcDbEntity
  8
LEVEL002
  6
Continuous
 62
     2
100
AcDbLine
 10
357.50000000011
 20
1013.5240488651
 30
0.0
 11
357.50000000011
 21
957.7391776656799
 31
0.0
  0
LINE
  5
1D3
330
A
100
AcDbEntity
  8
LEVEL001
  6
DASHDOT
 62
     6
370
    15
100
AcDbLine
 10
362.00000000011
 20
1034.7843425333
 30
0.0
 11
362.00000000011
 21
934.15228562485
 31
0.0
  0
ARC
  5
1D4
330
A
100
AcDbEntity
  8
LEVEL002
  6
Continuous
 62
     7
100
AcDbCircle
 10
583.0000000001899
 20
1017.8298878671
 30
0.0
 40
9.0
100
AcDbArc
 50
269.86588210585
 51
80.77538011203799
  0
ARC
  5
1D5
330
A
100
AcDbEntity
  8
LEVEL002
  6
Continuous
 62
     7
100
AcDbCircle
 10
582.99063681333
 20
1013.8298988258
 30
0.0
 40
5.0
100
AcDbArc
 50
183.50697175052
 51
269.86588210643
  0
ARC
  5
1D6
330
A
100
AcDbEntity
  8
LEVEL002
  6
Continuous
 62
     7
100
AcDbCircle
 10
541.00000000017
 20
1017.8298878671
 30
0.0
 40
9.0
100
AcDbArc
 50
99.224619888902
 51
270.13411789322
  0
ARC
  5
1D7
330
A
100
AcDbEntity
  8
LEVEL002
  6
Continuous
 62
     7
100
AcDbCircle
 10
541.00936318688
 20
1013.8298988258
 30
0.0
 40
5.0
100
AcDbArc
 50
270.13411789364
 51
356.4930282496
  0
ARC
  5
1D8
330
A
100
AcDbEntity
  8
LEVEL002
  6
Continuous
 62
     7
100
AcDbCircle
 10
562.00000000011
 20
888.5240488651399
 30
0.0
 40
140.0
100
AcDbArc
 50
80.77538011151201
 51
99.224619888488
  0
LINE
  5
1D9
330
A
100
AcDbEntity
  8
LEVEL002
  6
Continuous
 62
     7
100
AcDbLine
 10
578.00000000011
 20
1013.5240488651
 30
0.0
 11
587.00000000011
 21
1013.5240488651
 31
0.0
  0
LINE
  5
1DA
330
A
100
AcDbEntity
  8
LEVEL002
  6
Continuous
 62
     7
100
AcDbLine
 10
587.00000000011
 20
1013.5240488651
 30
0.0
 11
587.00000000011
 21
1022.5240488651
 31
0.0
  0
LINE
  5
1DB
330
A
100
AcDbEntity
  8
LEVEL002
  6
Continuous
 62
     7
100
AcDbLine
 10
587.00000000011
 20
1022.5240488651
 30
0.0
 11
537.00000000011
 21
1022.5240488651
 31
0.0
  0
LINE
  5
1DC
330
A
100
AcDbEntity
  8
LEVEL002
  6
Continuous
 62
     7
100
AcDbLine
 10
537.00000000011
 20
1022.5240488651
 30
0.0
 11
537.00000000011
 21
1013.5240488651
 31
0.0
  0
LINE
  5
1DD
330
A
100
AcDbEntity
  8
LEVEL002
  6
Continuous
 62
     7
100
AcDbLine
 10
537.00000000011
 20
1013.5240488651
 30
0.0
 11
546.00000000011
 21
1013.5240488651
 31
0.0
  0
LINE
  5
1DE
330
A
100
AcDbEntity
  8
LEVEL002
  6
Continuous
 62
     2
100
AcDbLine
 10
557.50000000011
 20
1013.5240488651
 30
0.0
 11
557.50000000011
 21
957.7391776656799
 31
0.0
  0
LINE
  5
1DF
330
A
100
AcDbEntity
  8
LEVEL002
  6
Continuous
 62
     2
100
AcDbLine
 10
566.50000000011
 20
1013.5240488651
 30
0.0
 11
557.50000000011
 21
1013.5240488651
 31
0.0
  0
LINE
  5
1E0
330
A
100
AcDbEntity
  8
LEVEL001
  6
Continuous
 62
     2
100
AcDbLine
 10
546.00000000011
 20
1013.5240488651
 30
0.0
 11
578.00000000011
 21
1013.5240488651
 31
0.0
  0
LINE
  5
1E1
330
A
100
AcDbEntity
  8
LEVEL002
  6
Continuous
 62
     2
100
AcDbLine
 10
566.50000000011
 20
973.29374487222
 30
0.0
 11
566.50000000011
 21
1013.5240488651
 31
0.0
  0
LINE
  5
1E2
330
A
100
AcDbEntity
  8
LEVEL001
  6
Continuous
 62
     2
100
AcDbLine
 10
566.50000000011
 20
1013.5240488651
 30
0.0
 11
566.50000000011
 21
957.7391776656799
 31
0.0
  0
LINE
  5
1E3
330
A
100
AcDbEntity
  8
LEVEL001
  6
DASHDOT
 62
     6
370
    15
100
AcDbLine
 10
562.00000000011
 20
1034.7843425333
 30
0.0
 11
562.00000000011
 21
934.15228562485
 31
0.0
  0
TEXT
  5
1E4
330
A
100
AcDbEntity
  8
LEVEL001
 62
     8
100
AcDbText
 10
84.31320334331999
 20
905.30316286463
 30
0.0
 40
16.0
  1
●曲げ加工
 41
0.8
 72
     1
 11
121.43320334332
 21
913.30316286463
 31
0.0
100
AcDbText
 73
     2
  0
LINE
  5
1E5
330
A
100
AcDbEntity
  8
LEVEL002
  6
Continuous
 62
     7
100
AcDbLine
 10
921.9399463683599
 20
981.5985242878101
 30
0.0
 11
921.9399463683599
 21
926.9985242878099
 31
0.0
  0
LINE
  5
1E6
330
A
100
AcDbEntity
  8
LEVEL002
  6
Continuous
 62
     7
100
AcDbLine
 10
914.93994636836
 20
981.5985242878101
 30
0.0
 11
921.9399463683599
 21
981.5985242878101
 31
0.0
  0
LINE
  5
1E7
330
A
100
AcDbEntity
  8
LEVEL002
  6
Continuous
 62
     7
100
AcDbLine
 10
921.9399463683599
 20
926.9985242878099
 30
0.0
 11
914.93994636836
 21
926.9985242878099
 31
0.0
  0
LINE
  5
1E8
330
A
100
AcDbEntity
  8
LEVEL002
  6
Continuous
 62
     7
100
AcDbLine
 10
989.4399463683699
 20
1023.7915558079
 30
0.0
 11
980.4399463683699
 21
1023.7915558079
 31
0.0
  0
LINE
  5
1E9
330
A
100
AcDbEntity
  8
LEVEL002
  6
Continuous
 62
     7
100
AcDbLine
 10
980.4399463683699
 20
1023.7915558079
 30
0.0
 11
980.4399463683699
 21
968.00668460848
 31
0.0
  0
LINE
  5
1EA
330
A
100
AcDbEntity
  8
LEVEL002
  6
Continuous
 62
     7
100
AcDbLine
 10
968.9399463683599
 20
1023.7915558079
 30
0.0
 11
1000.9399463684
 21
1023.7915558079
 31
0.0
  0
LINE
  5
1EB
330
A
100
AcDbEntity
  8
LEVEL002
  6
Continuous
 62
     7
100
AcDbLine
 10
1000.9399463684
 20
1023.7915558079
 30
0.0
 11
1000.9399463684
 21
1029.7915558079
 31
0.0
  0
LINE
  5
1EC
330
A
100
AcDbEntity
  8
LEVEL002
  6
Continuous
 62
     7
100
AcDbLine
 10
1000.9399463684
 20
1029.7915558079
 30
0.0
 11
968.9399463683599
 21
1029.7915558079
 31
0.0
  0
LINE
  5
1ED
330
A
100
AcDbEntity
  8
LEVEL002
  6
Continuous
 62
     7
100
AcDbLine
 10
968.9399463683599
 20
1029.7915558079
 30
0.0
 11
968.9399463683599
 21
1023.7915558079
 31
0.0
  0
LINE
  5
1EE
330
A
100
AcDbEntity
  8
LEVEL002
  6
Continuous
 62
     7
100
AcDbLine
 10
989.4399463683699
 20
965.9643966229999
 30
0.0
 11
989.4399463683699
 21
1023.7915558079
 31
0.0
  0
ARC
  5
1EF
330
A
100
AcDbEntity
  8
LEVEL002
  6
Continuous
 62
     7
100
AcDbCircle
 10
971.4399463683699
 20
968.00668460848
 30
0.0
 40
9.0
100
AcDbArc
 50
272.0
 51
0.0
  0
ARC
  5
1F0
330
A
100
AcDbEntity
  8
LEVEL001
  6
Continuous
 62
     7
100
AcDbCircle
 10
971.4399463683699
 20
968.0066846084699
 30
0.0
 40
18.0
100
AcDbArc
 50
272.0
 51
0.0
  0
LINE
  5
1F1
330
A
100
AcDbEntity
  8
LEVEL001
  6
DASHDOT
 62
     6
370
    15
100
AcDbLine
 10
984.9399463683699
 20
1045.0518494761
 30
0.0
 11
984.9399463683699
 21
934.3007987984201
 31
0.0
  0
LINE
  5
1F2
330
A
100
AcDbEntity
  8
LEVEL001
  6
Continuous
 62
     7
100
AcDbLine
 10
921.94001992634
 20
959.0137336257098
 30
0.0
 11
971.43866471039
 21
959.00668469973
 31
0.0
  0
LINE
  5
1F3
330
A
100
AcDbEntity
  8
LEVEL001
  6
Continuous
 62
     7
100
AcDbLine
 10
921.94048567994
 20
950.02078266675
 30
0.0
 11
971.4348194805699
 21
950.0066853386099
 31
0.0
  0
LINE
  5
1F4
330
A
100
AcDbEntity
  8
LEVEL002
  6
Continuous
 62
     3
370
    30
100
AcDbLine
 10
914.93994636836
 20
1090.5692112371
 30
0.0
 11
914.93994636836
 21
897.86217359384
 31
0.0
  0
TEXT
  5
1F5
330
A
100
AcDbEntity
  8
LEVEL001
 62
     8
100
AcDbText
 10
851.46803149395
 20
1083.7516080365
 30
0.0
 40
16.0
  1
図１
 41
0.8
 72
     1
 11
862.98803149395
 21
1091.7516080365
 31
0.0
100
AcDbText
 73
     2
  0
LINE
  5
1F6
330
A
100
AcDbEntity
  8
LEVEL001
  6
Continuous
 62
     3
370
    30
100
AcDbLine
 10
1057.6765607215
 20
852.7459706478399
 30
0.0
 11
1057.6765607215
 21
731.1878691748399
 31
0.0
  0
LINE
  5
1F7
330
A
100
AcDbEntity
  8
LEVEL001
  6
DASHDOT
 62
     6
370
    15
100
AcDbLine
 10
978.61527685171
 20
825.2242554900201
 30
0.0
 11
978.61527685171
 21
711.02420305373
 31
0.0
  0
LINE
  5
1F8
330
A
100
AcDbEntity
  8
LEVEL002
  6
Continuous
 62
     2
100
AcDbLine
 10
974.11527685171
 20
790.2220811740099
 30
0.0
 11
974.11527685171
 21
723.1224027264
 31
0.0
  0
LINE
  5
1F9
330
A
100
AcDbEntity
  8
LEVEL002
  6
Continuous
 62
     2
100
AcDbLine
 10
983.11527685171
 20
723.1224027264
 30
0.0
 11
983.11527685171
 21
790.2220811740099
 31
0.0
  0
LINE
  5
1FA
330
A
100
AcDbEntity
  8
LEVEL001
  6
Continuous
 62
     2
100
AcDbLine
 10
980.8652768517099
 20
800.22208117401
 30
0.0
 11
980.8652768517099
 21
790.2220811740099
 31
0.0
  0
LINE
  5
1FB
330
A
100
AcDbEntity
  8
LEVEL001
  6
Continuous
 62
     2
100
AcDbLine
 10
976.3652768517099
 20
800.22208117401
 30
0.0
 11
976.3652768517099
 21
790.2220811740099
 31
0.0
  0
LINE
  5
1FC
330
A
100
AcDbEntity
  8
LEVEL001
  6
Continuous
 62
     2
100
AcDbLine
 10
974.11527685171
 20
790.2220811740099
 30
0.0
 11
983.11527685171
 21
790.2220811740099
 31
0.0
  0
TEXT
  5
1FD
330
A
100
AcDbEntity
  8
LEVEL001
 62
     8
100
AcDbText
 10
849.7613648272832
 20
842.32771278278
 30
0.0
 40
16.0
  1
図２
 41
0.8
 72
     1
 11
862.98803149395
 21
850.32771278278
 31
0.0
100
AcDbText
 73
     2
  0
LINE
  5
1FE
330
A
100
AcDbEntity
  8
LEVEL001
  6
DASHDOT
 62
     6
370
    15
100
AcDbLine
 10
949.4091257333201
 20
654.03537266283
 30
0.0
 11
949.4091257333201
 21
539.83532022653
 31
0.0
  0
LINE
  5
1FF
330
A
100
AcDbEntity
  8
LEVEL002
  6
Continuous
 62
     2
100
AcDbLine
 10
944.9091257333201
 20
619.0331983468099
 30
0.0
 11
944.9091257333201
 21
551.9335198991999
 31
0.0
  0
LINE
  5
200
330
A
100
AcDbEntity
  8
LEVEL002
  6
Continuous
 62
     2
100
AcDbLine
 10
953.90912573332
 20
551.9335198991999
 30
0.0
 11
953.90912573332
 21
619.0331983468099
 31
0.0
  0
LINE
  5
201
330
A
100
AcDbEntity
  8
LEVEL001
  6
Continuous
 62
     2
100
AcDbLine
 10
951.65912573332
 20
629.0331983468099
 30
0.0
 11
951.65912573332
 21
619.0331983468099
 31
0.0
  0
LINE
  5
202
330
A
100
AcDbEntity
  8
LEVEL001
  6
Continuous
 62
     2
100
AcDbLine
 10
947.15912573332
 20
629.0331983468099
 30
0.0
 11
947.15912573332
 21
619.0331983468099
 31
0.0
  0
LINE
  5
203
330
A
100
AcDbEntity
  8
LEVEL001
  6
Continuous
 62
     2
100
AcDbLine
 10
944.9091257333201
 20
619.0331983468099
 30
0.0
 11
953.90912573332
 21
619.0331983468099
 31
0.0
  0
LWPOLYLINE
  5
204
330
A
100
AcDbEntity
  8
LEVEL001
  6
Continuous
 62
     8
100
AcDbPolyline
 90
        4
 70
     0
 43
0.0
 10
951.65912573332
 20
625.0331983468099
 10
955.6591257333201
 20
629.0331983468099
 10
951.65912573332
 20
629.0331983468099
 10
951.65912573332
 20
625.0331983468099
  0
LINE
  5
20A
330
A
100
AcDbEntity
  8
LEVEL001
  6
Continuous
 62
     8
100
AcDbLine
 10
951.65912573332
 20
628.95000265653
 30
0.0
 11
951.7423214236099
 21
629.0331983468099
 31
0.0
  0
LINE
  5
20B
330
A
100
AcDbEntity
  8
LEVEL001
  6
Continuous
 62
     8
100
AcDbLine
 10
951.65912573332
 20
628.80858130053
 30
0.0
 11
951.88374277961
 21
629.0331983468099
 31
0.0
  0
LINE
  5
20C
330
A
100
AcDbEntity
  8
LEVEL001
  6
Continuous
 62
     8
100
AcDbLine
 10
951.65912573332
 20
628.6671599445299
 30
0.0
 11
952.02516413561
 21
629.0331983468099
 31
0.0
  0
LINE
  5
20D
330
A
100
AcDbEntity
  8
LEVEL001
  6
Continuous
 62
     8
100
AcDbLine
 10
951.65912573332
 20
628.52573858853
 30
0.0
 11
952.1665854916101
 21
629.0331983468099
 31
0.0
  0
LINE
  5
20E
330
A
100
AcDbEntity
  8
LEVEL001
  6
Continuous
 62
     8
100
AcDbLine
 10
951.65912573332
 20
628.3843172325299
 30
0.0
 11
952.3080068476101
 21
629.0331983468099
 31
0.0
  0
LINE
  5
20F
330
A
100
AcDbEntity
  8
LEVEL001
  6
Continuous
 62
     8
100
AcDbLine
 10
951.65912573332
 20
628.24289587653
 30
0.0
 11
952.44942820361
 21
629.0331983468099
 31
0.0
  0
LINE
  5
210
330
A
100
AcDbEntity
  8
LEVEL001
  6
Continuous
 62
     8
100
AcDbLine
 10
951.65912573332
 20
628.10147452053
 30
0.0
 11
952.59084955961
 21
629.0331983468099
 31
0.0
  0
LINE
  5
211
330
A
100
AcDbEntity
  8
LEVEL001
  6
Continuous
 62
     8
100
AcDbLine
 10
951.65912573332
 20
627.96005316453
 30
0.0
 11
952.73227091561
 21
629.0331983468099
 31
0.0
  0
LINE
  5
212
330
A
100
AcDbEntity
  8
LEVEL001
  6
Continuous
 62
     8
100
AcDbLine
 10
951.65912573332
 20
627.81863180853
 30
0.0
 11
952.8736922716101
 21
629.0331983468099
 31
0.0
  0
LINE
  5
213
330
A
100
AcDbEntity
  8
LEVEL001
  6
Continuous
 62
     8
100
AcDbLine
 10
951.65912573332
 20
627.6772104525299
 30
0.0
 11
953.0151136276101
 21
629.0331983468099
 31
0.0
  0
LINE
  5
214
330
A
100
AcDbEntity
  8
LEVEL001
  6
Continuous
 62
     8
100
AcDbLine
 10
951.65912573332
 20
627.53578909653
 30
0.0
 11
953.15653498361
 21
629.0331983468099
 31
0.0
  0
LINE
  5
215
330
A
100
AcDbEntity
  8
LEVEL001
  6
Continuous
 62
     8
100
AcDbLine
 10
951.65912573332
 20
627.3943677405299
 30
0.0
 11
953.29795633961
 21
629.0331983468099
 31
0.0
  0
LINE
  5
216
330
A
100
AcDbEntity
  8
LEVEL001
  6
Continuous
 62
     8
100
AcDbLine
 10
951.65912573332
 20
627.25294638453
 30
0.0
 11
953.43937769561
 21
629.0331983468099
 31
0.0
  0
LINE
  5
217
330
A
100
AcDbEntity
  8
LEVEL001
  6
Continuous
 62
     8
100
AcDbLine
 10
951.65912573332
 20
627.11152502853
 30
0.0
 11
953.5807990516101
 21
629.0331983468099
 31
0.0
  0
LINE
  5
218
330
A
100
AcDbEntity
  8
LEVEL001
  6
Continuous
 62
     8
100
AcDbLine
 10
951.65912573332
 20
626.9701036725299
 30
0.0
 11
953.7222204076099
 21
629.0331983468099
 31
0.0
  0
LINE
  5
219
330
A
100
AcDbEntity
  8
LEVEL001
  6
Continuous
 62
     8
100
AcDbLine
 10
951.65912573332
 20
626.82868231653
 30
0.0
 11
953.86364176361
 21
629.0331983468099
 31
0.0
  0
LINE
  5
21A
330
A
100
AcDbEntity
  8
LEVEL001
  6
Continuous
 62
     8
100
AcDbLine
 10
951.65912573332
 20
626.68726096053
 30
0.0
 11
954.00506311961
 21
629.0331983468099
 31
0.0
  0
LINE
  5
21B
330
A
100
AcDbEntity
  8
LEVEL001
  6
Continuous
 62
     8
100
AcDbLine
 10
951.65912573332
 20
626.54583960453
 30
0.0
 11
954.1464844755999
 21
629.0331983468099
 31
0.0
  0
LINE
  5
21C
330
A
100
AcDbEntity
  8
LEVEL001
  6
Continuous
 62
     8
100
AcDbLine
 10
951.65912573332
 20
626.4044182485299
 30
0.0
 11
954.2879058316101
 21
629.0331983468099
 31
0.0
  0
LINE
  5
21D
330
A
100
AcDbEntity
  8
LEVEL001
  6
Continuous
 62
     8
100
AcDbLine
 10
951.65912573332
 20
626.26299689253
 30
0.0
 11
954.4293271876
 21
629.0331983468099
 31
0.0
  0
LINE
  5
21E
330
A
100
AcDbEntity
  8
LEVEL001
  6
Continuous
 62
     8
100
AcDbLine
 10
951.65912573332
 20
626.12157553653
 30
0.0
 11
954.5707485435999
 21
629.0331983468099
 31
0.0
  0
LINE
  5
21F
330
A
100
AcDbEntity
  8
LEVEL001
  6
Continuous
 62
     8
100
AcDbLine
 10
951.65912573332
 20
625.98015418053
 30
0.0
 11
954.7121698995999
 21
629.0331983468099
 31
0.0
  0
LINE
  5
220
330
A
100
AcDbEntity
  8
LEVEL001
  6
Continuous
 62
     8
100
AcDbLine
 10
951.65912573332
 20
625.83873282453
 30
0.0
 11
954.8535912555999
 21
629.0331983468099
 31
0.0
  0
LINE
  5
221
330
A
100
AcDbEntity
  8
LEVEL001
  6
Continuous
 62
     8
100
AcDbLine
 10
951.65912573332
 20
625.6973114685299
 30
0.0
 11
954.9950126116
 21
629.0331983468099
 31
0.0
  0
LINE
  5
222
330
A
100
AcDbEntity
  8
LEVEL001
  6
Continuous
 62
     8
100
AcDbLine
 10
951.65912573332
 20
625.55589011253
 30
0.0
 11
955.1364339676
 21
629.0331983468099
 31
0.0
  0
LINE
  5
223
330
A
100
AcDbEntity
  8
LEVEL001
  6
Continuous
 62
     8
100
AcDbLine
 10
951.65912573332
 20
625.41446875653
 30
0.0
 11
955.2778553235999
 21
629.0331983468099
 31
0.0
  0
LINE
  5
224
330
A
100
AcDbEntity
  8
LEVEL001
  6
Continuous
 62
     8
100
AcDbLine
 10
951.65912573332
 20
625.27304740053
 30
0.0
 11
955.4192766795999
 21
629.0331983468099
 31
0.0
  0
LINE
  5
225
330
A
100
AcDbEntity
  8
LEVEL001
  6
Continuous
 62
     8
100
AcDbLine
 10
951.65912573332
 20
625.13162604453
 30
0.0
 11
955.5606980355999
 21
629.0331983468099
 31
0.0
  0
LINE
  5
226
330
A
100
AcDbEntity
  8
LEVEL001
  6
Continuous
 62
     8
100
AcDbLine
 10
951.65912573332
 20
625.0945283964199
 30
0.0
 11
951.68979075813
 21
625.0638633716199
 31
0.0
  0
LINE
  5
227
330
A
100
AcDbEntity
  8
LEVEL001
  6
Continuous
 62
     8
100
AcDbLine
 10
951.65912573332
 20
625.2359497524199
 30
0.0
 11
951.7605014361299
 21
625.13457404962
 31
0.0
  0
LINE
  5
228
330
A
100
AcDbEntity
  8
LEVEL001
  6
Continuous
 62
     8
100
AcDbLine
 10
951.65912573332
 20
625.37737110842
 30
0.0
 11
951.8312121141301
 21
625.20528472762
 31
0.0
  0
LINE
  5
229
330
A
100
AcDbEntity
  8
LEVEL001
  6
Continuous
 62
     8
100
AcDbLine
 10
951.65912573332
 20
625.51879246442
 30
0.0
 11
951.9019227921299
 21
625.27599540562
 31
0.0
  0
LINE
  5
22A
330
A
100
AcDbEntity
  8
LEVEL001
  6
Continuous
 62
     8
100
AcDbLine
 10
951.65912573332
 20
625.66021382042
 30
0.0
 11
951.9726334701299
 21
625.34670608362
 31
0.0
  0
LINE
  5
22B
330
A
100
AcDbEntity
  8
LEVEL001
  6
Continuous
 62
     8
100
AcDbLine
 10
951.65912573332
 20
625.8016351764199
 30
0.0
 11
952.04334414813
 21
625.4174167616199
 31
0.0
  0
LINE
  5
22C
330
A
100
AcDbEntity
  8
LEVEL001
  6
Continuous
 62
     8
100
AcDbLine
 10
951.65912573332
 20
625.9430565324199
 30
0.0
 11
952.11405482613
 21
625.48812743962
 31
0.0
  0
LINE
  5
22D
330
A
100
AcDbEntity
  8
LEVEL001
  6
Continuous
 62
     8
100
AcDbLine
 10
951.65912573332
 20
626.08447788842
 30
0.0
 11
952.18476550413
 21
625.55883811762
 31
0.0
  0
LINE
  5
22E
330
A
100
AcDbEntity
  8
LEVEL001
  6
Continuous
 62
     8
100
AcDbLine
 10
951.65912573332
 20
626.22589924442
 30
0.0
 11
952.25547618213
 21
625.62954879562
 31
0.0
  0
LINE
  5
22F
330
A
100
AcDbEntity
  8
LEVEL001
  6
Continuous
 62
     8
100
AcDbLine
 10
951.65912573332
 20
626.36732060042
 30
0.0
 11
952.3261868601299
 21
625.7002594736199
 31
0.0
  0
LINE
  5
230
330
A
100
AcDbEntity
  8
LEVEL001
  6
Continuous
 62
     8
100
AcDbLine
 10
951.65912573332
 20
626.5087419564199
 30
0.0
 11
952.3968975381301
 21
625.7709701516199
 31
0.0
  0
LINE
  5
231
330
A
100
AcDbEntity
  8
LEVEL001
  6
Continuous
 62
     8
100
AcDbLine
 10
951.65912573332
 20
626.65016331242
 30
0.0
 11
952.4676082161299
 21
625.84168082962
 31
0.0
  0
LINE
  5
232
330
A
100
AcDbEntity
  8
LEVEL001
  6
Continuous
 62
     8
100
AcDbLine
 10
951.65912573332
 20
626.79158466842
 30
0.0
 11
952.5383188941301
 21
625.91239150762
 31
0.0
  0
LINE
  5
233
330
A
100
AcDbEntity
  8
LEVEL001
  6
Continuous
 62
     8
100
AcDbLine
 10
951.65912573332
 20
626.93300602442
 30
0.0
 11
952.6090295721299
 21
625.98310218562
 31
0.0
  0
LINE
  5
234
330
A
100
AcDbEntity
  8
LEVEL001
  6
Continuous
 62
     8
100
AcDbLine
 10
951.65912573332
 20
627.07442738042
 30
0.0
 11
952.67974025013
 21
626.0538128636199
 31
0.0
  0
LINE
  5
235
330
A
100
AcDbEntity
  8
LEVEL001
  6
Continuous
 62
     8
100
AcDbLine
 10
951.65912573332
 20
627.2158487364199
 30
0.0
 11
952.75045092813
 21
626.12452354162
 31
0.0
  0
LINE
  5
236
330
A
100
AcDbEntity
  8
LEVEL001
  6
Continuous
 62
     8
100
AcDbLine
 10
951.65912573332
 20
627.35727009242
 30
0.0
 11
952.82116160613
 21
626.19523421962
 31
0.0
  0
LINE
  5
237
330
A
100
AcDbEntity
  8
LEVEL001
  6
Continuous
 62
     8
100
AcDbLine
 10
951.65912573332
 20
627.49869144842
 30
0.0
 11
952.89187228413
 21
626.26594489762
 31
0.0
  0
LINE
  5
238
330
A
100
AcDbEntity
  8
LEVEL001
  6
Continuous
 62
     8
100
AcDbLine
 10
951.65912573332
 20
627.64011280442
 30
0.0
 11
952.96258296213
 21
626.3366555756199
 31
0.0
  0
LINE
  5
239
330
A
100
AcDbEntity
  8
LEVEL001
  6
Continuous
 62
     8
100
AcDbLine
 10
951.65912573332
 20
627.78153416042
 30
0.0
 11
953.0332936401299
 21
626.4073662536199
 31
0.0
  0
LINE
  5
23A
330
A
100
AcDbEntity
  8
LEVEL001
  6
Continuous
 62
     8
100
AcDbLine
 10
951.65912573332
 20
627.9229555164199
 30
0.0
 11
953.1040043181301
 21
626.47807693162
 31
0.0
  0
LINE
  5
23B
330
A
100
AcDbEntity
  8
LEVEL001
  6
Continuous
 62
     8
100
AcDbLine
 10
951.65912573332
 20
628.06437687242
 30
0.0
 11
953.1747149961299
 21
626.54878760962
 31
0.0
  0
LINE
  5
23C
330
A
100
AcDbEntity
  8
LEVEL001
  6
Continuous
 62
     8
100
AcDbLine
 10
951.65912573332
 20
628.20579822842
 30
0.0
 11
953.2454256741301
 21
626.61949828762
 31
0.0
  0
LINE
  5
23D
330
A
100
AcDbEntity
  8
LEVEL001
  6
Continuous
 62
     8
100
AcDbLine
 10
951.65912573332
 20
628.34721958442
 30
0.0
 11
953.3161363521299
 21
626.6902089656199
 31
0.0
  0
LINE
  5
23E
330
A
100
AcDbEntity
  8
LEVEL001
  6
Continuous
 62
     8
100
AcDbLine
 10
951.65912573332
 20
628.48864094042
 30
0.0
 11
953.38684703013
 21
626.7609196436199
 31
0.0
  0
LINE
  5
23F
330
A
100
AcDbEntity
  8
LEVEL001
  6
Continuous
 62
     8
100
AcDbLine
 10
951.65912573332
 20
628.63006229642
 30
0.0
 11
953.45755770813
 21
626.83163032162
 31
0.0
  0
LINE
  5
240
330
A
100
AcDbEntity
  8
LEVEL001
  6
Continuous
 62
     8
100
AcDbLine
 10
951.65912573332
 20
628.77148365242
 30
0.0
 11
953.52826838613
 21
626.90234099962
 31
0.0
  0
LINE
  5
241
330
A
100
AcDbEntity
  8
LEVEL001
  6
Continuous
 62
     8
100
AcDbLine
 10
951.65912573332
 20
628.9129050084199
 30
0.0
 11
953.59897906413
 21
626.9730516776199
 31
0.0
  0
LINE
  5
242
330
A
100
AcDbEntity
  8
LEVEL001
  6
Continuous
 62
     8
100
AcDbLine
 10
951.6802537509299
 20
629.0331983468099
 30
0.0
 11
953.66968974213
 21
627.0437623556199
 31
0.0
  0
LINE
  5
243
330
A
100
AcDbEntity
  8
LEVEL001
  6
Continuous
 62
     8
100
AcDbLine
 10
951.8216751069299
 20
629.0331983468099
 30
0.0
 11
953.7404004201299
 21
627.11447303362
 31
0.0
  0
LINE
  5
244
330
A
100
AcDbEntity
  8
LEVEL001
  6
Continuous
 62
     8
100
AcDbLine
 10
951.96309646293
 20
629.0331983468099
 30
0.0
 11
953.8111110981301
 21
627.18518371162
 31
0.0
  0
LINE
  5
245
330
A
100
AcDbEntity
  8
LEVEL001
  6
Continuous
 62
     8
100
AcDbLine
 10
952.10451781893
 20
629.0331983468099
 30
0.0
 11
953.8818217761299
 21
627.25589438962
 31
0.0
  0
LINE
  5
246
330
A
100
AcDbEntity
  8
LEVEL001
  6
Continuous
 62
     8
100
AcDbLine
 10
952.2459391749299
 20
629.0331983468099
 30
0.0
 11
953.9525324541299
 21
627.3266050676199
 31
0.0
  0
LINE
  5
247
330
A
100
AcDbEntity
  8
LEVEL001
  6
Continuous
 62
     8
100
AcDbLine
 10
952.3873605309299
 20
629.0331983468099
 30
0.0
 11
954.02324313213
 21
627.3973157456199
 31
0.0
  0
LINE
  5
248
330
A
100
AcDbEntity
  8
LEVEL001
  6
Continuous
 62
     8
100
AcDbLine
 10
952.5287818869299
 20
629.0331983468099
 30
0.0
 11
954.09395381013
 21
627.46802642362
 31
0.0
  0
LINE
  5
249
330
A
100
AcDbEntity
  8
LEVEL001
  6
Continuous
 62
     8
100
AcDbLine
 10
952.67020324293
 20
629.0331983468099
 30
0.0
 11
954.16466448813
 21
627.53873710162
 31
0.0
  0
LINE
  5
24A
330
A
100
AcDbEntity
  8
LEVEL001
  6
Continuous
 62
     8
100
AcDbLine
 10
952.81162459893
 20
629.0331983468099
 30
0.0
 11
954.23537516613
 21
627.60944777962
 31
0.0
  0
LINE
  5
24B
330
A
100
AcDbEntity
  8
LEVEL001
  6
Continuous
 62
     8
100
AcDbLine
 10
952.9530459549299
 20
629.0331983468099
 30
0.0
 11
954.30608584413
 21
627.6801584576199
 31
0.0
  0
LINE
  5
24C
330
A
100
AcDbEntity
  8
LEVEL001
  6
Continuous
 62
     8
100
AcDbLine
 10
953.0944673109299
 20
629.0331983468099
 30
0.0
 11
954.37679652213
 21
627.7508691356199
 31
0.0
  0
LINE
  5
24D
330
A
100
AcDbEntity
  8
LEVEL001
  6
Continuous
 62
     8
100
AcDbLine
 10
953.23588866693
 20
629.0331983468099
 30
0.0
 11
954.4475072001299
 21
627.82157981362
 31
0.0
  0
LINE
  5
24E
330
A
100
AcDbEntity
  8
LEVEL001
  6
Continuous
 62
     8
100
AcDbLine
 10
953.37731002293
 20
629.0331983468099
 30
0.0
 11
954.5182178781301
 21
627.89229049162
 31
0.0
  0
LINE
  5
24F
330
A
100
AcDbEntity
  8
LEVEL001
  6
Continuous
 62
     8
100
AcDbLine
 10
953.51873137893
 20
629.0331983468099
 30
0.0
 11
954.5889285561299
 21
627.96300116962
 31
0.0
  0
LINE
  5
250
330
A
100
AcDbEntity
  8
LEVEL001
  6
Continuous
 62
     8
100
AcDbLine
 10
953.6601527349299
 20
629.0331983468099
 30
0.0
 11
954.6596392341299
 21
628.0337118476199
 31
0.0
  0
LINE
  5
251
330
A
100
AcDbEntity
  8
LEVEL001
  6
Continuous
 62
     8
100
AcDbLine
 10
953.8015740909299
 20
629.0331983468099
 30
0.0
 11
954.73034991213
 21
628.1044225256199
 31
0.0
  0
LINE
  5
252
330
A
100
AcDbEntity
  8
LEVEL001
  6
Continuous
 62
     8
100
AcDbLine
 10
953.94299544693
 20
629.0331983468099
 30
0.0
 11
954.80106059013
 21
628.17513320362
 31
0.0
  0
LINE
  5
253
330
A
100
AcDbEntity
  8
LEVEL001
  6
Continuous
 62
     8
100
AcDbLine
 10
954.08441680293
 20
629.0331983468099
 30
0.0
 11
954.87177126813
 21
628.2458438816199
 31
0.0
  0
LINE
  5
254
330
A
100
AcDbEntity
  8
LEVEL001
  6
Continuous
 62
     8
100
AcDbLine
 10
954.2258381589299
 20
629.0331983468099
 30
0.0
 11
954.94248194613
 21
628.31655455962
 31
0.0
  0
LINE
  5
255
330
A
100
AcDbEntity
  8
LEVEL001
  6
Continuous
 62
     8
100
AcDbLine
 10
954.3672595149299
 20
629.0331983468099
 30
0.0
 11
955.01319262413
 21
628.3872652376199
 31
0.0
  0
LINE
  5
256
330
A
100
AcDbEntity
  8
LEVEL001
  6
Continuous
 62
     8
100
AcDbLine
 10
954.5086808709299
 20
629.0331983468099
 30
0.0
 11
955.0839033021301
 21
628.45797591562
 31
0.0
  0
LINE
  5
257
330
A
100
AcDbEntity
  8
LEVEL001
  6
Continuous
 62
     8
100
AcDbLine
 10
954.65010222693
 20
629.0331983468099
 30
0.0
 11
955.1546139801299
 21
628.52868659362
 31
0.0
  0
LINE
  5
258
330
A
100
AcDbEntity
  8
LEVEL001
  6
Continuous
 62
     8
100
AcDbLine
 10
954.79152358293
 20
629.0331983468099
 30
0.0
 11
955.2253246581299
 21
628.5993972716199
 31
0.0
  0
LINE
  5
259
330
A
100
AcDbEntity
  8
LEVEL001
  6
Continuous
 62
     8
100
AcDbLine
 10
954.9329449389299
 20
629.0331983468099
 30
0.0
 11
955.2960353361299
 21
628.67010794962
 31
0.0
  0
LINE
  5
25A
330
A
100
AcDbEntity
  8
LEVEL001
  6
Continuous
 62
     8
100
AcDbLine
 10
955.0743662949299
 20
629.0331983468099
 30
0.0
 11
955.36674601413
 21
628.7408186276199
 31
0.0
  0
LINE
  5
25B
330
A
100
AcDbEntity
  8
LEVEL001
  6
Continuous
 62
     8
100
AcDbLine
 10
955.21578765093
 20
629.0331983468099
 30
0.0
 11
955.43745669213
 21
628.81152930562
 31
0.0
  0
LINE
  5
25C
330
A
100
AcDbEntity
  8
LEVEL001
  6
Continuous
 62
     8
100
AcDbLine
 10
955.35720900693
 20
629.0331983468099
 30
0.0
 11
955.50816737013
 21
628.88223998362
 31
0.0
  0
LINE
  5
25D
330
A
100
AcDbEntity
  8
LEVEL001
  6
Continuous
 62
     8
100
AcDbLine
 10
955.49863036293
 20
629.0331983468099
 30
0.0
 11
955.57887804813
 21
628.9529506616199
 31
0.0
  0
LINE
  5
25E
330
A
100
AcDbEntity
  8
LEVEL001
  6
Continuous
 62
     8
100
AcDbLine
 10
955.6400517189299
 20
629.0331983468099
 30
0.0
 11
955.64958872613
 21
629.02366133962
 31
0.0
  0
TEXT
  5
25F
330
A
100
AcDbEntity
  8
LEVEL001
 62
     8
100
AcDbText
 10
849.7613648272832
 20
663.4471890511799
 30
0.0
 40
16.0
  1
図３
 41
0.8
 72
     1
 11
862.98803149395
 21
671.4471890511799
 31
0.0
100
AcDbText
 73
     2
  0
LINE
  5
260
330
A
100
AcDbEntity
  8
LEVEL001
  6
Continuous
 62
     2
100
AcDbLine
 10
997.1550770173999
 20
375.98518961796
 30
0.0
 11
997.1550770173999
 21
365.98518961796
 31
0.0
  0
LINE
  5
261
330
A
100
AcDbEntity
  8
LEVEL001
  6
Continuous
 62
     2
100
AcDbLine
 10
992.6550770173999
 20
375.98518961796
 30
0.0
 11
992.6550770173999
 21
365.98518961796
 31
0.0
  0
LINE
  5
262
330
A
100
AcDbEntity
  8
LEVEL001
  6
Continuous
 62
     2
100
AcDbLine
 10
990.4050770174
 20
365.98518961796
 30
0.0
 11
999.4050770174
 21
365.98518961796
 31
0.0
  0
LINE
  5
263
330
A
100
AcDbEntity
  8
LEVEL002
  6
Continuous
 62
     2
100
AcDbLine
 10
1040.4050770174
 20
351.55143288824
 30
0.0
 11
1040.4050770174
 21
284.45175444064
 31
0.0
  0
LINE
  5
264
330
A
100
AcDbEntity
  8
LEVEL002
  6
Continuous
 62
     2
100
AcDbLine
 10
1049.4050770174
 20
284.45175444064
 30
0.0
 11
1049.4050770174
 21
351.55143288824
 31
0.0
  0
LINE
  5
265
330
A
100
AcDbEntity
  8
LEVEL001
  6
Continuous
 62
     2
100
AcDbLine
 10
1042.6550770174
 20
361.55143288824
 30
0.0
 11
1042.6550770174
 21
351.55143288824
 31
0.0
  0
LINE
  5
266
330
A
100
AcDbEntity
  8
LEVEL001
  6
Continuous
 62
     2
100
AcDbLine
 10
1040.4050770174
 20
351.55143288824
 30
0.0
 11
1049.4050770174
 21
351.55143288824
 31
0.0
  0
LINE
  5
267
330
A
100
AcDbEntity
  8
LEVEL001
  6
Continuous
 62
     2
100
AcDbLine
 10
1047.1550770174
 20
358.96308106864
 30
0.0
 11
1047.1550770174
 21
351.55143288824
 31
0.0
  0
CIRCLE
  5
268
330
A
100
AcDbEntity
  8
LEVEL001
  6
DASHDOT
 62
     6
 48
0.25
370
    15
100
AcDbCircle
 10
956.0999847030201
 20
388.88479875943
 30
0.0
 40
18.503324026068
  0
LINE
  5
269
330
A
100
AcDbEntity
  8
LEVEL002
  6
Continuous
 62
     2
100
AcDbLine
 10
990.4050770174
 20
365.98518961796
 30
0.0
 11
990.4050770174
 21
284.45175444064
 31
0.0
  0
LINE
  5
26A
330
A
100
AcDbEntity
  8
LEVEL002
  6
Continuous
 62
     2
100
AcDbLine
 10
999.4050770174
 20
284.45175444064
 30
0.0
 11
999.4050770174
 21
365.98518961796
 31
0.0
  0
LINE
  5
26B
330
A
100
AcDbEntity
  8
LEVEL001
  6
DASHDOT
 62
     6
370
    15
100
AcDbLine
 10
994.9050770174
 20
383.35612994187
 30
0.0
 11
994.9050770174
 21
261.649165168
 31
0.0
  0
LINE
  5
26C
330
A
100
AcDbEntity
  8
LEVEL001
  6
DASHDOT
 62
     6
370
    15
100
AcDbLine
 10
1044.9050770174
 20
368.92237321216
 30
0.0
 11
1044.9050770174
 21
261.649165168
 31
0.0
  0
LINE
  5
26D
330
A
100
AcDbEntity
  8
LEVEL001
  6
Continuous
 62
     2
100
AcDbLine
 10
884.87193462787
 20
465.98518961794
 30
0.0
 11
884.87193462787
 21
455.98518961794
 31
0.0
  0
LINE
  5
26E
330
A
100
AcDbEntity
  8
LEVEL001
  6
Continuous
 62
     2
100
AcDbLine
 10
880.37193462787
 20
465.98518961794
 30
0.0
 11
880.37193462787
 21
455.98518961794
 31
0.0
  0
LINE
  5
26F
330
A
100
AcDbEntity
  8
LEVEL001
  6
Continuous
 62
     2
100
AcDbLine
 10
878.12193462787
 20
455.98518961794
 30
0.0
 11
887.1219346278699
 21
455.98518961794
 31
0.0
  0
LINE
  5
270
330
A
100
AcDbEntity
  8
LEVEL002
  6
Continuous
 62
     2
100
AcDbLine
 10
887.1219346278699
 20
284.45175444064
 30
0.0
 11
887.1219346278699
 21
455.98518961794
 31
0.0
  0
LINE
  5
271
330
A
100
AcDbEntity
  8
LEVEL002
  6
Continuous
 62
     2
100
AcDbLine
 10
878.12193462787
 20
455.98518961794
 30
0.0
 11
878.12193462787
 21
284.45175444064
 31
0.0
  0
LINE
  5
272
330
A
100
AcDbEntity
  8
LEVEL001
  6
DASHDOT
 62
     8
100
AcDbLine
 10
882.6219346278699
 20
473.35612994186
 30
0.0
 11
882.6219346278699
 21
261.649165168
 31
0.0
  0
TEXT
  5
273
330
A
100
AcDbEntity
  8
LEVEL001
 62
     8
100
AcDbText
 10
849.7613648272832
 20
525.3980892148199
 30
0.0
 40
16.0
  1
図４
 41
0.8
 72
     1
 11
862.98803149395
 21
533.3980892148199
 31
0.0
100
AcDbText
 73
     2
  0
TEXT
  5
274
330
A
100
AcDbEntity
  8
LEVEL001
 62
     8
100
AcDbText
 10
726.5925705010466
 20
1107.225694234
 30
0.0
 40
16.0
  1
●納まり図
 41
0.8
 72
     1
 11
763.2859038343799
 21
1115.225694234
 31
0.0
100
AcDbText
 73
     2
  0
TEXT
  5
275
330
A
100
AcDbEntity
  8
LEVEL001
 62
     8
100
AcDbText
 10
749.49427168576
 20
228.03600654664
 30
0.0
 40
12.0
  1
･ハンドレールの美しい取付けは、フラットバーの製作に左右されます。
 41
0.8
100
AcDbText
  0
TEXT
  5
276
330
A
100
AcDbEntity
  8
LEVEL001
 62
     8
100
AcDbText
 10
749.49427168576
 20
212.03600654664
 30
0.0
 40
12.0
  1
 バー取付けはＲ面を初めとしてコーナー部と壁面との間隔を正しく
 41
0.8
100
AcDbText
  0
TEXT
  5
277
330
A
100
AcDbEntity
  8
LEVEL001
 62
     8
100
AcDbText
 10
749.49427168576
 20
196.03600654664
 30
0.0
 40
12.0
  1
 取って下さい(図１･２参照)
 41
0.8
100
AcDbText
  0
TEXT
  5
278
330
A
100
AcDbEntity
  8
LEVEL001
 62
     8
100
AcDbText
 10
749.49427168576
 20
180.03600654664
 30
0.0
 40
12.0
  1

 41
0.5
100
AcDbText
  0
TEXT
  5
279
330
A
100
AcDbEntity
  8
LEVEL001
 62
     8
100
AcDbText
 10
749.49427168576
 20
164.03600654664
 30
0.0
 40
12.0
  1
･自由な曲がりができますが、フラットバー製作時に曲がりの必要事項
 41
0.8
100
AcDbText
  0
TEXT
  5
27A
330
A
100
AcDbEntity
  8
LEVEL001
 62
     8
100
AcDbText
 10
749.49427168576
 20
148.03600654664
 30
0.0
 40
12.0
  1
 を厳守して下さい。(図４･５参照)
 41
0.8
100
AcDbText
  0
TEXT
  5
27B
330
A
100
AcDbEntity
  8
LEVEL001
 62
     8
100
AcDbText
 10
749.49427168576
 20
132.03600654664
 30
0.0
 40
12.0
  1
･フラットバーの熔接時にノ口がでないように注意して下さい。(図３参照)
 41
0.8
100
AcDbText
  0
TEXT
  5
27C
330
A
100
AcDbEntity
  8
LEVEL001
 62
     8
100
AcDbText
 10
749.49427168576
 20
116.03600654664
 30
0.0
 40
12.0
  1

 41
0.5
100
AcDbText
  0
TEXT
  5
27D
330
A
100
AcDbEntity
  8
LEVEL001
 62
     8
100
AcDbText
 10
749.49427168576
 20
100.03600654664
 30
0.0
 40
12.0
  1
･下部の樹脂のくわえの寸法(１０m/m以上)必ず見ておいて下さい(図１･３参照)
 41
0.8
100
AcDbText
  0
TEXT
  5
27E
330
A
100
AcDbEntity
  8
LEVEL001
 62
     8
100
AcDbText
 10
749.49427168576
 20
84.03600654664499
 30
0.0
 40
12.0
  1

 41
0.5
100
AcDbText
  0
TEXT
  5
27F
330
A
100
AcDbEntity
  8
LEVEL001
 62
     8
100
AcDbText
 10
749.49427168576
 20
68.03600654664499
 30
0.0
 40
12.0
  1
･段違い加工の時は各コーナーは各々必ずＲを取って下さい(図４･５参照)
 41
0.8
100
AcDbText
  0
TEXT
  5
280
330
A
100
AcDbEntity
  8
LEVEL001
 62
     8
100
AcDbText
 10
1258.0000000001
 20
819.00000000001
 30
0.0
 40
12.0
  1
材質：特殊樹脂（抗菌剤入）
 41
0.8
100
AcDbText
  0
TEXT
  5
281
330
A
100
AcDbEntity
  8
LEVEL001
 62
     8
100
AcDbText
 10
1258.0000000001
 20
803.00000000001
 30
0.0
 40
12.0
  1

 41
0.5
100
AcDbText
  0
TEXT
  5
282
330
A
100
AcDbEntity
  8
LEVEL001
 62
     8
100
AcDbText
 10
1258.0000000001
 20
787.00000000001
 30
0.0
 40
12.0
  1
仕上：標準９色
 41
0.8
100
AcDbText
  0
TEXT
  5
283
330
A
100
AcDbEntity
  8
LEVEL001
 62
     8
100
AcDbText
 10
1258.0000000001
 20
771.00000000001
 30
0.0
 40
12.0
  1
　　　Ｐ０１－パールグレイ　　　　　（白鼠）
 41
0.8
100
AcDbText
  0
TEXT
  5
284
330
A
100
AcDbEntity
  8
LEVEL001
 62
     8
100
AcDbText
 10
1258.0000000001
 20
755.00000000001
 30
0.0
 40
12.0
  1
　　　Ｐ０３－グレイ　　　　　　　　（鼠）
 41
0.8
100
AcDbText
  0
TEXT
  5
285
330
A
100
AcDbEntity
  8
LEVEL001
 62
     8
100
AcDbText
 10
1258.0000000001
 20
739.00000000001
 30
0.0
 40
12.0
  1
　　　Ｐ０５－フローステッドブラック（淡黒）
 41
0.8
100
AcDbText
  0
TEXT
  5
286
330
A
100
AcDbEntity
  8
LEVEL001
 62
     8
100
AcDbText
 10
1258.0000000001
 20
723.0000000000099
 30
0.0
 40
12.0
  1
　　　Ｐ０６－アイボリー　　　　　　（白茶）
 41
0.8
100
AcDbText
  0
TEXT
  5
287
330
A
100
AcDbEntity
  8
LEVEL001
 62
     8
100
AcDbText
 10
1258.0000000001
 20
707.0000000000099
 30
0.0
 40
12.0
  1
　　　Ｐ０７－ダークアイボリー　　　（薄黄）
 41
0.8
100
AcDbText
  0
TEXT
  5
288
330
A
100
AcDbEntity
  8
LEVEL001
 62
     8
100
AcDbText
 10
1258.0000000001
 20
691.00000000001
 30
0.0
 40
12.0
  1
　　　Ｐ０９－ココアブラウン　　　　（灰黄赤）
 41
0.8
100
AcDbText
  0
TEXT
  5
289
330
A
100
AcDbEntity
  8
LEVEL001
 62
     8
100
AcDbText
 10
1258.0000000001
 20
675.00000000001
 30
0.0
 40
12.0
  1
　　　Ｐ１１－チョコレート　　　　　（濃茶）
 41
0.8
100
AcDbText
  0
TEXT
  5
28A
330
A
100
AcDbEntity
  8
LEVEL001
 62
     8
100
AcDbText
 10
1258.0000000001
 20
659.00000000001
 30
0.0
 40
12.0
  1
　　　Ｐ１６－リーフグリーン　　　　（若葉）
 41
0.8
100
AcDbText
  0
TEXT
  5
28B
330
A
100
AcDbEntity
  8
LEVEL001
 62
     8
100
AcDbText
 10
1258.0000000001
 20
643.00000000001
 30
0.0
 40
12.0
  1
　　　Ｐ２０－プロセスブルー　　　　（濃紺）
 41
0.8
100
AcDbText
  0
TEXT
  5
28C
330
A
100
AcDbEntity
  8
LEVEL001
 62
     8
100
AcDbText
 10
1292.5600000001
 20
894.3333333333399
 30
0.0
 40
14.0
  1
ＫＧ３２０６･ＫＧ３８０９･ＫＧ５００９
 41
0.8
 72
     1
 11
1418.0000000001
 21
901.3333333333399
 31
0.0
100
AcDbText
 73
     2
  0
TEXT
  5
28D
330
A
100
AcDbEntity
  8
LEVEL001
 62
     8
100
AcDbText
 10
1308.6995065789
 20
961.81842105265
 30
0.0
 40
18.0
  1
パルラインハンドレール平型
 41
0.8
 72
     1
 11
1419.0995065789
 21
970.81842105265
 31
0.0
100
AcDbText
 73
     2
  0
TEXT
  5
28E
330
A
100
AcDbEntity
  8
LEVEL001
 62
     8
100
AcDbText
 10
1356.0000000001
 20
225.50000000001
 30
0.0
 40
15.0
  1
平面図･断面図･姿図
 41
0.8
 72
     1
 11
1418.0000000001
 21
233.00000000001
 31
0.0
100
AcDbText
 73
     2
  0
TEXT
  5
28F
330
A
100
AcDbEntity
  8
LEVEL001
 62
     8
100
AcDbText
 10
1283.6000000001
 20
145.50000000001
 30
0.0
 40
15.0
  1
Ｓ＝１：４　
 41
0.8
 72
     1
 11
1318.0000000001
 21
153.00000000001
 31
0.0
100
AcDbText
 73
     2
  0
TEXT
  5
290
330
A
100
AcDbEntity
  8
LEVEL001
 62
     8
100
AcDbText
 10
1305.6000000001
 20
65.50000000000899
 30
0.0
 40
15.0
  1
Ａ３
 41
0.8
 72
     1
 11
1318.0000000001
 21
73.00000000000899
 31
0.0
100
AcDbText
 73
     2
  0
TEXT
  5
291
330
A
100
AcDbEntity
  8
LEVEL001
 62
     8
100
AcDbText
 10
1471.6000000001
 20
65.50000000000899
 30
0.0
 40
15.0
  1
平型手手摺－１
 41
0.8
 72
     1
 11
1518.0000000001
 21
73.00000000000899
 31
0.0
100
AcDbText
 73
     2
  0
TEXT
  5
292
330
A
100
AcDbEntity
  8
LEVEL001
 62
     8
100
AcDbText
 10
1487.4203382433
 20
188.66666666668
 30
0.0
 40
12.0
  1
平成１９年　３月１８日
 41
0.8
 72
     1
 11
1548.8603382433
 21
194.66666666668
 31
0.0
100
AcDbText
 73
     2
  0
LWPOLYLINE
  5
294
330
A
100
AcDbEntity
  8
LEVEL001
  6
Continuous
 62
     7
100
AcDbPolyline
 90
        4
 70
     0
 43
0.0
 10
881.28558054328
 20
800.22208117401
 10
1007.6765607215
 20
800.22208117401
 10
1007.6765607215
 20
806.22208117401
 10
881.28558054328
 20
806.22208117401
  0
LINE
  5
29A
330
A
100
AcDbEntity
  8
LEVEL002
  6
Continuous
 62
     7
100
AcDbLine
 10
933.40912573332
 20
629.0331983468099
 30
0.0
 11
965.4091257333201
 21
629.0331983468099
 31
0.0
  0
LINE
  5
29B
330
A
100
AcDbEntity
  8
LEVEL002
  6
Continuous
 62
     7
100
AcDbLine
 10
933.40912573332
 20
635.0331983468099
 30
0.0
 11
933.40912573332
 21
629.0331983468099
 31
0.0
  0
LINE
  5
29C
330
A
100
AcDbEntity
  8
LEVEL002
  6
Continuous
 62
     7
100
AcDbLine
 10
965.4091257333201
 20
635.0331983468099
 30
0.0
 11
933.40912573332
 21
635.0331983468099
 31
0.0
  0
LINE
  5
29D
330
A
100
AcDbEntity
  8
LEVEL002
  6
Continuous
 62
     7
100
AcDbLine
 10
965.4091257333201
 20
629.0331983468099
 30
0.0
 11
965.4091257333201
 21
635.0331983468099
 31
0.0
  0
LINE
  5
29E
330
A
100
AcDbEntity
  8
LEVEL001
  6
Continuous
 62
     7
100
AcDbLine
 10
870.67476241473
 20
465.8561299418599
 30
0.0
 11
926.36311597574
 21
465.8561299418599
 31
0.0
  0
LINE
  5
29F
330
A
100
AcDbEntity
  8
LEVEL001
  6
Continuous
 62
     7
100
AcDbLine
 10
870.67476241473
 20
471.85612994186
 30
0.0
 11
926.82998573445
 21
471.85612994186
 31
0.0
  0
ARC
  5
2A0
330
A
100
AcDbEntity
  8
LEVEL001
  6
Continuous
 62
     7
100
AcDbCircle
 10
925.40507701739
 20
448.8561299418499
 30
0.0
 40
23.0
100
AcDbArc
 50
0.0
 51
90.0
  0
ARC
  5
2A1
330
A
100
AcDbEntity
  8
LEVEL001
  6
Continuous
 62
     7
100
AcDbCircle
 10
925.40507701739
 20
448.8561299418599
 30
0.0
 40
17.0
100
AcDbArc
 50
0.0
 51
90.0
  0
LINE
  5
2A2
330
A
100
AcDbEntity
  8
LEVEL001
  6
DASHDOT
 62
     6
370
    15
100
AcDbLine
 10
945.40507701739
 20
448.8561299418599
 30
0.0
 11
945.40507701739
 21
398.85612994184
 31
0.0
  0
ARC
  5
2A3
330
A
100
AcDbEntity
  8
LEVEL001
  6
DASHDOT
 62
     6
370
    15
100
AcDbCircle
 10
965.4050770173899
 20
398.85612994184
 30
0.0
 40
20.0
100
AcDbArc
 50
180.0
 51
270.00000000005
  0
ARC
  5
2A4
330
A
100
AcDbEntity
  8
LEVEL001
  6
DASHDOT
 62
     6
370
    15
100
AcDbCircle
 10
925.40507701739
 20
448.8561299418599
 30
0.0
 40
20.0
100
AcDbArc
 50
0.0
 51
90.0
  0
LINE
  5
2A5
330
A
100
AcDbEntity
  8
LEVEL001
  6
DASHDOT
 62
     6
370
    15
100
AcDbLine
 10
870.67476241473
 20
468.85612994186
 30
0.0
 11
925.40507701739
 21
468.85612994186
 31
0.0
  0
ARC
  5
2A6
330
A
100
AcDbEntity
  8
LEVEL001
  6
DASHDOT
 62
     8
100
AcDbCircle
 10
1013.3403218028
 20
358.85612994189
 30
0.0
 40
20.0
100
AcDbArc
 50
60.00000000001301
 51
90.00000000006799
  0
LINE
  5
2A7
330
A
100
AcDbEntity
  8
LEVEL001
  6
DASHDOT
 62
     6
370
    15
100
AcDbLine
 10
965.40507701741
 20
378.85612994184
 30
0.0
 11
1013.3403218028
 21
378.85612994189
 31
0.0
  0
LINE
  5
2A8
330
A
100
AcDbEntity
  8
LEVEL001
  6
DASHDOT
 62
     6
370
    15
100
AcDbLine
 10
1023.3403218028
 20
376.17663801758
 30
0.0
 11
1077.9576889973
 21
344.64328636546
 31
0.0
  0
ARC
  5
2A9
330
A
100
AcDbEntity
  8
LEVEL001
  6
Continuous
 62
     7
100
AcDbCircle
 10
965.4050770173899
 20
398.85612994184
 30
0.0
 40
23.0
100
AcDbArc
 50
180.0
 51
270.00000000006
  0
ARC
  5
2AA
330
A
100
AcDbEntity
  8
LEVEL001
  6
Continuous
 62
     7
100
AcDbCircle
 10
965.4050770173899
 20
398.85612994184
 30
0.0
 40
17.0
100
AcDbArc
 50
180.0
 51
270.00000000006
  0
ARC
  5
2AB
330
A
100
AcDbEntity
  8
LEVEL001
  6
Continuous
 62
     7
100
AcDbCircle
 10
1013.3403218028
 20
358.85612994189
 30
0.0
 40
17.0
100
AcDbArc
 50
60.000000000003
 51
90.00000000006
  0
ARC
  5
2AC
330
A
100
AcDbEntity
  8
LEVEL001
  6
Continuous
 62
     7
100
AcDbCircle
 10
1013.3403218028
 20
358.85612994189
 30
0.0
 40
23.0
100
AcDbArc
 50
60.000000000008
 51
90.000000000064
  0
LINE
  5
2AD
330
A
100
AcDbEntity
  8
LEVEL001
  6
Continuous
 62
     7
100
AcDbLine
 10
1021.8403218028
 20
373.57856180623
 30
0.0
 11
1076.4576889973
 21
342.0452101541
 31
0.0
  0
LINE
  5
2AE
330
A
100
AcDbEntity
  8
LEVEL001
  6
Continuous
 62
     7
100
AcDbLine
 10
1024.8403218028
 20
378.77471422893
 30
0.0
 11
1079.4576889973
 21
347.24136257681
 31
0.0
  0
LINE
  5
2AF
330
A
100
AcDbEntity
  8
LEVEL001
  6
Continuous
 62
     7
100
AcDbLine
 10
948.4050770173899
 20
450.2810386589799
 30
0.0
 11
948.4050770173899
 21
398.85612994184
 31
0.0
  0
LINE
  5
2B0
330
A
100
AcDbEntity
  8
LEVEL001
  6
Continuous
 62
     7
100
AcDbLine
 10
942.40507701739
 20
449.81416890025
 30
0.0
 11
942.40507701739
 21
398.85612994184
 31
0.0
  0
LINE
  5
2B1
330
A
100
AcDbEntity
  8
LEVEL001
  6
Continuous
 62
     7
100
AcDbLine
 10
965.40507701741
 20
381.85612994184
 30
0.0
 11
1013.3403218028
 21
381.85612994189
 31
0.0
  0
LINE
  5
2B2
330
A
100
AcDbEntity
  8
LEVEL001
  6
Continuous
 62
     7
100
AcDbLine
 10
965.4050770174199
 20
375.85612994184
 30
0.0
 11
1013.3403218028
 21
375.85612994189
 31
0.0
  0
CIRCLE
  5
2B3
330
A
100
AcDbEntity
  8
LEVEL001
  6
DASHDOT
 62
     6
 48
0.25
370
    15
100
AcDbCircle
 10
945.40507701739
 20
468.85612994186
 30
0.0
 40
17.760176921322
  0
CIRCLE
  5
2B4
330
A
100
AcDbEntity
  8
LEVEL001
  6
DASHDOT
 62
     6
 48
0.25
370
    15
100
AcDbCircle
 10
1018.6993056515
 20
378.8561299419
 30
0.0
 40
18.503324026068
  0
TEXT
  5
2B5
330
A
100
AcDbEntity
  8
LEVEL001
 62
     8
100
AcDbText
 10
1487.4203382433
 20
162.00000000001
 30
0.0
 40
12.0
  1
平成２５年１１月　１日
 41
0.8
 72
     1
 11
1548.8603382433
 21
168.00000000001
 31
0.0
100
AcDbText
 73
     2
  0
TEXT
  5
2B6
330
A
100
AcDbEntity
  8
LEVEL001
 62
     8
100
AcDbText
 10
97.62666666676665
 20
1113.9229119099
 30
0.0
 40
16.0
  1
ＫＧ３２０６
 41
0.8
 72
     1
 11
142.0000000001
 21
1121.9229119099
 31
0.0
100
AcDbText
 73
     2
  0
TEXT
  5
2B7
330
A
100
AcDbEntity
  8
LEVEL001
 62
     8
100
AcDbText
 10
292.6266666667767
 20
1113.9229119099
 30
0.0
 40
16.0
  1
ＫＧ３８０９
 41
0.8
 72
     1
 11
337.00000000011
 21
1121.9229119099
 31
0.0
100
AcDbText
 73
     2
  0
TEXT
  5
2B8
330
A
100
AcDbEntity
  8
LEVEL001
 62
     8
100
AcDbText
 10
487.6278038510466
 20
1113.9229119099
 30
0.0
 40
16.0
  1
ＫＧ５００９
 41
0.8
 72
     1
 11
532.00113718438
 21
1121.9229119099
 31
0.0
100
AcDbText
 73
     2
  0
LINE
  5
2B9
330
A
100
AcDbEntity
  8
LEVEL001
  6
Continuous
 62
     6
370
    15
100
AcDbLine
 10
586.62598239826
 20
746.4983540158699
 30
0.0
 11
523.1763683905
 21
776.08539493464
 31
0.0
  0
LWPOLYLINE
  5
2BA
330
A
100
AcDbEntity
  8
LEVEL001
  6
Continuous
 62
     6
370
    15
100
AcDbPolyline
 90
        4
 70
     0
 43
0.0
 10
557.3139774427199
 20
761.7232087787499
 10
563.96828772234
 20
757.0638105593801
 10
556.12167340936
 20
759.16630452786
 10
557.3139774427199
 20
761.7232087787499
  0
TEXT
  5
2C0
330
A
100
AcDbEntity
  8
LEVEL001
 62
     6
370
    15
100
AcDbText
 10
524.86684143747
 20
779.71062608279
 30
0.0
 40
12.0
  1
Ｒ　
 50
335.00000000002
 41
0.8
100
AcDbText
  0
LINE
  5
2C1
330
A
100
AcDbEntity
  8
LEVEL001
  6
Continuous
 62
     6
370
    15
100
AcDbLine
 10
599.29043242775
 20
520.50877600633
 30
0.0
 11
599.29043242775
 21
585.5087760063299
 31
0.0
  0
CIRCLE
  5
2C2
330
A
100
AcDbEntity
  8
LEVEL001
  6
Continuous
 62
     6
370
    15
100
AcDbCircle
 10
599.29043242775
 20
520.50877600633
 30
0.0
 40
0.8
  0
CIRCLE
  5
2C3
330
A
100
AcDbEntity
  8
LEVEL001
  6
Continuous
 62
     6
370
    15
100
AcDbCircle
 10
599.29043242775
 20
585.5087760063299
 30
0.0
 40
0.8
  0
TEXT
  5
2C4
330
A
100
AcDbEntity
  8
LEVEL001
 62
     6
370
    15
100
AcDbText
 10
595.29043242775
 20
547.0087760063299
 30
0.0
 40
12.0
  1
Ｗ
 50
90.0
 41
0.8
100
AcDbText
  0
LINE
  5
2C5
330
A
100
AcDbEntity
  8
LEVEL001
  6
Continuous
 62
     6
370
    15
100
AcDbLine
 10
574.29043242775
 20
553.00877600633
 30
0.0
 11
507.9197943475
 21
572.59903639508
 31
0.0
  0
LWPOLYLINE
  5
2C6
330
A
100
AcDbEntity
  8
LEVEL001
  6
Continuous
 62
     6
370
    15
100
AcDbPolyline
 90
        4
 70
     0
 43
0.0
 10
535.84648757669
 20
565.82684689679
 10
543.11990184693
 20
562.20921204546
 10
535.0478241389099
 20
563.12102262878
 10
535.84648757669
 20
565.82684689679
  0
TEXT
  5
2CC
330
A
100
AcDbEntity
  8
LEVEL001
 62
     6
370
    15
100
AcDbText
 10
508.9414761532
 20
576.06043364115
 30
0.0
 40
12.0
  1
Ｒ
 50
343.55526724212
 41
0.8
100
AcDbText
  0
LINE
  5
2CD
330
A
100
AcDbEntity
  8
LEVEL001
  6
Continuous
 62
     6
370
    15
100
AcDbLine
 10
588.20626536755
 20
304.37666107633
 30
0.0
 11
638.20626536755
 21
304.37666107633
 31
0.0
  0
LINE
  5
2CE
330
A
100
AcDbEntity
  8
LEVEL001
  6
Continuous
 62
     6
370
    15
100
AcDbLine
 10
588.20626536755
 20
352.62907060534
 30
0.0
 11
588.20626536755
 21
300.37666107633
 31
0.0
  0
LINE
  5
2CF
330
A
100
AcDbEntity
  8
LEVEL001
  6
Continuous
 62
     6
370
    15
100
AcDbLine
 10
638.20626536755
 20
352.62907060534
 30
0.0
 11
638.20626536755
 21
300.37666107633
 31
0.0
  0
CIRCLE
  5
2D0
330
A
100
AcDbEntity
  8
LEVEL001
  6
Continuous
 62
     6
370
    15
100
AcDbCircle
 10
588.20626536755
 20
304.37666107633
 30
0.0
 40
0.8
  0
CIRCLE
  5
2D1
330
A
100
AcDbEntity
  8
LEVEL001
  6
Continuous
 62
     6
370
    15
100
AcDbCircle
 10
638.20626536755
 20
304.37666107633
 30
0.0
 40
0.8
  0
TEXT
  5
2D2
330
A
100
AcDbEntity
  8
LEVEL001
 62
     6
370
    15
100
AcDbText
 10
607.20626536755
 20
308.37666107633
 30
0.0
 40
12.0
  1
Ａ
 41
0.8
100
AcDbText
  0
LINE
  5
2D3
330
A
100
AcDbEntity
  8
LEVEL001
  6
Continuous
 62
     6
370
    15
100
AcDbLine
 10
657.8324274447299
 20
169.55639072415
 30
0.0
 11
657.8324274447299
 21
129.55639072415
 31
0.0
  0
LINE
  5
2D4
330
A
100
AcDbEntity
  8
LEVEL001
  6
Continuous
 62
     6
370
    15
100
AcDbLine
 10
629.25050345855
 20
169.55639072415
 30
0.0
 11
661.8324274447299
 21
169.55639072415
 31
0.0
  0
LINE
  5
2D5
330
A
100
AcDbEntity
  8
LEVEL001
  6
Continuous
 62
     6
370
    15
100
AcDbLine
 10
629.25050345855
 20
129.55639072415
 30
0.0
 11
661.8324274447299
 21
129.55639072415
 31
0.0
  0
CIRCLE
  5
2D6
330
A
100
AcDbEntity
  8
LEVEL001
  6
Continuous
 62
     6
370
    15
100
AcDbCircle
 10
657.8324274447299
 20
169.55639072415
 30
0.0
 40
0.8
  0
CIRCLE
  5
2D7
330
A
100
AcDbEntity
  8
LEVEL001
  6
Continuous
 62
     6
370
    15
100
AcDbCircle
 10
657.8324274447299
 20
129.55639072415
 30
0.0
 40
0.8
  0
TEXT
  5
2D8
330
A
100
AcDbEntity
  8
LEVEL001
 62
     6
370
    15
100
AcDbText
 10
653.8324274447299
 20
144.55639072415
 30
0.0
 40
10.0
  1
Ｗ
 50
90.0
 41
0.8
100
AcDbText
  0
LINE
  5
2D9
330
A
100
AcDbEntity
  8
LEVEL001
  6
Continuous
 62
     6
370
    15
100
AcDbLine
 10
174.0000000001
 20
982.5240488651401
 30
0.0
 11
188.74532069803
 21
982.5240488651401
 31
0.0
  0
LINE
  5
2DA
330
A
100
AcDbEntity
  8
LEVEL001
  6
Continuous
 62
     6
370
    15
100
AcDbLine
 10
174.0000000001
 20
1008.5240488651
 30
0.0
 11
174.0000000001
 21
980.5240488651399
 31
0.0
  0
LINE
  5
2DB
330
A
100
AcDbEntity
  8
LEVEL001
  6
Continuous
 62
     6
370
    15
100
AcDbLine
 10
178.0000000001
 20
1008.5240488651
 30
0.0
 11
178.0000000001
 21
980.5240488651399
 31
0.0
  0
CIRCLE
  5
2DC
330
A
100
AcDbEntity
  8
LEVEL001
  6
Continuous
 62
     6
370
    15
100
AcDbCircle
 10
174.0000000001
 20
982.5240488651401
 30
0.0
 40
0.8
  0
CIRCLE
  5
2DD
330
A
100
AcDbEntity
  8
LEVEL001
  6
Continuous
 62
     6
370
    15
100
AcDbCircle
 10
178.0000000001
 20
982.5240488651401
 30
0.0
 40
0.8
  0
TEXT
  5
2DE
330
A
100
AcDbEntity
  8
LEVEL001
 62
     6
370
    15
100
AcDbText
 10
180.74532069803
 20
984.52404886514
 30
0.0
 40
8.0
  1
４
 41
0.8
100
AcDbText
  0
LINE
  5
2DF
330
A
100
AcDbEntity
  8
LEVEL001
  6
Continuous
 62
     6
370
    15
100
AcDbLine
 10
146.0000000001
 20
1057.5240488651
 30
0.0
 11
178.0000000001
 21
1057.5240488651
 31
0.0
  0
LINE
  5
2E0
330
A
100
AcDbEntity
  8
LEVEL001
  6
Continuous
 62
     6
370
    15
100
AcDbLine
 10
146.0000000001
 20
1026.5240488651
 30
0.0
 11
146.0000000001
 21
1059.5240488651
 31
0.0
  0
LINE
  5
2E1
330
A
100
AcDbEntity
  8
LEVEL001
  6
Continuous
 62
     6
370
    15
100
AcDbLine
 10
178.0000000001
 20
1026.5240488651
 30
0.0
 11
178.0000000001
 21
1059.5240488651
 31
0.0
  0
CIRCLE
  5
2E2
330
A
100
AcDbEntity
  8
LEVEL001
  6
Continuous
 62
     6
370
    15
100
AcDbCircle
 10
146.0000000001
 20
1057.5240488651
 30
0.0
 40
0.8
  0
CIRCLE
  5
2E3
330
A
100
AcDbEntity
  8
LEVEL001
  6
Continuous
 62
     6
370
    15
100
AcDbCircle
 10
178.0000000001
 20
1057.5240488651
 30
0.0
 40
0.8
  0
TEXT
  5
2E4
330
A
100
AcDbEntity
  8
LEVEL001
 62
     6
370
    15
100
AcDbText
 10
155.0000000001
 20
1059.5240488651
 30
0.0
 40
8.0
  1
３２
 41
0.8
100
AcDbText
  0
LINE
  5
2E5
330
A
100
AcDbEntity
  8
LEVEL001
  6
Continuous
 62
     6
370
    15
100
AcDbLine
 10
142.0000000001
 20
1087.5240488651
 30
0.0
 11
182.0000000001
 21
1087.5240488651
 31
0.0
  0
LINE
  5
2E6
330
A
100
AcDbEntity
  8
LEVEL001
  6
Continuous
 62
     6
370
    15
100
AcDbLine
 10
142.0000000001
 20
1027.3571888494
 30
0.0
 11
142.0000000001
 21
1089.5240488651
 31
0.0
  0
LINE
  5
2E7
330
A
100
AcDbEntity
  8
LEVEL001
  6
Continuous
 62
     6
370
    15
100
AcDbLine
 10
182.0000000001
 20
1027.3571888494
 30
0.0
 11
182.0000000001
 21
1089.5240488651
 31
0.0
  0
CIRCLE
  5
2E8
330
A
100
AcDbEntity
  8
LEVEL001
  6
Continuous
 62
     6
370
    15
100
AcDbCircle
 10
142.0000000001
 20
1087.5240488651
 30
0.0
 40
0.8
  0
CIRCLE
  5
2E9
330
A
100
AcDbEntity
  8
LEVEL001
  6
Continuous
 62
     6
370
    15
100
AcDbCircle
 10
182.0000000001
 20
1087.5240488651
 30
0.0
 40
0.8
  0
TEXT
  5
2EA
330
A
100
AcDbEntity
  8
LEVEL001
 62
     6
370
    15
100
AcDbText
 10
155.0000000001
 20
1089.5240488651
 30
0.0
 40
8.0
  1
４０
 41
0.8
100
AcDbText
  0
LINE
  5
2EB
330
A
100
AcDbEntity
  8
LEVEL001
  6
Continuous
 62
     6
370
    15
100
AcDbLine
 10
343.00000000011
 20
1057.5240488651
 30
0.0
 11
381.00000000011
 21
1057.5240488651
 31
0.0
  0
LINE
  5
2EC
330
A
100
AcDbEntity
  8
LEVEL001
  6
Continuous
 62
     6
370
    15
100
AcDbLine
 10
343.00000000011
 20
1030.5240488651
 30
0.0
 11
343.00000000011
 21
1059.5240488651
 31
0.0
  0
LINE
  5
2ED
330
A
100
AcDbEntity
  8
LEVEL001
  6
Continuous
 62
     6
370
    15
100
AcDbLine
 10
381.00000000011
 20
1030.5240488651
 30
0.0
 11
381.00000000011
 21
1059.5240488651
 31
0.0
  0
CIRCLE
  5
2EE
330
A
100
AcDbEntity
  8
LEVEL001
  6
Continuous
 62
     6
370
    15
100
AcDbCircle
 10
343.00000000011
 20
1057.5240488651
 30
0.0
 40
0.8
  0
CIRCLE
  5
2EF
330
A
100
AcDbEntity
  8
LEVEL001
  6
Continuous
 62
     6
370
    15
100
AcDbCircle
 10
381.00000000011
 20
1057.5240488651
 30
0.0
 40
0.8
  0
TEXT
  5
2F0
330
A
100
AcDbEntity
  8
LEVEL001
 62
     6
370
    15
100
AcDbText
 10
355.00000000011
 20
1059.5240488651
 30
0.0
 40
8.0
  1
３８
 41
0.8
100
AcDbText
  0
LINE
  5
2F1
330
A
100
AcDbEntity
  8
LEVEL001
  6
Continuous
 62
     6
370
    15
100
AcDbLine
 10
337.00000000011
 20
1087.5240488651
 30
0.0
 11
387.00000000011
 21
1087.5240488651
 31
0.0
  0
LINE
  5
2F2
330
A
100
AcDbEntity
  8
LEVEL001
  6
Continuous
 62
     6
370
    15
100
AcDbLine
 10
337.00000000011
 20
1025.6868213658
 30
0.0
 11
337.00000000011
 21
1089.5240488651
 31
0.0
  0
LINE
  5
2F3
330
A
100
AcDbEntity
  8
LEVEL001
  6
Continuous
 62
     6
370
    15
100
AcDbLine
 10
387.00000000011
 20
1025.6868213658
 30
0.0
 11
387.00000000011
 21
1089.5240488651
 31
0.0
  0
CIRCLE
  5
2F4
330
A
100
AcDbEntity
  8
LEVEL001
  6
Continuous
 62
     6
370
    15
100
AcDbCircle
 10
337.00000000011
 20
1087.5240488651
 30
0.0
 40
0.8
  0
CIRCLE
  5
2F5
330
A
100
AcDbEntity
  8
LEVEL001
  6
Continuous
 62
     6
370
    15
100
AcDbCircle
 10
387.00000000011
 20
1087.5240488651
 30
0.0
 40
0.8
  0
TEXT
  5
2F6
330
A
100
AcDbEntity
  8
LEVEL001
 62
     6
370
    15
100
AcDbText
 10
355.00000000011
 20
1089.5240488651
 30
0.0
 40
8.0
  1
５０
 41
0.8
100
AcDbText
  0
LINE
  5
2F7
330
A
100
AcDbEntity
  8
LEVEL001
  6
Continuous
 62
     6
370
    15
100
AcDbLine
 10
537.00000000011
 20
1057.5240488651
 30
0.0
 11
587.00000000011
 21
1057.5240488651
 31
0.0
  0
LINE
  5
2F8
330
A
100
AcDbEntity
  8
LEVEL001
  6
Continuous
 62
     6
370
    15
100
AcDbLine
 10
537.00000000011
 20
1026.5240488651
 30
0.0
 11
537.00000000011
 21
1059.5240488651
 31
0.0
  0
LINE
  5
2F9
330
A
100
AcDbEntity
  8
LEVEL001
  6
Continuous
 62
     6
370
    15
100
AcDbLine
 10
587.00000000011
 20
1026.5240488651
 30
0.0
 11
587.00000000011
 21
1059.5240488651
 31
0.0
  0
CIRCLE
  5
2FA
330
A
100
AcDbEntity
  8
LEVEL001
  6
Continuous
 62
     6
370
    15
100
AcDbCircle
 10
537.00000000011
 20
1057.5240488651
 30
0.0
 40
0.8
  0
CIRCLE
  5
2FB
330
A
100
AcDbEntity
  8
LEVEL001
  6
Continuous
 62
     6
370
    15
100
AcDbCircle
 10
587.00000000011
 20
1057.5240488651
 30
0.0
 40
0.8
  0
TEXT
  5
2FC
330
A
100
AcDbEntity
  8
LEVEL001
 62
     6
370
    15
100
AcDbText
 10
555.00000000011
 20
1059.5240488651
 30
0.0
 40
8.0
  1
５０
 41
0.8
100
AcDbText
  0
LINE
  5
2FD
330
A
100
AcDbEntity
  8
LEVEL001
  6
Continuous
 62
     6
370
    15
100
AcDbLine
 10
532.00113718438
 20
1087.5240488651
 30
0.0
 11
591.9988628158299
 21
1087.5240488651
 31
0.0
  0
LINE
  5
2FE
330
A
100
AcDbEntity
  8
LEVEL001
  6
Continuous
 62
     6
370
    15
100
AcDbLine
 10
532.00113718438
 20
1025.6868213658
 30
0.0
 11
532.00113718438
 21
1089.5240488651
 31
0.0
  0
LINE
  5
2FF
330
A
100
AcDbEntity
  8
LEVEL001
  6
Continuous
 62
     6
370
    15
100
AcDbLine
 10
591.9988628158299
 20
1025.6868213658
 30
0.0
 11
591.9988628158299
 21
1089.5240488651
 31
0.0
  0
CIRCLE
  5
300
330
A
100
AcDbEntity
  8
LEVEL001
  6
Continuous
 62
     6
370
    15
100
AcDbCircle
 10
532.00113718438
 20
1087.5240488651
 30
0.0
 40
0.8
  0
CIRCLE
  5
301
330
A
100
AcDbEntity
  8
LEVEL001
  6
Continuous
 62
     6
370
    15
100
AcDbCircle
 10
591.9988628158299
 20
1087.5240488651
 30
0.0
 40
0.8
  0
TEXT
  5
302
330
A
100
AcDbEntity
  8
LEVEL001
 62
     6
370
    15
100
AcDbText
 10
555.0000000001
 20
1089.5240488651
 30
0.0
 40
8.0
  1
６０
 41
0.8
100
AcDbText
  0
LINE
  5
303
330
A
100
AcDbEntity
  8
LEVEL001
  6
Continuous
 62
     6
370
    15
100
AcDbLine
 10
375.00000000011
 20
982.5240488651401
 30
0.0
 11
391.27814484788
 21
982.5240488651401
 31
0.0
  0
LINE
  5
304
330
A
100
AcDbEntity
  8
LEVEL001
  6
Continuous
 62
     6
370
    15
100
AcDbLine
 10
375.00000000011
 20
1005.5240488651
 30
0.0
 11
375.00000000011
 21
980.5240488651399
 31
0.0
  0
LINE
  5
305
330
A
100
AcDbEntity
  8
LEVEL001
  6
Continuous
 62
     6
370
    15
100
AcDbLine
 10
381.00000000011
 20
1009.5240488651
 30
0.0
 11
381.00000000011
 21
980.5240488651399
 31
0.0
  0
CIRCLE
  5
306
330
A
100
AcDbEntity
  8
LEVEL001
  6
Continuous
 62
     6
370
    15
100
AcDbCircle
 10
375.00000000011
 20
982.5240488651401
 30
0.0
 40
0.8
  0
CIRCLE
  5
307
330
A
100
AcDbEntity
  8
LEVEL001
  6
Continuous
 62
     6
370
    15
100
AcDbCircle
 10
381.00000000011
 20
982.5240488651401
 30
0.0
 40
0.8
  0
TEXT
  5
308
330
A
100
AcDbEntity
  8
LEVEL001
 62
     6
370
    15
100
AcDbText
 10
383.27814484788
 20
984.52404886514
 30
0.0
 40
8.0
  1
６
 41
0.8
100
AcDbText
  0
LINE
  5
309
330
A
100
AcDbEntity
  8
LEVEL001
  6
Continuous
 62
     6
370
    15
100
AcDbLine
 10
578.00000000011
 20
982.5240488651401
 30
0.0
 11
596.0300391317
 21
982.5240488651401
 31
0.0
  0
LINE
  5
30A
330
A
100
AcDbEntity
  8
LEVEL001
  6
Continuous
 62
     6
370
    15
100
AcDbLine
 10
578.00000000011
 20
1005.5240488651
 30
0.0
 11
578.00000000011
 21
980.5240488651399
 31
0.0
  0
LINE
  5
30B
330
A
100
AcDbEntity
  8
LEVEL001
  6
Continuous
 62
     6
370
    15
100
AcDbLine
 10
587.00000000011
 20
1009.5240488651
 30
0.0
 11
587.00000000011
 21
980.5240488651399
 31
0.0
  0
CIRCLE
  5
30C
330
A
100
AcDbEntity
  8
LEVEL001
  6
Continuous
 62
     6
370
    15
100
AcDbCircle
 10
578.00000000011
 20
982.5240488651401
 30
0.0
 40
0.8
  0
CIRCLE
  5
30D
330
A
100
AcDbEntity
  8
LEVEL001
  6
Continuous
 62
     6
370
    15
100
AcDbCircle
 10
587.00000000011
 20
982.5240488651401
 30
0.0
 40
0.8
  0
TEXT
  5
30E
330
A
100
AcDbEntity
  8
LEVEL001
 62
     6
370
    15
100
AcDbText
 10
588.0300391317
 20
984.52404886514
 30
0.0
 40
8.0
  1
９
 41
0.8
100
AcDbText
  0
LINE
  5
30F
330
A
100
AcDbEntity
  8
LEVEL001
  6
Continuous
 62
     6
370
    15
100
AcDbLine
 10
202.0000000001
 20
1033.8049497456
 30
0.0
 11
202.0000000001
 21
1016.5240488651
 31
0.0
  0
LINE
  5
310
330
A
100
AcDbEntity
  8
LEVEL001
  6
Continuous
 62
     6
370
    15
100
AcDbLine
 10
182.0000000001
 20
1022.5240488651
 30
0.0
 11
204.0000000001
 21
1022.5240488651
 31
0.0
  0
LINE
  5
311
330
A
100
AcDbEntity
  8
LEVEL001
  6
Continuous
 62
     6
370
    15
100
AcDbLine
 10
182.0000000001
 20
1016.5240488651
 30
0.0
 11
204.0000000001
 21
1016.5240488651
 31
0.0
  0
CIRCLE
  5
312
330
A
100
AcDbEntity
  8
LEVEL001
  6
Continuous
 62
     6
370
    15
100
AcDbCircle
 10
202.0000000001
 20
1022.5240488651
 30
0.0
 40
0.8
  0
CIRCLE
  5
313
330
A
100
AcDbEntity
  8
LEVEL001
  6
Continuous
 62
     6
370
    15
100
AcDbCircle
 10
202.0000000001
 20
1016.5240488651
 30
0.0
 40
0.8
  0
TEXT
  5
314
330
A
100
AcDbEntity
  8
LEVEL001
 62
     6
370
    15
100
AcDbText
 10
200.0000000001
 20
1025.8049497456
 30
0.0
 40
8.0
  1
６
 50
90.0
 41
0.8
100
AcDbText
  0
LINE
  5
315
330
A
100
AcDbEntity
  8
LEVEL001
  6
Continuous
 62
     6
370
    15
100
AcDbLine
 10
407.0000000001099
 20
1034.5517521945
 30
0.0
 11
407.0000000001099
 21
1013.5240488651
 31
0.0
  0
LINE
  5
316
330
A
100
AcDbEntity
  8
LEVEL001
  6
Continuous
 62
     6
370
    15
100
AcDbLine
 10
385.00000000011
 20
1022.5240488651
 30
0.0
 11
409.00000000011
 21
1022.5240488651
 31
0.0
  0
LINE
  5
317
330
A
100
AcDbEntity
  8
LEVEL001
  6
Continuous
 62
     6
370
    15
100
AcDbLine
 10
385.00000000011
 20
1013.5240488651
 30
0.0
 11
409.00000000011
 21
1013.5240488651
 31
0.0
  0
CIRCLE
  5
318
330
A
100
AcDbEntity
  8
LEVEL001
  6
Continuous
 62
     6
370
    15
100
AcDbCircle
 10
407.0000000001099
 20
1022.5240488651
 30
0.0
 40
0.8
  0
CIRCLE
  5
319
330
A
100
AcDbEntity
  8
LEVEL001
  6
Continuous
 62
     6
370
    15
100
AcDbCircle
 10
407.0000000001099
 20
1013.5240488651
 30
0.0
 40
0.8
  0
TEXT
  5
31A
330
A
100
AcDbEntity
  8
LEVEL001
 62
     6
370
    15
100
AcDbText
 10
405.00000000011
 20
1026.5517521945
 30
0.0
 40
8.0
  1
９
 50
90.0
 41
0.8
100
AcDbText
  0
LINE
  5
31B
330
A
100
AcDbEntity
  8
LEVEL001
  6
Continuous
 62
     6
370
    15
100
AcDbLine
 10
611.9988628158299
 20
1013.5240488651
 30
0.0
 11
611.9988628158299
 21
1035.3198918563
 31
0.0
  0
LINE
  5
31C
330
A
100
AcDbEntity
  8
LEVEL001
  6
Continuous
 62
     6
370
    15
100
AcDbLine
 10
591.00000000011
 20
1013.5240488651
 30
0.0
 11
613.9988628158299
 21
1013.5240488651
 31
0.0
  0
LINE
  5
31D
330
A
100
AcDbEntity
  8
LEVEL001
  6
Continuous
 62
     6
370
    15
100
AcDbLine
 10
591.00000000011
 20
1022.5240488651
 30
0.0
 11
613.9988628158299
 21
1022.5240488651
 31
0.0
  0
CIRCLE
  5
31E
330
A
100
AcDbEntity
  8
LEVEL001
  6
Continuous
 62
     6
370
    15
100
AcDbCircle
 10
611.9988628158299
 20
1013.5240488651
 30
0.0
 40
0.8
  0
CIRCLE
  5
31F
330
A
100
AcDbEntity
  8
LEVEL001
  6
Continuous
 62
     6
370
    15
100
AcDbCircle
 10
611.9988628158299
 20
1022.5240488651
 30
0.0
 40
0.8
  0
TEXT
  5
320
330
A
100
AcDbEntity
  8
LEVEL001
 62
     6
370
    15
100
AcDbText
 10
609.99886281583
 20
1027.3198918563
 30
0.0
 40
8.0
  1
９
 50
90.0
 41
0.8
100
AcDbText
  0
LWPOLYLINE
  5
321
330
A
100
AcDbEntity
  8
LEVEL001
  6
Continuous
 62
     6
370
    15
100
AcDbPolyline
 90
        3
 70
     0
 43
0.0
 10
954.70786691859
 20
629.5689687687
 10
989.1639094313701
 20
663.28709933789
 10
1029.1639094314
 20
663.28709933789
  0
LWPOLYLINE
  5
326
330
A
100
AcDbEntity
  8
LEVEL001
  6
Continuous
 62
     6
370
    15
100
AcDbPolyline
 90
        4
 70
     0
 43
0.0
 10
961.41221744163
 20
634.15607255303
 10
954.70786691859
 20
629.5689687687
 10
959.4390137384799
 20
636.17245927241
 10
961.41221744163
 20
634.15607255303
  0
TEXT
  5
32C
330
A
100
AcDbEntity
  8
LEVEL001
 62
     6
370
    15
100
AcDbText
 10
989.1639094313701
 20
665.28709933789
 30
0.0
 40
8.0
  1
(別途)熔接
 41
0.8
100
AcDbText
  0
LINE
  5
32D
330
A
100
AcDbEntity
  8
LEVEL001
  6
Continuous
 62
     6
370
    15
100
AcDbLine
 10
955.6591257333201
 20
604.3483832076799
 30
0.0
 11
1002.7662411685
 21
604.3483832076799
 31
0.0
  0
LINE
  5
32E
330
A
100
AcDbEntity
  8
LEVEL001
  6
Continuous
 62
     6
370
    15
100
AcDbLine
 10
955.6591257333201
 20
625.0331983468099
 30
0.0
 11
955.6591257333201
 21
600.3483832076799
 31
0.0
  0
LINE
  5
32F
330
A
100
AcDbEntity
  8
LEVEL001
  6
Continuous
 62
     6
370
    15
100
AcDbLine
 10
965.65912573332
 20
625.0331983468099
 30
0.0
 11
965.65912573332
 21
600.3483832076799
 31
0.0
  0
CIRCLE
  5
330
330
A
100
AcDbEntity
  8
LEVEL001
  6
Continuous
 62
     6
370
    15
100
AcDbCircle
 10
955.6591257333201
 20
604.3483832076799
 30
0.0
 40
0.8
  0
CIRCLE
  5
331
330
A
100
AcDbEntity
  8
LEVEL001
  6
Continuous
 62
     6
370
    15
100
AcDbCircle
 10
965.65912573332
 20
604.3483832076799
 30
0.0
 40
0.8
  0
TEXT
  5
332
330
A
100
AcDbEntity
  8
LEVEL001
 62
     6
370
    15
100
AcDbText
 10
967.7662411684501
 20
608.4451280703899
 30
0.0
 40
8.0
  1
１０m/m以上
 41
0.8
100
AcDbText
  0
LINE
  5
333
330
A
100
AcDbEntity
  8
LEVEL001
  6
Continuous
 62
     6
370
    15
100
AcDbLine
 10
960.7240357346499
 20
461.39028261026
 30
0.0
 11
1071.6819758475
 21
425.89236090057
 31
0.0
  0
LWPOLYLINE
  5
334
330
A
100
AcDbEntity
  8
LEVEL001
  6
Continuous
 62
     6
370
    15
100
AcDbPolyline
 90
        4
 70
     0
 43
0.0
 10
967.91377390382
 20
457.60907881744
 10
960.7240357346499
 20
461.39028261026
 10
968.77342750077
 20
460.29614858755
 10
967.91377390382
 20
457.60907881744
  0
TEXT
  5
33A
330
A
100
AcDbEntity
  8
LEVEL001
 62
     6
370
    15
100
AcDbText
 10
1071.6819758475
 20
427.22569423391
 30
0.0
 40
8.0
  1
段違い加工の時は各コーナーは
 41
0.8
100
AcDbText
  0
TEXT
  5
33B
330
A
100
AcDbEntity
  8
LEVEL001
 62
     6
370
    15
100
AcDbText
 10
1071.6819758475
 20
416.5590275672399
 30
0.0
 40
8.0
  1
各部で必ずＲを取って下さい。
 41
0.8
100
AcDbText
  0
LINE
  5
33C
330
A
100
AcDbEntity
  8
LEVEL001
  6
Continuous
 62
     6
370
    15
100
AcDbLine
 10
972.4724924616101
 20
397.50535498907
 30
0.0
 11
1071.6819758475
 21
425.89236090057
 31
0.0
  0
LWPOLYLINE
  5
33D
330
A
100
AcDbEntity
  8
LEVEL001
  6
Continuous
 62
     6
370
    15
100
AcDbPolyline
 90
        4
 70
     0
 43
0.0
 10
980.55188451803
 20
398.34990283425
 10
972.4724924616101
 20
397.50535498907
 10
979.7757851824099
 20
401.0622851962099
 10
980.55188451803
 20
398.34990283425
  0
LINE
  5
343
330
A
100
AcDbEntity
  8
LEVEL001
  6
Continuous
 62
     6
370
    15
100
AcDbLine
 10
1037.2273108204
 20
390.62311028793
 30
0.0
 11
1071.6819758475
 21
425.89236090057
 31
0.0
  0
LWPOLYLINE
  5
344
330
A
100
AcDbEntity
  8
LEVEL001
  6
Continuous
 62
     6
370
    15
100
AcDbPolyline
 90
        4
 70
     0
 43
0.0
 10
1043.8267349068
 20
395.35992765747
 10
1037.2273108204
 20
390.62311028793
 10
1041.8086539802
 20
397.33139858798
 10
1043.8267349068
 20
395.35992765747
  0
LINE
  5
34A
330
A
100
AcDbEntity
  8
LEVEL001
  6
Continuous
 62
     6
370
    15
100
AcDbLine
 10
914.93994636836
 20
1067.9570999441
 30
0.0
 11
968.9399463683599
 21
1067.9570999441
 31
0.0
  0
LINE
  5
34B
330
A
100
AcDbEntity
  8
LEVEL001
  6
Continuous
 62
     6
370
    15
100
AcDbLine
 10
968.9399463683599
 20
1030.6246957922
 30
0.0
 11
968.9399463683599
 21
1071.9570999441
 31
0.0
  0
CIRCLE
  5
34C
330
A
100
AcDbEntity
  8
LEVEL001
  6
Continuous
 62
     6
370
    15
100
AcDbCircle
 10
914.93994636836
 20
1067.9570999441
 30
0.0
 40
0.8
  0
CIRCLE
  5
34D
330
A
100
AcDbEntity
  8
LEVEL001
  6
Continuous
 62
     6
370
    15
100
AcDbCircle
 10
968.9399463683599
 20
1067.9570999441
 30
0.0
 40
0.8
  0
TEXT
  5
34E
330
A
100
AcDbEntity
  8
LEVEL001
 62
     6
370
    15
100
AcDbText
 10
924.4399463683599
 20
1071.9570999441
 30
0.0
 40
8.0
  1
５０m/m以上
 41
0.8
100
AcDbText
  0
LINE
  5
34F
330
A
100
AcDbEntity
  8
LEVEL001
  6
Continuous
 62
     6
370
    15
100
AcDbLine
 10
989.4399463683699
 20
1001.3300600109
 30
0.0
 11
1041.0461902164
 21
1001.3300600109
 31
0.0
  0
LINE
  5
350
330
A
100
AcDbEntity
  8
LEVEL001
  6
Continuous
 62
     6
370
    15
100
AcDbLine
 10
1000.9399463684
 20
1019.7915558079
 30
0.0
 11
1000.9399463684
 21
997.33006001091
 31
0.0
  0
CIRCLE
  5
351
330
A
100
AcDbEntity
  8
LEVEL001
  6
Continuous
 62
     6
370
    15
100
AcDbCircle
 10
989.4399463683699
 20
1001.3300600109
 30
0.0
 40
0.8
  0
CIRCLE
  5
352
330
A
100
AcDbEntity
  8
LEVEL001
  6
Continuous
 62
     6
370
    15
100
AcDbCircle
 10
1000.9399463684
 20
1001.3300600109
 30
0.0
 40
0.8
  0
TEXT
  5
353
330
A
100
AcDbEntity
  8
LEVEL001
 62
     6
370
    15
100
AcDbText
 10
1006.0461902164
 20
1005.1707583197
 30
0.0
 40
8.0
  1
１０m/m以上
 41
0.8
100
AcDbText
  0
LWPOLYLINE
  5
354
330
A
100
AcDbEntity
  8
LEVEL001
  6
Continuous
 62
     6
370
    15
100
AcDbPolyline
 90
        3
 70
     0
 43
0.0
 10
994.14002545917
 20
1029.7915558079
 10
1014.8797963266
 20
1060.9012121091
 10
1070.8797963266
 20
1060.9012121091
  0
LWPOLYLINE
  5
359
330
A
100
AcDbEntity
  8
LEVEL001
  6
Continuous
 62
     6
370
    15
100
AcDbPolyline
 90
        4
 70
     0
 43
0.0
 10
999.75133035856
 20
1035.6654892763
 10
994.14002545917
 20
1029.7915558079
 10
997.4039236993901
 20
1037.230427049
 10
999.75133035856
 20
1035.6654892763
  0
TEXT
  5
35F
330
A
100
AcDbEntity
  8
LEVEL001
 62
     6
370
    15
100
AcDbText
 10
1014.8797963266
 20
1064.9012121091
 30
0.0
 40
8.0
  1
(別途)フラットバー
 41
0.8
100
AcDbText
  0
LWPOLYLINE
  5
360
330
A
100
AcDbEntity
  8
LEVEL001
  6
Continuous
 62
     6
370
    15
100
AcDbPolyline
 90
        3
 70
     0
 43
0.0
 10
963.60689785716
 20
950.00891494292
 10
982.55080082446
 20
917.2213905764399
 10
1062.5508008245
 20
917.2213905764399
  0
LWPOLYLINE
  5
365
330
A
100
AcDbEntity
  8
LEVEL001
  6
Continuous
 62
     6
370
    15
100
AcDbPolyline
 90
        4
 70
     0
 43
0.0
 10
966.3877156476299
 20
942.37629485017
 10
963.60689785716
 20
950.00891494292
 10
968.8305216326899
 20
943.7876938637499
 10
966.3877156476299
 20
942.37629485017
  0
TEXT
  5
36B
330
A
100
AcDbEntity
  8
LEVEL001
 62
     6
370
    15
100
AcDbText
 10
982.55080082446
 20
919.2213905764399
 30
0.0
 40
8.0
  1
(別途)持出ブラケット
 41
0.8
100
AcDbText
  0
LWPOLYLINE
  5
36C
330
A
100
AcDbEntity
  8
LEVEL001
  6
Continuous
 62
     6
370
    15
100
AcDbPolyline
 90
        3
 70
     0
 43
0.0
 10
947.6675759228999
 20
806.13035571163
 10
968.4073467903301
 20
837.24001201277
 10
1024.4073467903
 20
837.24001201277
  0
LWPOLYLINE
  5
371
330
A
100
AcDbEntity
  8
LEVEL001
  6
Continuous
 62
     6
370
    15
100
AcDbPolyline
 90
        4
 70
     0
 43
0.0
 10
953.27888082228
 20
812.00428917994
 10
947.6675759228999
 20
806.13035571163
 10
950.9314741631099
 20
813.5692269527199
 10
953.27888082228
 20
812.00428917994
  0
TEXT
  5
377
330
A
100
AcDbEntity
  8
LEVEL001
 62
     6
370
    15
100
AcDbText
 10
968.4073467903301
 20
841.2400120127699
 30
0.0
 40
8.0
  1
(別途)フラットバー
 41
0.8
100
AcDbText
  0
LINE
  5
378
330
A
100
AcDbEntity
  8
LEVEL001
  6
Continuous
 62
     6
370
    15
100
AcDbLine
 10
1007.6765607215
 20
803.2402300813
 30
0.0
 11
1108.4122096274
 21
803.2402300813
 31
0.0
  0
CIRCLE
  5
379
330
A
100
AcDbEntity
  8
LEVEL001
  6
Continuous
 62
     6
370
    15
100
AcDbCircle
 10
1007.6765607215
 20
803.2402300813
 30
0.0
 40
0.8
  0
CIRCLE
  5
37A
330
A
100
AcDbEntity
  8
LEVEL001
  6
Continuous
 62
     6
370
    15
100
AcDbCircle
 10
1057.6765607215
 20
803.2402300813
 30
0.0
 40
0.8
  0
TEXT
  5
37B
330
A
100
AcDbEntity
  8
LEVEL001
 62
     6
370
    15
100
AcDbText
 10
1064.4122096274
 20
807.2402300812999
 30
0.0
 40
8.0
  1
５０m/m以上
 41
0.8
100
AcDbText
  0
LINE
  5
37C
330
A
100
AcDbEntity
  8
LEVEL001
  6
Continuous
 62
     6
370
    15
100
AcDbLine
 10
890.3223819943642
 20
322.41754729809
 30
0.0
 11
1013.3403218028
 21
322.41754729809
 31
0.0
  0
LINE
  5
37D
330
A
100
AcDbEntity
  8
LEVEL001
  6
Continuous
 62
     6
370
    15
100
AcDbLine
 10
963.8078418981899
 20
379.35612994185
 30
0.0
 11
963.8078418981899
 21
318.41754729809
 31
0.0
  0
LINE
  5
37E
330
A
100
AcDbEntity
  8
LEVEL001
  6
Continuous
 62
     6
370
    15
100
AcDbLine
 10
1013.3403218028
 20
379.3561299419
 30
0.0
 11
1013.3403218028
 21
318.41754729809
 31
0.0
  0
CIRCLE
  5
37F
330
A
100
AcDbEntity
  8
LEVEL001
  6
Continuous
 62
     6
370
    15
100
AcDbCircle
 10
963.8078418981899
 20
322.41754729809
 30
0.0
 40
0.8
  0
CIRCLE
  5
380
330
A
100
AcDbEntity
  8
LEVEL001
  6
Continuous
 62
     6
370
    15
100
AcDbCircle
 10
1013.3403218028
 20
322.41754729809
 30
0.0
 40
0.8
  0
TEXT
  5
381
330
A
100
AcDbEntity
  8
LEVEL001
 62
     6
370
    15
100
AcDbText
 10
890.6473966365453
 20
327.02638526863
 30
0.0
 40
8.0
  1
直線部５０m/m以上
 41
0.8
100
AcDbText
  0
LINE
  5
382
330
A
100
AcDbEntity
  8
LEVEL001
  6
Continuous
 62
     6
370
    15
100
AcDbLine
 10
998.11126602146
 20
532.8539042685674
 30
0.0
 11
998.11126602146
 21
398.85612994184
 31
0.0
  0
LINE
  5
383
330
A
100
AcDbEntity
  8
LEVEL001
  6
Continuous
 62
     6
370
    15
100
AcDbLine
 10
953.9050770173899
 20
453.3561299418599
 30
0.0
 11
1002.1112660215
 21
453.3561299418599
 31
0.0
  0
LINE
  5
384
330
A
100
AcDbEntity
  8
LEVEL001
  6
Continuous
 62
     6
370
    15
100
AcDbLine
 10
953.9050770173899
 20
398.85612994184
 30
0.0
 11
1002.1112660215
 21
398.85612994184
 31
0.0
  0
CIRCLE
  5
385
330
A
100
AcDbEntity
  8
LEVEL001
  6
Continuous
 62
     6
370
    15
100
AcDbCircle
 10
998.11126602146
 20
453.3561299418599
 30
0.0
 40
0.8
  0
CIRCLE
  5
386
330
A
100
AcDbEntity
  8
LEVEL001
  6
Continuous
 62
     6
370
    15
100
AcDbCircle
 10
998.11126602146
 20
398.85612994184
 30
0.0
 40
0.8
  0
TEXT
  5
387
330
A
100
AcDbEntity
  8
LEVEL001
 62
     6
370
    15
100
AcDbText
 10
993.8864978817999
 20
461.54684353378
 30
0.0
 40
8.0
  1
直線部５０m/m以上
 50
90.0
 41
0.8
100
AcDbText
  0
LINE
  5
388
330
A
100
AcDbEntity
  8
LEVEL001
  6
Continuous
 62
     6
370
    15
100
AcDbLine
 10
1013.3403218028
 20
358.85612994189
 30
0.0
 11
1024.8097820568
 21
401.6607383452999
 31
0.0
  0
LWPOLYLINE
  5
389
330
A
100
AcDbEntity
  8
LEVEL001
  6
Continuous
 62
     6
370
    15
100
AcDbPolyline
 90
        4
 70
     0
 43
0.0
 10
1021.949805342
 20
385.53695883181
 10
1018.5167027049
 20
378.17464646767
 10
1019.2247047894
 20
386.26714732417
 10
1021.949805342
 20
385.53695883181
  0
TEXT
  5
38F
330
A
100
AcDbEntity
  8
LEVEL001
 62
     6
370
    15
100
AcDbText
 10
1019.6906630024
 20
394.75019271862
 30
0.0
 40
8.0
  1
Ｒ
 50
75.000000000026
 41
0.8
100
AcDbText
  0
LINE
  5
390
330
A
100
AcDbEntity
  8
LEVEL001
  6
Continuous
 62
     6
370
    15
100
AcDbLine
 10
965.4050770173899
 20
398.85612994184
 30
0.0
 11
935.89048092464
 21
369.34153384906
 31
0.0
  0
LWPOLYLINE
  5
391
330
A
100
AcDbEntity
  8
LEVEL001
  6
Continuous
 62
     6
370
    15
100
AcDbPolyline
 90
        4
 70
     0
 43
0.0
 10
944.60863111406
 20
380.05459609873
 10
951.26294139367
 20
384.7139943181
 10
946.6035431743
 20
378.05968403849
 10
944.60863111406
 20
380.05459609873
  0
TEXT
  5
397
330
A
100
AcDbEntity
  8
LEVEL001
 62
     6
370
    15
100
AcDbText
 10
934.0619350789099
 20
371.1700796948
 30
0.0
 40
8.0
  1
Ｒ
 50
45.000000000028
 41
0.8
100
AcDbText
  0
LINE
  5
398
330
A
100
AcDbEntity
  8
LEVEL001
  6
Continuous
 62
     6
370
    15
100
AcDbLine
 10
925.40507701739
 20
448.8561299418599
 30
0.0
 11
955.1631516591699
 21
478.6142045836299
 31
0.0
  0
LWPOLYLINE
  5
399
330
A
100
AcDbEntity
  8
LEVEL001
  6
Continuous
 62
     6
370
    15
100
AcDbPolyline
 90
        4
 70
     0
 43
0.0
 10
946.20152292074
 20
467.6576637849599
 10
939.5472126411201
 20
462.99826556559
 10
944.2066108604999
 20
469.6525758452
 10
946.20152292074
 20
467.6576637849599
  0
TEXT
  5
39F
330
A
100
AcDbEntity
  8
LEVEL001
 62
     6
370
    15
100
AcDbText
 10
948.16832560772
 20
474.29532213609
 30
0.0
 40
8.0
  1
Ｒ
 50
45.0
 41
0.8
100
AcDbText
  0
LWPOLYLINE
  5
3A0
330
A
100
AcDbEntity
  8
LEVEL001
  6
Continuous
 62
     6
370
    15
100
AcDbPolyline
 90
        3
 70
     0
 43
0.0
 10
585.5580553961999
 20
1020.2454991817
 10
601.11288354677
 20
1049.0507364975
 10
682.11288354677
 20
1049.0507364975
  0
CIRCLE
  5
3A5
330
A
100
AcDbEntity
  8
LEVEL001
  6
Continuous
 62
     8
100
AcDbCircle
 10
585.5580553961999
 20
1020.2454991817
 30
0.0
 40
0.8
  0
TEXT
  5
3A6
330
A
100
AcDbEntity
  8
LEVEL001
 62
     6
370
    15
100
AcDbText
 10
601.11288354677
 20
1053.0507364975
 30
0.0
 40
10.0
  1
(別途)ＦＢ(５０\U+00D7９)
 41
0.8
100
AcDbText
  0
LWPOLYLINE
  5
3A7
330
A
100
AcDbEntity
  8
LEVEL001
  6
Continuous
 62
     6
370
    15
100
AcDbPolyline
 90
        3
 70
     0
 43
0.0
 10
380.55919258048
 20
1020.2454991817
 10
396.11402073105
 20
1049.0507364975
 10
477.11402073105
 20
1049.0507364975
  0
CIRCLE
  5
3AC
330
A
100
AcDbEntity
  8
LEVEL001
  6
Continuous
 62
     8
100
AcDbCircle
 10
380.55919258048
 20
1020.2454991817
 30
0.0
 40
0.8
  0
TEXT
  5
3AD
330
A
100
AcDbEntity
  8
LEVEL001
 62
     6
370
    15
100
AcDbText
 10
396.11402073105
 20
1053.0507364975
 30
0.0
 40
10.0
  1
(別途)ＦＢ(３８\U+00D7９)
 41
0.8
100
AcDbText
  0
LWPOLYLINE
  5
3AE
330
A
100
AcDbEntity
  8
LEVEL001
  6
Continuous
 62
     6
370
    15
100
AcDbPolyline
 90
        3
 70
     0
 43
0.0
 10
175.55919258047
 20
1020.2454991817
 10
191.11402073104
 20
1049.0507364975
 10
272.11402073104
 20
1049.0507364975
  0
CIRCLE
  5
3B3
330
A
100
AcDbEntity
  8
LEVEL001
  6
Continuous
 62
     8
100
AcDbCircle
 10
175.55919258047
 20
1020.2454991817
 30
0.0
 40
0.8
  0
TEXT
  5
3B4
330
A
100
AcDbEntity
  8
LEVEL001
 62
     6
370
    15
100
AcDbText
 10
191.11402073104
 20
1053.0507364975
 30
0.0
 40
10.0
  1
(別途)ＦＢ(３２\U+00D7６)
 41
0.8
100
AcDbText
  0
TEXT
  5
425
330
A
100
AcDbEntity
  8
LEVEL001
 62
     8
100
AcDbText
 10
1487.4203382433
 20
135.33333333335
 30
0.0
 40
12.0
  1
平成３０年　７月１９日
 41
0.8
 72
     1
 11
1548.8603382433
 21
141.33333333335
 31
0.0
100
AcDbText
 73
     2
  0
HATCH
  5
55B
330
A
100
AcDbEntity
  8
LEVEL001
  6
Continuous
100
AcDbHatch
 10
0.0
 20
0.0
 30
0.0
210
0.0
220
0.0
230
1.0
  2
SOLID
 70
     1
 71
     1
 91
        9
 92
        7
 72
     0
 73
     1
 93
        6
 10
1297.8000000002
 20
1121.9
 10
1276.2000000002
 20
1121.9
 10
1250.6000000002
 20
1083.5
 10
1276.2000000002
 20
1045.1
 10
1297.8000000002
 20
1045.1
 10
1272.2000000002
 20
1083.5
 97
        4
330
136
330
131
330
13C
330
137
 92
        7
 72
     0
 73
     1
 93
        6
 10
1330.2000000002
 20
1121.9
 10
1308.6000000002
 20
1121.9
 10
1283.0000000002
 20
1083.5
 10
1308.6000000002
 20
1045.1
 10
1330.2000000002
 20
1045.1
 10
1304.6000000002
 20
1083.5
 97
        4
330
142
330
13D
330
148
330
143
 92
        7
 72
     0
 73
     1
 93
        3
 10
1333.4000000002
 20
1083.5
 10
1315.4000000002
 20
1083.5
 10
1333.4000000002
 20
1054.7
 97
        2
330
114
330
11B
 92
        7
 72
     1
 73
     1
 93
        6
 10
1376.6000000002
 20
1088.3
 42
0.0
 10
1347.8000000002
 20
1088.3
 42
0.0
 10
1347.8000000002
 20
1045.1
 42
0.0
 10
1362.2000000002
 20
1045.1
 42
0.0
 10
1362.2000000002
 20
1052.3
 42
0.0
 10
1376.6000000002
 20
1052.3
 42
1.0
 97
        3
330
AD
330
E4
330
E8
 92
       22
 72
     1
 73
     1
 93
        4
 10
1362.2000000002
 20
1073.9
 42
0.0
 10
1376.6000000002
 20
1073.9
 42
-1.0
 10
1376.6000000002
 20
1066.7
 42
0.0
 10
1362.2000000002
 20
1066.7
 42
0.0
 97
        4
330
ED
330
EC
330
EB
330
EA
 92
        7
 72
     0
 73
     1
 93
        4
 10
1434.2000000002
 20
1088.3
 10
1412.6000000002
 20
1088.3
 10
1383.8000000002
 20
1045.1
 10
1405.4000000002
 20
1045.1
 97
        2
330
BA
330
EE
 92
       23
 72
     0
 73
     1
 93
        3
 10
1429.4000000002
 20
1072.4466769389
 10
1411.1688820409
 20
1045.1
 10
1429.4000000002
 20
1045.1
 97
        2
330
D6
330
F2
 92
        7
 72
     0
 73
     1
 93
       22
 10
1484.6000000002
 20
1073.9
 10
1499.0000000002
 20
1073.9
 10
1499.0000000002
 20
1045.1
 10
1542.2000000002
 20
1045.1
 10
1542.2000000002
 20
1059.5
 10
1513.4000000002
 20
1059.5
 10
1513.4000000002
 20
1063.1
 10
1538.6000000002
 20
1063.1
 10
1538.6000000002
 20
1070.3
 10
1513.4000000002
 20
1070.3
 10
1513.4000000002
 20
1073.9
 10
1542.2000000002
 20
1073.9
 10
1542.2000000002
 20
1088.3
 10
1455.8000000002
 20
1088.3
 10
1455.8000000002
 20
1073.9
 10
1470.2000000002
 20
1073.9
 10
1470.2000000002
 20
1059.5
 10
1448.6000000002
 20
1059.5
 10
1448.6000000002
 20
1088.3
 10
1434.2000000002
 20
1088.3
 10
1434.2000000002
 20
1045.1
 10
1484.6000000002
 20
1045.1
 97
        3
330
BA
330
107
330
108
 92
        7
 72
     1
 73
     1
 93
        8
 10
1585.4000000002
 20
1059.5
 42
0.0
 10
1563.8000000002
 20
1059.5
 42
-1.0
 10
1563.8000000002
 20
1073.9
 42
0.0
 10
1585.4000000002
 20
1073.9
 42
0.0
 10
1585.4000000002
 20
1088.3
 42
0.0
 10
1563.8000000002
 20
1088.3
 42
1.0
 10
1563.8000000002
 20
1045.1
 42
0.0
 10
1585.4000000002
 20
1045.1
 42
0.0
 97
        7
330
10D
330
10E
330
10F
330
DE
330
112
330
10B
330
10C
 75
     1
 76
     1
 47
0.3598588891104348
 98
        9
 10
1269.357640038262
 20
1098.933476687145
 10
1294.926438107426
 20
1093.895451652079
 10
1326.977459114398
 20
1076.622226354984
 10
1353.626622082981
 20
1078.421520161725
 10
1353.626622082981
 20
1078.421520161725
 10
1409.530060758808
 20
1066.186316929456
 10
1424.295137160981
 20
1053.59125731203
 10
1449.143680783435
 20
1053.59125731203
 10
1573.485088546614
 20
1054.304750401025
1001
GradientColor1ACI
1070
     5
1001
GradientColor2ACI
1070
     2
1001
ACAD
1010
0.0
1020
0.0
1030
0.0
  0
ENDSEC
  0
SECTION
  2
OBJECTS
  0
DICTIONARY
  5
3C
330
0
100
AcDbDictionary
281
     1
  3
ACAD_CIP_PREVIOUS_PRODUCT_INFO
350
422
  3
ACAD_COLOR
350
3BA
  3
ACAD_GROUP
350
3D
  3
ACAD_LAYOUT
350
3BD
  3
ACAD_MATERIAL
350
3B9
  3
ACAD_MLEADERSTYLE
350
41D
  3
ACAD_MLINESTYLE
350
3E
  3
ACAD_PLOTSETTINGS
350
3BE
  3
ACAD_PLOTSTYLENAME
350
3B7
  3
ACAD_SCALELIST
350
40B
  3
ACAD_TABLESTYLE
350
3BB
  3
ACAD_VISUALSTYLE
350
3F2
  3
ACDB_RECOMPOSE_DATA
350
576
  3
AcDbVariableDictionary
350
3CF
  3
DWGPROPS
350
577
  0
DICTIONARY
  5
55C
330
38
100
AcDbDictionary
280
     1
281
     1
  3
ADSK_XREC_LAYER_RECONCILED
360
55D
  0
DICTIONARY
  5
55E
330
39
100
AcDbDictionary
280
     1
281
     1
  3
ADSK_XREC_LAYER_RECONCILED
360
55F
  0
DICTIONARY
  5
560
330
3A
100
AcDbDictionary
280
     1
281
     1
  3
ADSK_XREC_LAYER_RECONCILED
360
561
  0
DICTIONARY
  5
511
330
A
100
AcDbDictionary
280
     1
281
     1
  3
ACAD_SORTENTS
360
512
  0
XRECORD
  5
422
102
{ACAD_REACTORS
330
3C
102
}
330
3C
100
AcDbXrecord
280
     1
300
ACDLT
300
2012
300
ACDLT_F_S
  0
DICTIONARY
  5
3BA
102
{ACAD_REACTORS
330
3C
102
}
330
3C
100
AcDbDictionary
281
     1
  0
DICTIONARY
  5
3D
102
{ACAD_REACTORS
330
3C
102
}
330
0
100
AcDbDictionary
281
     1
  0
DICTIONARY
  5
3BD
102
{ACAD_REACTORS
330
3C
102
}
330
3C
100
AcDbDictionary
281
     1
  3
Model
350
3BF
  3
レイアウト1
350
3C0
  0
DICTIONARY
  5
3B9
102
{ACAD_REACTORS
330
3C
102
}
330
3C
100
AcDbDictionary
281
     1
  3
ByBlock
350
3E2
  3
ByLayer
350
3DA
  3
Global
350
3EA
  0
DICTIONARY
  5
41D
102
{ACAD_REACTORS
330
3C
102
}
330
3C
100
AcDbDictionary
281
     1
  3
Standard
350
41E
  0
DICTIONARY
  5
3E
102
{ACAD_REACTORS
330
3C
102
}
330
0
100
AcDbDictionary
281
     1
  3
STANDARD
350
3F
  0
DICTIONARY
  5
3BE
102
{ACAD_REACTORS
330
3C
102
}
330
3C
100
AcDbDictionary
281
     1
  0
ACDBDICTIONARYWDFLT
  5
3B7
102
{ACAD_REACTORS
330
3C
102
}
330
3C
100
AcDbDictionary
281
     1
  3
Normal
350
3B8
100
AcDbDictionaryWithDefault
340
3B8
  0
DICTIONARY
  5
40B
102
{ACAD_REACTORS
330
3C
102
}
330
3C
100
AcDbDictionary
281
     1
  3
A0
350
40C
  3
A1
350
40D
  3
A2
350
40E
  3
A3
350
40F
  3
A4
350
410
  3
A5
350
411
  3
A6
350
412
  3
A7
350
413
  3
A8
350
414
  3
A9
350
415
  3
B0
350
416
  3
B1
350
417
  3
B2
350
418
  3
B3
350
419
  3
B4
350
41A
  3
B5
350
41B
  3
B6
350
41C
  0
DICTIONARY
  5
3BB
102
{ACAD_REACTORS
330
3C
102
}
330
3C
100
AcDbDictionary
281
     1
  3
Standard
350
3BC
  0
DICTIONARY
  5
3F2
102
{ACAD_REACTORS
330
3C
102
}
330
3C
100
AcDbDictionary
281
     1
  3
2dWireframe
350
3F8
  3
Basic
350
3F7
  3
Brighten
350
3FE
  3
ColorChange
350
402
  3
Conceptual
350
3FB
  3
Dim
350
3FD
  3
EdgeColorOff
350
40A
  3
Facepattern
350
401
  3
Flat
350
3F3
  3
FlatWithEdges
350
3F4
  3
Gouraud
350
3F5
  3
GouraudWithEdges
350
3F6
  3
Hidden
350
3FA
  3
JitterOff
350
408
  3
Linepattern
350
400
  3
OverhangOff
350
409
  3
Realistic
350
3FC
  3
Shaded
350
407
  3
Shaded with edges
350
406
  3
Shades of Gray
350
403
  3
Sketchy
350
404
  3
Thicken
350
3FF
  3
Wireframe
350
3F9
  3
X-Ray
350
405
  0
XRECORD
  5
576
102
{ACAD_REACTORS
330
3C
102
}
330
3C
100
AcDbXrecord
280
     1
 90
        1
330
3BC
  0
DICTIONARY
  5
3CF
102
{ACAD_REACTORS
330
3C
102
}
330
3C
100
AcDbDictionary
281
     1
  3
CANNOSCALE
350
566
  3
CMLEADERSTYLE
350
564
  3
CTABLESTYLE
350
3D0
  3
DIMASSOC
350
3D7
  3
INDEXCTL
350
570
  3
LAYEREVAL
350
568
  3
LAYERNOTIFY
350
569
  3
LIGHTINGUNITS
350
567
  3
MSLTSCALE
350
565
  3
PROJECTNAME
350
3D8
  3
SORTENTS
350
56F
  3
XCLIPFRAME
350
571
  0
XRECORD
  5
577
102
{ACAD_REACTORS
330
3C
102
}
330
3C
100
AcDbXrecord
280
     1
  1
DWGPROPS COOKIE
  2

  3

  4

  6

  7

  8
kg-paltec
  9

300
=
301
=
302
=
303
=
304
=
305
=
306
=
307
=
308
=
309
=
 40
0.0812773032407408
 41
2451212.682759178
 42
2458321.580855035
  1

 90
        0
  0
XRECORD
  5
55D
102
{ACAD_REACTORS
330
55C
102
}
330
55C
100
AcDbXrecord
280
     1
290
     1
  0
XRECORD
  5
55F
102
{ACAD_REACTORS
330
55E
102
}
330
55E
100
AcDbXrecord
280
     1
290
     1
  0
XRECORD
  5
561
102
{ACAD_REACTORS
330
560
102
}
330
560
100
AcDbXrecord
280
     1
290
     1
  0
SORTENTSTABLE
  5
512
102
{ACAD_REACTORS
330
511
102
}
330
511
100
AcDbSortentsTable
330
A
331
37A
  5
383
331
2CD
  5
2D6
331
304
  5
30D
331
28E
  5
29D
331
343
  5
351
331
34B
  5
354
331
382
  5
390
331
2D5
  5
2DE
331
30C
  5
315
331
1D9
  5
1E2
331
210
  5
219
331
314
  5
31D
331
353
  5
377
331
29E
  5
2A7
331
2DD
  5
2E6
331
ED
  5
F3
331
19A
  5
1A3
331
257
  5
260
331
1A2
  5
1AB
331
1E1
  5
1EA
331
12C
  5
149
331
16B
  5
174
331
218
  5
221
331
31C
  5
32E
331
2A6
  5
2AF
331
F5
  5
FB
331
25F
  5
268
331
1AA
  5
1B3
331
1E9
  5
1F2
331
FD
  5
103
331
173
  5
17C
331
220
  5
229
331
228
  5
231
331
1B2
  5
1BB
331
267
  5
270
331
B6
  5
B9
331
13C
  5
14D
331
2E5
  5
2EE
331
26F
  5
278
331
2AE
  5
2B7
331
2B6
  5
2C4
331
2ED
  5
2F6
331
277
  5
280
331
32C
  5
33A
331
1F1
  5
1FA
331
230
  5
239
331
17B
  5
184
331
36B
  5
37D
331
105
  5
10B
331
1BA
  5
1C3
331
2F5
  5
2FE
331
27F
  5
288
331
334
  5
34C
331
1F9
  5
202
331
238
  5
241
331
14C
  5
155
331
183
  5
18C
331
33C
  5
34F
331
D6
  5
E6
331
287
  5
290
331
2C6
  5
2D4
331
2FD
  5
306
331
10D
  5
113
331
1C2
  5
1CB
331
1CA
  5
1D3
331
201
  5
20F
331
154
  5
169
331
DE
  5
E9
331
18B
  5
194
331
240
  5
249
331
248
  5
251
331
193
  5
19C
331
E6
  5
EC
331
11D
  5
142
331
1D2
  5
1DB
331
305
  5
30E
331
344
  5
352
331
28F
  5
29E
331
2CE
  5
2D7
331
37B
  5
384
331
383
  5
391
331
30D
  5
316
331
34C
  5
359
331
2D6
  5
2DF
331
211
  5
21A
331
250
  5
259
331
EE
  5
F4
331
19B
  5
1A4
331
1DA
  5
1E3
331
2DE
  5
2E7
331
315
  5
31E
331
29F
  5
2A8
331
354
  5
378
331
219
  5
222
331
258
  5
261
331
16C
  5
175
331
F6
  5
FC
331
1A3
  5
1AC
331
2A7
  5
2B0
331
31D
  5
32F
331
1E2
  5
1EB
331
1EA
  5
1F3
331
221
  5
22A
331
174
  5
17D
331
FE
  5
104
331
1AB
  5
1B4
331
260
  5
269
331
1B3
  5
1BC
331
13D
  5
14E
331
B7
  5
BA
331
229
  5
232
331
268
  5
271
331
2AF
  5
2B8
331
2E6
  5
2EF
331
270
  5
279
331
32D
  5
33B
331
278
  5
281
331
2B7
  5
2C5
331
2EE
  5
2F7
331
1BB
  5
1C4
331
1F2
  5
1FB
331
106
  5
10C
331
2F6
  5
2FF
331
280
  5
289
331
36C
  5
37E
331
17C
  5
185
331
231
  5
23A
331
239
  5
242
331
184
  5
18D
331
1C3
  5
1CC
331
3B3
  5
518
331
10E
  5
11A
331
2FE
  5
307
331
33D
  5
350
331
14D
  5
156
331
1FA
  5
203
331
202
  5
210
331
241
  5
24A
331
155
  5
16A
331
18C
  5
195
331
1CB
  5
1D4
331
20A
  5
213
331
249
  5
252
331
E7
  5
ED
331
194
  5
19D
331
1D3
  5
1DC
331
288
  5
291
331
37C
  5
385
331
2CF
  5
2D8
331
306
  5
30F
331
290
  5
29F
331
34D
  5
35F
331
384
  5
397
331
2D7
  5
2E0
331
30E
  5
317
331
1DB
  5
1E4
331
212
  5
21B
331
316
  5
31F
331
2A0
  5
2A9
331
2DF
  5
2E8
331
EF
  5
F5
331
19C
  5
1A5
331
251
  5
25A
331
259
  5
262
331
1A4
  5
1AD
331
1E3
  5
1EC
331
F7
  5
FD
331
31E
  5
330
331
16D
  5
176
331
21A
  5
223
331
222
  5
22B
331
261
  5
26A
331
1AC
  5
1B5
331
1EB
  5
1F4
331
FF
  5
105
331
136
  5
14B
331
175
  5
17E
331
22A
  5
233
331
1B4
  5
1BD
331
269
  5
272
331
2A8
  5
2B1
331
2E7
  5
2F0
331
326
  5
334
331
271
  5
27A
331
2B0
  5
2B9
331
365
  5
37C
331
B8
  5
D6
331
2B8
  5
2C6
331
2EF
  5
2F8
331
279
  5
282
331
32E
  5
33C
331
1F3
  5
1FC
331
232
  5
23B
331
17D
  5
186
331
2C0
  5
2CE
331
2F7
  5
300
331
3AC
  5
515
331
107
  5
10D
331
1BC
  5
1C5
331
281
  5
28A
331
1C4
  5
1CD
331
1FB
  5
204
331
14E
  5
157
331
185
  5
18E
331
23A
  5
243
331
2FF
  5
308
331
3B4
  5
519
331
10F
  5
11B
331
1CC
  5
1D5
331
203
  5
211
331
156
  5
16B
331
18D
  5
196
331
242
  5
24B
331
24A
  5
253
331
195
  5
19E
331
1D4
  5
1DD
331
20B
  5
214
331
289
  5
292
331
307
  5
310
331
291
  5
2A0
331
2D0
  5
2D9
331
37D
  5
386
331
385
  5
398
331
E8
  5
EE
331
2D8
  5
2E1
331
30F
  5
318
331
34E
  5
360
331
213
  5
21C
331
252
  5
25B
331
19D
  5
1A6
331
F0
  5
F6
331
317
  5
320
331
127
  5
148
331
1DC
  5
1E5
331
2A1
  5
2AA
331
21B
  5
224
331
25A
  5
263
331
16E
  5
177
331
F8
  5
FE
331
1A5
  5
1AE
331
31F
  5
331
331
1E4
  5
1ED
331
1EC
  5
1F5
331
223
  5
22C
331
137
  5
14C
331
176
  5
17F
331
1AD
  5
1B6
331
262
  5
26B
331
1B5
  5
1BE
331
22B
  5
234
331
2A9
  5
2B2
331
2E0
  5
2E9
331
26A
  5
273
331
272
  5
27B
331
2B1
  5
2BA
331
2E8
  5
2F1
331
100
  5
106
331
3A5
  5
510
331
32F
  5
33D
331
B9
  5
E4
331
27A
  5
283
331
2B9
  5
2CC
331
2F0
  5
2F9
331
233
  5
23C
331
1BD
  5
1C6
331
1F4
  5
1FD
331
2F8
  5
301
331
3AD
  5
516
331
108
  5
10E
331
282
  5
28B
331
2C1
  5
2CF
331
17E
  5
187
331
23B
  5
244
331
186
  5
18F
331
1C5
  5
1CE
331
110
  5
11C
331
14F
  5
158
331
1FC
  5
20A
331
204
  5
212
331
243
  5
24C
331
157
  5
16C
331
18E
  5
197
331
1CD
  5
1D6
331
1D5
  5
1DE
331
20C
  5
215
331
196
  5
19F
331
24B
  5
254
331
300
  5
309
331
28A
  5
294
331
55B
  5
B5
331
37E
  5
387
331
2D1
  5
2DA
331
308
  5
311
331
292
  5
2A1
331
34F
  5
365
331
386
  5
399
331
E9
  5
EF
331
29A
  5
2A3
331
2D9
  5
2E2
331
310
  5
319
331
1DD
  5
1E6
331
214
  5
21D
331
318
  5
321
331
2A2
  5
2AB
331
F1
  5
F7
331
19E
  5
1A7
331
253
  5
25C
331
25B
  5
264
331
1A6
  5
1AF
331
1E5
  5
1EE
331
F9
  5
FF
331
16F
  5
178
331
21C
  5
225
331
224
  5
22D
331
263
  5
26C
331
177
  5
180
331
1AE
  5
1B7
331
1ED
  5
1F6
331
22C
  5
235
331
1B6
  5
1BF
331
2E1
  5
2EA
331
320
  5
332
331
26B
  5
274
331
2AA
  5
2B3
331
2E9
  5
2F2
331
273
  5
27C
331
2B2
  5
2C0
331
35F
  5
37A
331
BA
  5
E5
331
3A6
  5
513
331
101
  5
107
331
2BA
  5
2CD
331
2F1
  5
2FA
331
27B
  5
284
331
330
  5
343
331
1F5
  5
1FE
331
234
  5
23D
331
148
  5
151
331
17F
  5
188
331
283
  5
28C
331
2C2
  5
2D0
331
2F9
  5
302
331
3AE
  5
517
331
109
  5
10F
331
1BE
  5
1C7
331
1C6
  5
1CF
331
1FD
  5
20B
331
111
  5
122
331
150
  5
159
331
377
  5
380
331
187
  5
190
331
23C
  5
245
331
244
  5
24D
331
1CE
  5
1D7
331
158
  5
16D
331
18F
  5
198
331
24C
  5
255
331
197
  5
1A0
331
1D6
  5
1DF
331
20D
  5
216
331
28B
  5
29A
331
301
  5
30A
331
309
  5
312
331
2D2
  5
2DB
331
37F
  5
388
331
387
  5
39F
331
EA
  5
F0
331
2DA
  5
2E3
331
311
  5
31A
331
29B
  5
2A4
331
350
  5
36B
331
215
  5
21E
331
254
  5
25D
331
38F
  5
3A6
331
F2
  5
F8
331
19F
  5
1A8
331
319
  5
326
331
1DE
  5
1E7
331
2A3
  5
2AC
331
1E6
  5
1EF
331
21D
  5
226
331
170
  5
179
331
1A7
  5
1B0
331
25C
  5
265
331
397
  5
3AD
331
FA
  5
100
331
131
  5
14A
331
1EE
  5
1F7
331
225
  5
22E
331
1AF
  5
1B8
331
264
  5
26D
331
1B7
  5
1C0
331
22D
  5
236
331
2AB
  5
2B4
331
2E2
  5
2EB
331
26C
  5
275
331
321
  5
333
331
360
  5
37B
331
274
  5
27D
331
2B3
  5
2C1
331
2EA
  5
2F3
331
39F
  5
3B4
331
3A7
  5
514
331
102
  5
108
331
2F2
  5
2FB
331
27C
  5
285
331
331
  5
344
331
178
  5
181
331
235
  5
23E
331
180
  5
189
331
1BF
  5
1C8
331
425
  5
51A
331
2FA
  5
303
331
10A
  5
110
331
149
  5
152
331
1F6
  5
1FF
331
284
  5
28D
331
2C3
  5
2D1
331
23D
  5
246
331
188
  5
191
331
1C7
  5
1D0
331
112
  5
127
331
151
  5
15A
331
1FE
  5
20C
331
245
  5
24E
331
159
  5
16E
331
190
  5
199
331
11A
  5
137
331
1CF
  5
1D8
331
1D7
  5
1E0
331
20E
  5
217
331
24D
  5
256
331
378
  5
381
331
302
  5
30B
331
28C
  5
29B
331
380
  5
389
331
294
  5
2A2
331
2D3
  5
2DC
331
30A
  5
313
331
122
  5
143
331
351
  5
36C
331
388
  5
3A0
331
EB
  5
F1
331
198
  5
1A1
331
29C
  5
2A5
331
2DB
  5
2E4
331
312
  5
31B
331
255
  5
25E
331
1DF
  5
1E8
331
216
  5
21F
331
169
  5
172
331
31A
  5
32C
331
2A4
  5
2AD
331
390
  5
3A7
331
F3
  5
F9
331
1A0
  5
1A9
331
25D
  5
266
331
1A8
  5
1B1
331
1E7
  5
1F0
331
FB
  5
101
331
AC
  5
AC
331
171
  5
17A
331
21E
  5
227
331
226
  5
22F
331
265
  5
26E
331
1B0
  5
1B9
331
1EF
  5
1F8
331
22E
  5
237
331
398
  5
3AE
331
2E3
  5
2EC
331
26D
  5
276
331
2AC
  5
2B5
331
359
  5
379
331
2EB
  5
2F4
331
3A0
  5
425
331
275
  5
27E
331
2B4
  5
2C2
331
179
  5
182
331
1B8
  5
1C1
331
103
  5
109
331
2F3
  5
2FC
331
27D
  5
286
331
332
  5
34A
331
142
  5
14F
331
1F7
  5
200
331
236
  5
23F
331
14A
  5
153
331
181
  5
18A
331
33A
  5
34D
331
371
  5
37F
331
285
  5
28E
331
2C4
  5
2D2
331
2FB
  5
304
331
10B
  5
111
331
1C0
  5
1C9
331
1C8
  5
1D1
331
1FF
  5
20D
331
113
  5
131
331
152
  5
15B
331
DC
  5
E7
331
189
  5
192
331
23E
  5
247
331
246
  5
24F
331
191
  5
19A
331
1D0
  5
1D9
331
11B
  5
13C
331
15A
  5
16F
331
E4
  5
EA
331
24E
  5
257
331
20F
  5
218
331
303
  5
30C
331
28D
  5
29C
331
2CC
  5
2D5
331
379
  5
382
331
30B
  5
314
331
34A
  5
353
331
2D4
  5
2DD
331
381
  5
38F
331
199
  5
1A2
331
1D8
  5
1E1
331
389
  5
3A5
331
EC
  5
F2
331
2DC
  5
2E5
331
313
  5
31C
331
29D
  5
2A6
331
352
  5
371
331
162
  5
171
331
217
  5
220
331
256
  5
25F
331
16A
  5
173
331
A5
  5
A5
331
391
  5
3AC
331
F4
  5
FA
331
1A1
  5
1AA
331
2A5
  5
2AE
331
31B
  5
32D
331
1E0
  5
1E9
331
1E8
  5
1F1
331
21F
  5
228
331
172
  5
17B
331
AD
  5
B7
331
FC
  5
102
331
1A9
  5
1B2
331
25E
  5
267
331
266
  5
26F
331
227
  5
230
331
B5
  5
B8
331
1B1
  5
1BA
331
22F
  5
238
331
2AD
  5
2B6
331
2E4
  5
2ED
331
399
  5
3B3
331
26E
  5
277
331
276
  5
27F
331
2B5
  5
2C3
331
2EC
  5
2F5
331
1B9
  5
1C2
331
1F0
  5
1F9
331
104
  5
10A
331
2F4
  5
2FD
331
27E
  5
287
331
333
  5
34B
331
143
  5
150
331
17A
  5
183
331
237
  5
240
331
182
  5
18B
331
1C1
  5
1CA
331
10C
  5
112
331
2FC
  5
305
331
33B
  5
34E
331
14B
  5
154
331
1F8
  5
201
331
286
  5
28F
331
2C5
  5
2D3
331
200
  5
20E
331
23F
  5
248
331
18A
  5
193
331
1C9
  5
1D2
331
DD
  5
E8
331
114
  5
136
331
153
  5
162
331
247
  5
250
331
15B
  5
170
331
192
  5
19B
331
E5
  5
EB
331
11C
  5
13D
331
1D1
  5
1DA
331
24F
  5
258
  0
LAYOUT
  5
3BF
102
{ACAD_XDICTIONARY
360
579
102
}
102
{ACAD_REACTORS
330
3BD
102
}
330
3BD
100
AcDbPlotSettings
  1

  2
クセロPDF2
  4

  6

 40
0.0
 41
0.0
 42
0.0
 43
0.0
 44
0.0
 45
0.0
 46
0.0
 47
0.0
 48
0.0
 49
0.0
140
0.0
141
0.0
142
1.0
143
1.0
 70
  1712
 72
     0
 73
     0
 74
     0
  7

 75
     0
147
1.0
148
0.0
149
0.0
100
AcDbLayout
  1
Model
 70
     1
 71
     0
 10
0.0
 20
0.0
 11
12.0
 21
9.0
 12
0.0
 22
0.0
 32
0.0
 14
0.0
 24
0.0
 34
0.0
 15
0.0
 25
0.0
 35
0.0
146
0.0
 13
0.0
 23
0.0
 33
0.0
 16
1.0
 26
0.0
 36
0.0
 17
0.0
 27
1.0
 37
0.0
 76
     0
330
A
331
3D1
  0
LAYOUT
  5
3C0
102
{ACAD_XDICTIONARY
360
57B
102
}
102
{ACAD_REACTORS
330
3BD
102
}
330
3BD
100
AcDbPlotSettings
  1

  2
クセロPDF2
  4

  6

 40
0.0
 41
0.0
 42
0.0
 43
0.0
 44
0.0
 45
0.0
 46
0.0
 47
0.0
 48
0.0
 49
0.0
140
0.0
141
0.0
142
1.0
143
1.0
 70
   688
 72
     0
 73
     0
 74
     5
  7

 75
    16
147
1.0
148
0.0
149
0.0
100
AcDbLayout
  1
レイアウト1
 70
     1
 71
     1
 10
0.0
 20
0.0
 11
12.0
 21
9.0
 12
0.0
 22
0.0
 32
0.0
 14
1.000000000000000E+20
 24
1.000000000000000E+20
 34
1.000000000000000E+20
 15
-1.000000000000000E+20
 25
-1.000000000000000E+20
 35
-1.000000000000000E+20
146
0.0
 13
0.0
 23
0.0
 33
0.0
 16
1.0
 26
0.0
 36
0.0
 17
0.0
 27
1.0
 37
0.0
 76
     0
330
B
  0
MATERIAL
  5
3E2
102
{ACAD_XDICTIONARY
360
3E3
102
}
102
{ACAD_REACTORS
330
3B9
102
}
330
3B9
100
AcDbMaterial
  1
ByBlock
 72
     0
 43
0.0208333333333333
 43
0.0
 43
0.0
 43
0.0
 43
0.0
 43
0.0208333333333333
 43
0.0
 43
0.0
 43
0.0
 43
0.0
 43
1.0
 43
0.0
 43
0.0
 43
0.0
 43
0.0
 43
1.0
 77
     0
 47
0.0208333333333333
 47
0.0
 47
0.0
 47
0.0
 47
0.0
 47
0.0208333333333333
 47
0.0
 47
0.0
 47
0.0
 47
0.0
 47
1.0
 47
0.0
 47
0.0
 47
0.0
 47
0.0
 47
1.0
171
     0
 49
0.0208333333333333
 49
0.0
 49
0.0
 49
0.0
 49
0.0
 49
0.0208333333333333
 49
0.0
 49
0.0
 49
0.0
 49
0.0
 49
1.0
 49
0.0
 49
0.0
 49
0.0
 49
0.0
 49
1.0
175
     0
142
0.0208333333333333
142
0.0
142
0.0
142
0.0
142
0.0
142
0.0208333333333333
142
0.0
142
0.0
142
0.0
142
0.0
142
1.0
142
0.0
142
0.0
142
0.0
142
0.0
142
1.0
179
     0
144
0.0208333333333333
144
0.0
144
0.0
144
0.0
144
0.0
144
0.0208333333333333
144
0.0
144
0.0
144
0.0
144
0.0
144
1.0
144
0.0
144
0.0
144
0.0
144
0.0
144
1.0
147
0.0208333333333333
147
0.0
147
0.0
147
0.0
147
0.0
147
0.0208333333333333
147
0.0
147
0.0
147
0.0
147
0.0
147
1.0
147
0.0
147
0.0
147
0.0
147
0.0
147
1.0
  0
MATERIAL
  5
3DA
102
{ACAD_XDICTIONARY
360
3DB
102
}
102
{ACAD_REACTORS
330
3B9
102
}
330
3B9
100
AcDbMaterial
  1
ByLayer
 72
     0
 43
0.0208333333333333
 43
0.0
 43
0.0
 43
0.0
 43
0.0
 43
0.0208333333333333
 43
0.0
 43
0.0
 43
0.0
 43
0.0
 43
1.0
 43
0.0
 43
0.0
 43
0.0
 43
0.0
 43
1.0
 77
     0
 47
0.0208333333333333
 47
0.0
 47
0.0
 47
0.0
 47
0.0
 47
0.0208333333333333
 47
0.0
 47
0.0
 47
0.0
 47
0.0
 47
1.0
 47
0.0
 47
0.0
 47
0.0
 47
0.0
 47
1.0
171
     0
 49
0.0208333333333333
 49
0.0
 49
0.0
 49
0.0
 49
0.0
 49
0.0208333333333333
 49
0.0
 49
0.0
 49
0.0
 49
0.0
 49
1.0
 49
0.0
 49
0.0
 49
0.0
 49
0.0
 49
1.0
175
     0
142
0.0208333333333333
142
0.0
142
0.0
142
0.0
142
0.0
142
0.0208333333333333
142
0.0
142
0.0
142
0.0
142
0.0
142
1.0
142
0.0
142
0.0
142
0.0
142
0.0
142
1.0
179
     0
144
0.0208333333333333
144
0.0
144
0.0
144
0.0
144
0.0
144
0.0208333333333333
144
0.0
144
0.0
144
0.0
144
0.0
144
1.0
144
0.0
144
0.0
144
0.0
144
0.0
144
1.0
147
0.0208333333333333
147
0.0
147
0.0
147
0.0
147
0.0
147
0.0208333333333333
147
0.0
147
0.0
147
0.0
147
0.0
147
1.0
147
0.0
147
0.0
147
0.0
147
0.0
147
1.0
  0
MATERIAL
  5
3EA
102
{ACAD_XDICTIONARY
360
3EB
102
}
102
{ACAD_REACTORS
330
3B9
102
}
330
3B9
100
AcDbMaterial
  1
Global
 72
     0
 43
0.0208333333333333
 43
0.0
 43
0.0
 43
0.0
 43
0.0
 43
0.0208333333333333
 43
0.0
 43
0.0
 43
0.0
 43
0.0
 43
1.0
 43
0.0
 43
0.0
 43
0.0
 43
0.0
 43
1.0
 77
     0
 47
0.0208333333333333
 47
0.0
 47
0.0
 47
0.0
 47
0.0
 47
0.0208333333333333
 47
0.0
 47
0.0
 47
0.0
 47
0.0
 47
1.0
 47
0.0
 47
0.0
 47
0.0
 47
0.0
 47
1.0
171
     0
 49
0.0208333333333333
 49
0.0
 49
0.0
 49
0.0
 49
0.0
 49
0.0208333333333333
 49
0.0
 49
0.0
 49
0.0
 49
0.0
 49
1.0
 49
0.0
 49
0.0
 49
0.0
 49
0.0
 49
1.0
175
     0
142
0.0208333333333333
142
0.0
142
0.0
142
0.0
142
0.0
142
0.0208333333333333
142
0.0
142
0.0
142
0.0
142
0.0
142
1.0
142
0.0
142
0.0
142
0.0
142
0.0
142
1.0
179
     0
144
0.0208333333333333
144
0.0
144
0.0
144
0.0
144
0.0
144
0.0208333333333333
144
0.0
144
0.0
144
0.0
144
0.0
144
1.0
144
0.0
144
0.0
144
0.0
144
0.0
144
1.0
147
0.0208333333333333
147
0.0
147
0.0
147
0.0
147
0.0
147
0.0208333333333333
147
0.0
147
0.0
147
0.0
147
0.0
147
1.0
147
0.0
147
0.0
147
0.0
147
0.0
147
1.0
  0
MLEADERSTYLE
  5
41E
102
{ACAD_XDICTIONARY
360
574
102
}
102
{ACAD_REACTORS
330
41D
102
}
330
41D
100
AcDbMLeaderStyle
170
     2
171
     1
172
     0
 90
        2
 40
0.0
 41
0.0
173
     1
 91
-1056964608
340
1D
 92
       -2
290
     1
 42
0.09
291
     1
 43
0.36
  3
Standard
 44
0.18
300

342
7
174
     1
178
     6
175
     1
176
     0
 93
-1056964608
 45
0.18
292
     0
297
     0
 46
0.18
 94
-1056964608
 47
1.0
 49
1.0
140
1.0
293
     1
141
0.0
294
     1
177
     0
142
1.0
295
     0
296
     0
143
0.125
1001
ACAD_MLEADERVER
1070
     2
  0
MLINESTYLE
  5
3F
102
{ACAD_REACTORS
330
3E
102
}
330
0
100
AcDbMlineStyle
  2
STANDARD
 70
     0
  3

 62
   256
 51
90.0
 52
90.0
 71
     2
 49
0.5
 62
   256
  6
BYLAYER
 49
-0.5
 62
   256
  6
BYLAYER
  0
ACDBPLACEHOLDER
  5
3B8
102
{ACAD_REACTORS
330
3B7
102
}
330
3B7
  0
SCALE
  5
40C
102
{ACAD_REACTORS
330
40B
102
}
330
40B
100
AcDbScale
 70
     0
300
1:1
140
1.0
141
1.0
290
     1
  0
SCALE
  5
40D
102
{ACAD_REACTORS
330
40B
102
}
330
40B
100
AcDbScale
 70
     0
300
1/128" = 1'-0"
140
0.0078125
141
12.0
290
     0
  0
SCALE
  5
40E
102
{ACAD_REACTORS
330
40B
102
}
330
40B
100
AcDbScale
 70
     0
300
1/64" = 1'-0"
140
0.015625
141
12.0
290
     0
  0
SCALE
  5
40F
102
{ACAD_REACTORS
330
40B
102
}
330
40B
100
AcDbScale
 70
     0
300
1/32" = 1'-0"
140
0.03125
141
12.0
290
     0
  0
SCALE
  5
410
102
{ACAD_REACTORS
330
40B
102
}
330
40B
100
AcDbScale
 70
     0
300
1/16" = 1'-0"
140
0.0625
141
12.0
290
     0
  0
SCALE
  5
411
102
{ACAD_REACTORS
330
40B
102
}
330
40B
100
AcDbScale
 70
     0
300
3/32" = 1'-0"
140
0.09375
141
12.0
290
     0
  0
SCALE
  5
412
102
{ACAD_REACTORS
330
40B
102
}
330
40B
100
AcDbScale
 70
     0
300
1/8" = 1'-0"
140
0.125
141
12.0
290
     0
  0
SCALE
  5
413
102
{ACAD_REACTORS
330
40B
102
}
330
40B
100
AcDbScale
 70
     0
300
3/16" = 1'-0"
140
0.1875
141
12.0
290
     0
  0
SCALE
  5
414
102
{ACAD_REACTORS
330
40B
102
}
330
40B
100
AcDbScale
 70
     0
300
1/4" = 1'-0"
140
0.25
141
12.0
290
     0
  0
SCALE
  5
415
102
{ACAD_REACTORS
330
40B
102
}
330
40B
100
AcDbScale
 70
     0
300
3/8" = 1'-0"
140
0.375
141
12.0
290
     0
  0
SCALE
  5
416
102
{ACAD_REACTORS
330
40B
102
}
330
40B
100
AcDbScale
 70
     0
300
1/2" = 1'-0"
140
0.5
141
12.0
290
     0
  0
SCALE
  5
417
102
{ACAD_REACTORS
330
40B
102
}
330
40B
100
AcDbScale
 70
     0
300
3/4" = 1'-0"
140
0.75
141
12.0
290
     0
  0
SCALE
  5
418
102
{ACAD_REACTORS
330
40B
102
}
330
40B
100
AcDbScale
 70
     0
300
1" = 1'-0"
140
1.0
141
12.0
290
     0
  0
SCALE
  5
419
102
{ACAD_REACTORS
330
40B
102
}
330
40B
100
AcDbScale
 70
     0
300
1-1/2" = 1'-0"
140
1.5
141
12.0
290
     0
  0
SCALE
  5
41A
102
{ACAD_REACTORS
330
40B
102
}
330
40B
100
AcDbScale
 70
     0
300
3" = 1'-0"
140
3.0
141
12.0
290
     0
  0
SCALE
  5
41B
102
{ACAD_REACTORS
330
40B
102
}
330
40B
100
AcDbScale
 70
     0
300
6" = 1'-0"
140
6.0
141
12.0
290
     0
  0
SCALE
  5
41C
102
{ACAD_REACTORS
330
40B
102
}
330
40B
100
AcDbScale
 70
     0
300
1'-0" = 1'-0"
140
12.0
141
12.0
290
     0
  0
TABLESTYLE
  5
3BC
102
{ACAD_XDICTIONARY
360
572
102
}
102
{ACAD_REACTORS
330
3BB
102
}
330
3BB
100
AcDbTableStyle
  3
Standard
 70
     0
 71
     0
 40
0.06
 41
0.06
280
     0
281
     0
  7
STANDARD
140
0.18
170
     2
 62
     0
 63
     7
283
     0
274
    -2
284
     1
 64
     0
275
    -2
285
     1
 65
     0
276
    -2
286
     1
 66
     0
277
    -2
287
     1
 67
     0
278
    -2
288
     1
 68
     0
279
    -2
289
     1
 69
     0
  7
STANDARD
140
0.25
170
     5
 62
     0
 63
     7
283
     0
274
    -2
284
     1
 64
     0
275
    -2
285
     1
 65
     0
276
    -2
286
     1
 66
     0
277
    -2
287
     1
 67
     0
278
    -2
288
     1
 68
     0
279
    -2
289
     1
 69
     0
  7
STANDARD
140
0.18
170
     5
 62
     0
 63
     7
283
     0
274
    -2
284
     1
 64
     0
275
    -2
285
     1
 65
     0
276
    -2
286
     1
 66
     0
277
    -2
287
     1
 67
     0
278
    -2
288
     1
 68
     0
279
    -2
289
     1
 69
     0
  0
VISUALSTYLE
  5
3F8
102
{ACAD_XDICTIONARY
360
58A
102
}
102
{ACAD_REACTORS
330
3F2
102
}
330
3F2
100
AcDbVisualStyle
  2
2dWireframe
 70
     4
 71
     0
 72
     2
 73
     0
 90
        0
 40
-0.6
 41
-30.0
 62
     5
 63
     7
 74
     1
 91
        4
 64
     7
 65
   257
 75
     1
175
     1
 42
1.0
 92
        0
 66
   257
 43
1.0
 76
     1
 77
     6
 78
     2
 67
     7
 79
     5
170
     0
171
     0
290
     0
174
     0
 93
        1
 44
0.0
173
     0
291
     0
 45
0.0
1001
ACAD
1000
AcDbSavedByObjectVersion
1070
     0
  0
VISUALSTYLE
  5
3F7
102
{ACAD_XDICTIONARY
360
588
102
}
102
{ACAD_REACTORS
330
3F2
102
}
330
3F2
100
AcDbVisualStyle
  2
Basic
 70
     7
 71
     1
 72
     0
 73
     1
 90
        0
 40
-0.6
 41
-30.0
 62
     5
 63
     7
 74
     0
 91
        4
 64
     7
 65
   257
 75
     1
175
     1
 42
1.0
 92
        8
 66
     7
 43
1.0
 76
     1
 77
     6
 78
     2
 67
     7
 79
     5
170
     0
171
     0
290
     0
174
     0
 93
        1
 44
0.0
173
     0
291
     1
 45
0.0
1001
ACAD
1000
AcDbSavedByObjectVersion
1070
     0
  0
VISUALSTYLE
  5
3FE
102
{ACAD_XDICTIONARY
360
596
102
}
102
{ACAD_REACTORS
330
3F2
102
}
330
3F2
100
AcDbVisualStyle
  2
Brighten
 70
    12
 71
     2
 72
     2
 73
     0
 90
        0
 40
-0.6
 41
-30.0
 62
     5
 63
     7
 74
     1
 91
        4
 64
     7
 65
   257
 75
     1
175
     1
 42
1.0
 92
        8
 66
     7
 43
1.0
 76
     1
 77
     6
 78
     2
 67
     7
 79
     5
170
     0
171
     0
290
     0
174
     0
 93
        1
 44
50.0
173
     0
291
     1
 45
0.0
1001
ACAD
1000
AcDbSavedByObjectVersion
1070
     0
  0
VISUALSTYLE
  5
402
102
{ACAD_XDICTIONARY
360
59E
102
}
102
{ACAD_REACTORS
330
3F2
102
}
330
3F2
100
AcDbVisualStyle
  2
ColorChange
 70
    16
 71
     2
 72
     2
 73
     3
 90
        0
 40
-0.6
 41
-30.0
 62
     5
 63
     8
 74
     1
 91
        4
 64
     7
 65
   257
 75
     1
175
     1
 42
1.0
 92
        8
 66
     8
 43
1.0
 76
     1
 77
     6
 78
     2
 67
     7
 79
     5
170
     0
171
     0
290
     0
174
     0
 93
        1
 44
0.0
173
     0
291
     1
 45
0.0
1001
ACAD
1000
AcDbSavedByObjectVersion
1070
     0
  0
VISUALSTYLE
  5
3FB
102
{ACAD_XDICTIONARY
360
590
102
}
102
{ACAD_REACTORS
330
3F2
102
}
330
3F2
100
AcDbVisualStyle
  2
Conceptual
 70
     9
 71
     3
 72
     2
 73
     0
 90
        0
 40
-0.6
 41
-30.0
 62
     5
 63
     7
 74
     2
 91
        2
 64
     7
 65
   257
 75
     1
175
     1
 42
179.0
 92
        8
 66
     7
 43
1.0
 76
     1
 77
     6
 78
     2
 67
     7
 79
     3
170
     0
171
     0
290
     0
174
     0
 93
        1
 44
0.0
173
     0
291
     0
 45
0.0
1001
ACAD
1000
AcDbSavedByObjectVersion
1070
     0
  0
VISUALSTYLE
  5
3FD
102
{ACAD_XDICTIONARY
360
594
102
}
102
{ACAD_REACTORS
330
3F2
102
}
330
3F2
100
AcDbVisualStyle
  2
Dim
 70
    11
 71
     2
 72
     2
 73
     0
 90
        0
 40
-0.6
 41
-30.0
 62
     5
 63
     7
 74
     1
 91
        4
 64
     7
 65
   257
 75
     1
175
     1
 42
1.0
 92
        8
 66
     7
 43
1.0
 76
     1
 77
     6
 78
     2
 67
     7
 79
     5
170
     0
171
     0
290
     0
174
     0
 93
        1
 44
-50.0
173
     0
291
     1
 45
0.0
1001
ACAD
1000
AcDbSavedByObjectVersion
1070
     0
  0
VISUALSTYLE
  5
40A
102
{ACAD_XDICTIONARY
360
5AE
102
}
102
{ACAD_REACTORS
330
3F2
102
}
330
3F2
100
AcDbVisualStyle
  2
EdgeColorOff
 70
    22
 71
     2
 72
     2
 73
     0
 90
        0
 40
-0.6
 41
-30.0
 62
     5
 63
     7
 74
     1
 91
        4
 64
     7
 65
   257
 75
     1
175
     1
 42
1.0
 92
        8
 66
     7
 43
1.0
 76
     1
 77
     6
 78
     2
 67
     7
 79
     5
170
     0
171
     0
290
     0
174
     0
 93
        1
 44
0.0
173
     0
291
     1
 45
0.0
1001
ACAD
1000
AcDbSavedByObjectVersion
1070
     0
  0
VISUALSTYLE
  5
401
102
{ACAD_XDICTIONARY
360
59C
102
}
102
{ACAD_REACTORS
330
3F2
102
}
330
3F2
100
AcDbVisualStyle
  2
Facepattern
 70
    15
 71
     2
 72
     2
 73
     0
 90
        0
 40
-0.6
 41
-30.0
 62
     5
 63
     7
 74
     1
 91
        4
 64
     7
 65
   257
 75
     1
175
     1
 42
1.0
 92
        8
 66
     7
 43
1.0
 76
     1
 77
     6
 78
     2
 67
     7
 79
     5
170
     0
171
     0
290
     0
174
     0
 93
        1
 44
0.0
173
     0
291
     1
 45
0.0
1001
ACAD
1000
AcDbSavedByObjectVersion
1070
     0
  0
VISUALSTYLE
  5
3F3
102
{ACAD_XDICTIONARY
360
580
102
}
102
{ACAD_REACTORS
330
3F2
102
}
330
3F2
100
AcDbVisualStyle
  2
Flat
 70
     0
 71
     2
 72
     1
 73
     1
 90
        2
 40
-0.6
 41
30.0
 62
     5
 63
     7
 74
     0
 91
        0
 64
     7
 65
   257
 75
     1
175
     1
 42
1.0
 92
        8
 66
     7
 43
1.0
 76
     1
 77
     6
 78
     2
 67
     7
 79
     5
170
     0
171
     0
290
     0
174
     0
 93
       13
 44
0.0
173
     0
291
     1
 45
0.0
1001
ACAD
1000
AcDbSavedByObjectVersion
1070
     0
  0
VISUALSTYLE
  5
3F4
102
{ACAD_XDICTIONARY
360
582
102
}
102
{ACAD_REACTORS
330
3F2
102
}
330
3F2
100
AcDbVisualStyle
  2
FlatWithEdges
 70
     1
 71
     2
 72
     1
 73
     1
 90
        2
 40
-0.6
 41
30.0
 62
     5
 63
     7
 74
     1
 91
        0
 64
     7
 65
   257
 75
     1
175
     1
 42
1.0
 92
        0
 66
   257
 43
1.0
 76
     1
 77
     6
 78
     2
 67
     7
 79
     5
170
     0
171
     0
290
     0
174
     0
 93
       13
 44
0.0
173
     0
291
     1
 45
0.0
1001
ACAD
1000
AcDbSavedByObjectVersion
1070
     0
  0
VISUALSTYLE
  5
3F5
102
{ACAD_XDICTIONARY
360
584
102
}
102
{ACAD_REACTORS
330
3F2
102
}
330
3F2
100
AcDbVisualStyle
  2
Gouraud
 70
     2
 71
     2
 72
     2
 73
     1
 90
        2
 40
-0.6
 41
30.0
 62
     5
 63
     7
 74
     0
 91
        0
 64
     7
 65
   257
 75
     1
175
     1
 42
1.0
 92
        0
 66
     7
 43
1.0
 76
     1
 77
     6
 78
     2
 67
     7
 79
     5
170
     0
171
     0
290
     0
174
     0
 93
       13
 44
0.0
173
     0
291
     1
 45
0.0
1001
ACAD
1000
AcDbSavedByObjectVersion
1070
     0
  0
VISUALSTYLE
  5
3F6
102
{ACAD_XDICTIONARY
360
586
102
}
102
{ACAD_REACTORS
330
3F2
102
}
330
3F2
100
AcDbVisualStyle
  2
GouraudWithEdges
 70
     3
 71
     2
 72
     2
 73
     1
 90
        2
 40
-0.6
 41
30.0
 62
     5
 63
     7
 74
     1
 91
        0
 64
     7
 65
   257
 75
     1
175
     1
 42
1.0
 92
        0
 66
   257
 43
1.0
 76
     1
 77
     6
 78
     2
 67
     7
 79
     5
170
     0
171
     0
290
     0
174
     0
 93
       13
 44
0.0
173
     0
291
     1
 45
0.0
1001
ACAD
1000
AcDbSavedByObjectVersion
1070
     0
  0
VISUALSTYLE
  5
3FA
102
{ACAD_XDICTIONARY
360
58E
102
}
102
{ACAD_REACTORS
330
3F2
102
}
330
3F2
100
AcDbVisualStyle
  2
Hidden
 70
     6
 71
     1
 72
     2
 73
     2
 90
        0
 40
-0.6
 41
-30.0
 62
     5
 63
     7
 74
     2
 91
        2
 64
     7
 65
   257
 75
     2
175
     1
 42
40.0
 92
        0
 66
   257
 43
1.0
 76
     1
 77
     6
 78
     2
 67
     7
 79
     3
170
     0
171
     0
290
     0
174
     0
 93
        1
 44
0.0
173
     0
291
     0
 45
0.0
1001
ACAD
1000
AcDbSavedByObjectVersion
1070
     0
  0
VISUALSTYLE
  5
408
102
{ACAD_XDICTIONARY
360
5AA
102
}
102
{ACAD_REACTORS
330
3F2
102
}
330
3F2
100
AcDbVisualStyle
  2
JitterOff
 70
    20
 71
     2
 72
     2
 73
     0
 90
        0
 40
-0.6
 41
-30.0
 62
     5
 63
     7
 74
     1
 91
        4
 64
     7
 65
   257
 75
     1
175
     1
 42
1.0
 92
       10
 66
     7
 43
1.0
 76
     1
 77
     6
 78
     2
 67
     7
 79
     5
170
     0
171
     0
290
     0
174
     0
 93
        1
 44
0.0
173
     0
291
     1
 45
0.0
1001
ACAD
1000
AcDbSavedByObjectVersion
1070
     0
  0
VISUALSTYLE
  5
400
102
{ACAD_XDICTIONARY
360
59A
102
}
102
{ACAD_REACTORS
330
3F2
102
}
330
3F2
100
AcDbVisualStyle
  2
Linepattern
 70
    14
 71
     2
 72
     2
 73
     0
 90
        0
 40
-0.6
 41
-30.0
 62
     5
 63
     7
 74
     1
 91
        4
 64
     7
 65
   257
 75
     7
175
     7
 42
1.0
 92
        8
 66
     7
 43
1.0
 76
     1
 77
     6
 78
     2
 67
     7
 79
     5
170
     0
171
     0
290
     0
174
     0
 93
        1
 44
0.0
173
     0
291
     1
 45
0.0
1001
ACAD
1000
AcDbSavedByObjectVersion
1070
     0
  0
VISUALSTYLE
  5
409
102
{ACAD_XDICTIONARY
360
5AC
102
}
102
{ACAD_REACTORS
330
3F2
102
}
330
3F2
100
AcDbVisualStyle
  2
OverhangOff
 70
    21
 71
     2
 72
     2
 73
     0
 90
        0
 40
-0.6
 41
-30.0
 62
     5
 63
     7
 74
     1
 91
        4
 64
     7
 65
   257
 75
     1
175
     1
 42
1.0
 92
        9
 66
     7
 43
1.0
 76
     1
 77
     6
 78
     2
 67
     7
 79
     5
170
     0
171
     0
290
     0
174
     0
 93
        1
 44
0.0
173
     0
291
     1
 45
0.0
1001
ACAD
1000
AcDbSavedByObjectVersion
1070
     0
  0
VISUALSTYLE
  5
3FC
102
{ACAD_XDICTIONARY
360
592
102
}
102
{ACAD_REACTORS
330
3F2
102
}
330
3F2
100
AcDbVisualStyle
  2
Realistic
 70
     8
 71
     2
 72
     3
 73
     0
 90
        2
 40
-0.6
 41
30.0
 62
     5
 63
     7
 74
     0
 91
        0
 64
     7
 65
   257
 75
     1
175
     1
 42
1.0
 92
        8
 66
   257
 43
1.0
 76
     1
 77
     6
 78
     2
 67
     7
 79
     3
170
     0
171
     0
290
     0
174
     0
 93
       13
 44
0.0
173
     0
291
     0
 45
0.0
1001
ACAD
1000
AcDbSavedByObjectVersion
1070
     0
  0
VISUALSTYLE
  5
407
102
{ACAD_XDICTIONARY
360
5A8
102
}
102
{ACAD_REACTORS
330
3F2
102
}
330
3F2
100
AcDbVisualStyle
  2
Shaded
 70
    27
 71
     2
 72
     2
 73
     1
 90
        2
 40
-0.6
 41
30.0
 62
     5
 63
     7
 74
     0
 91
        4
 64
     7
 65
   257
 75
     1
175
     1
 42
1.0
 92
        8
 66
   257
 43
1.0
 76
     1
 77
     6
 78
     2
 67
     8
 79
     3
170
     0
171
     0
290
     0
174
     0
 93
        5
 44
0.0
173
     0
291
     0
 45
0.0
1001
ACAD
1000
AcDbSavedByObjectVersion
1070
     0
  0
VISUALSTYLE
  5
406
102
{ACAD_XDICTIONARY
360
5A6
102
}
102
{ACAD_REACTORS
330
3F2
102
}
330
3F2
100
AcDbVisualStyle
  2
Shaded with edges
 70
    26
 71
     2
 72
     2
 73
     1
 90
        2
 40
-0.6
 41
30.0
 62
     5
 63
     7
 74
     1
 91
       10
 64
     7
 65
   257
 75
     2
175
     1
 42
1.0
 92
        8
 66
   257
 43
1.0
 76
     1
 77
     6
 78
     2
 67
     7
 79
     3
170
     0
171
     0
290
     0
174
     0
 93
        5
 44
0.0
173
     0
291
     0
 45
0.0
1001
ACAD
1000
AcDbSavedByObjectVersion
1070
     0
  0
VISUALSTYLE
  5
403
102
{ACAD_XDICTIONARY
360
5A0
102
}
102
{ACAD_REACTORS
330
3F2
102
}
330
3F2
100
AcDbVisualStyle
  2
Shades of Gray
 70
    23
 71
     2
 72
     2
 73
     3
 90
        0
 40
-0.6
 41
-30.0
 62
     5
 63
     7
 74
     2
 91
        2
 64
     7
 65
     7
 75
     1
175
     1
 42
40.0
 92
        8
 66
     7
 43
1.0
 76
     1
 77
     6
 78
     2
 67
     7
 79
     3
170
     0
171
     0
290
     0
174
     0
 93
        1
 44
0.0
173
     0
291
     0
 45
0.0
1001
ACAD
1000
AcDbSavedByObjectVersion
1070
     0
  0
VISUALSTYLE
  5
404
102
{ACAD_XDICTIONARY
360
5A2
102
}
102
{ACAD_REACTORS
330
3F2
102
}
330
3F2
100
AcDbVisualStyle
  2
Sketchy
 70
    24
 71
     1
 72
     2
 73
     2
 90
        0
 40
-0.6
 41
-30.0
 62
     5
 63
     7
 74
     2
 91
        2
 64
     7
 65
     7
 75
     1
175
     1
 42
40.0
 92
       11
 66
     7
 43
1.0
 76
     1
 77
     6
 78
     2
 67
     7
 79
     6
170
     0
171
     0
290
     0
174
     0
 93
        1
 44
0.0
173
     0
291
     0
 45
0.0
1001
ACAD
1000
AcDbSavedByObjectVersion
1070
     0
  0
VISUALSTYLE
  5
3FF
102
{ACAD_XDICTIONARY
360
598
102
}
102
{ACAD_REACTORS
330
3F2
102
}
330
3F2
100
AcDbVisualStyle
  2
Thicken
 70
    13
 71
     2
 72
     2
 73
     0
 90
        0
 40
-0.6
 41
-30.0
 62
     5
 63
     7
 74
     1
 91
        4
 64
     7
 65
   257
 75
     1
175
     1
 42
1.0
 92
       12
 66
     7
 43
1.0
 76
     1
 77
     6
 78
     2
 67
     7
 79
     5
170
     0
171
     0
290
     0
174
     0
 93
        1
 44
0.0
173
     0
291
     1
 45
0.0
1001
ACAD
1000
AcDbSavedByObjectVersion
1070
     0
  0
VISUALSTYLE
  5
3F9
102
{ACAD_XDICTIONARY
360
58C
102
}
102
{ACAD_REACTORS
330
3F2
102
}
330
3F2
100
AcDbVisualStyle
  2
Wireframe
 70
     5
 71
     0
 72
     2
 73
     0
 90
        0
 40
-0.6
 41
-30.0
 62
     5
 63
     7
 74
     1
 91
        4
 64
     7
 65
   257
 75
     1
175
     1
 42
1.0
 92
        0
 66
   257
 43
1.0
 76
     1
 77
     6
 78
     2
 67
     7
 79
     3
170
     0
171
     0
290
     0
174
     0
 93
        1
 44
0.0
173
     0
291
     0
 45
0.0
1001
ACAD
1000
AcDbSavedByObjectVersion
1070
     0
  0
VISUALSTYLE
  5
405
102
{ACAD_XDICTIONARY
360
5A4
102
}
102
{ACAD_REACTORS
330
3F2
102
}
330
3F2
100
AcDbVisualStyle
  2
X-Ray
 70
    25
 71
     2
 72
     2
 73
     1
 90
        1
 40
0.5
 41
-30.0
 62
     5
 63
     7
 74
     1
 91
        0
 64
     7
 65
   257
 75
     1
175
     1
 42
1.0
 92
        8
 66
     7
 43
1.0
 76
     1
 77
     6
 78
     2
 67
     7
 79
     3
170
     0
171
     0
290
     0
174
     0
 93
       13
 44
0.0
173
     0
291
     0
 45
0.0
1001
ACAD
1000
AcDbSavedByObjectVersion
1070
     0
  0
DICTIONARYVAR
  5
566
102
{ACAD_REACTORS
330
3CF
102
}
330
3CF
100
DictionaryVariables
280
     0
  1
1:1
  0
DICTIONARYVAR
  5
564
102
{ACAD_REACTORS
330
3CF
102
}
330
3CF
100
DictionaryVariables
280
     0
  1
STANDARD
  0
DICTIONARYVAR
  5
3D0
102
{ACAD_REACTORS
330
3CF
102
}
330
3CF
100
DictionaryVariables
280
     0
  1
STANDARD
  0
DICTIONARYVAR
  5
3D7
102
{ACAD_REACTORS
330
3CF
102
}
330
3CF
100
DictionaryVariables
280
     0
  1
1
  0
DICTIONARYVAR
  5
570
102
{ACAD_REACTORS
330
3CF
102
}
330
3CF
100
DictionaryVariables
280
     0
  1
0
  0
DICTIONARYVAR
  5
568
102
{ACAD_REACTORS
330
3CF
102
}
330
3CF
100
DictionaryVariables
280
     0
  1
1
  0
DICTIONARYVAR
  5
569
102
{ACAD_REACTORS
330
3CF
102
}
330
3CF
100
DictionaryVariables
280
     0
  1
15
  0
DICTIONARYVAR
  5
567
102
{ACAD_REACTORS
330
3CF
102
}
330
3CF
100
DictionaryVariables
280
     0
  1
0
  0
DICTIONARYVAR
  5
565
102
{ACAD_REACTORS
330
3CF
102
}
330
3CF
100
DictionaryVariables
280
     0
  1
0
  0
DICTIONARYVAR
  5
3D8
102
{ACAD_REACTORS
330
3CF
102
}
330
3CF
100
DictionaryVariables
280
     0
  1

  0
DICTIONARYVAR
  5
56F
102
{ACAD_REACTORS
330
3CF
102
}
330
3CF
100
DictionaryVariables
280
     0
  1
127
  0
DICTIONARYVAR
  5
571
102
{ACAD_REACTORS
330
3CF
102
}
330
3CF
100
DictionaryVariables
280
     0
  1
2
  0
DICTIONARY
  5
579
330
3BF
100
AcDbDictionary
280
     1
281
     1
  3
ACAD_XREC_ROUNDTRIP
360
57A
  0
DICTIONARY
  5
57B
330
3C0
100
AcDbDictionary
280
     1
281
     1
  3
ACAD_XREC_ROUNDTRIP
360
57C
  0
DICTIONARY
  5
3E3
330
3E2
100
AcDbDictionary
280
     1
281
     1
  3
ACAD_XREC_ROUNDTRIP
360
57E
  3
BUMPTILE
360
3E5
  3
DIFFUSETILE
360
3E4
  3
OPACITYTILE
360
3E8
  3
REFLECTIONTILE
360
3E7
  3
REFRACTIONTILE
360
3E9
  3
SPECULARTILE
360
3E6
  0
DICTIONARY
  5
3DB
330
3DA
100
AcDbDictionary
280
     1
281
     1
  3
ACAD_XREC_ROUNDTRIP
360
57D
  3
BUMPTILE
360
3DD
  3
DIFFUSETILE
360
3DC
  3
OPACITYTILE
360
3E0
  3
REFLECTIONTILE
360
3DF
  3
REFRACTIONTILE
360
3E1
  3
SPECULARTILE
360
3DE
  0
DICTIONARY
  5
3EB
330
3EA
100
AcDbDictionary
280
     1
281
     1
  3
ACAD_XREC_ROUNDTRIP
360
57F
  3
BUMPTILE
360
3ED
  3
DIFFUSETILE
360
3EC
  3
OPACITYTILE
360
3F0
  3
REFLECTIONTILE
360
3EF
  3
REFRACTIONTILE
360
3F1
  3
SPECULARTILE
360
3EE
  0
DICTIONARY
  5
574
330
41E
100
AcDbDictionary
280
     1
281
     1
  3
ACAD_XREC_ROUNDTRIP
360
575
  0
DICTIONARY
  5
572
330
3BC
100
AcDbDictionary
280
     1
281
     1
  3
ACAD_ROUNDTRIP_2008_TABLESTYLE_CELLSTYLEMAP
360
573
  3
ACAD_XREC_ROUNDTRIP
360
578
  0
DICTIONARY
  5
58A
330
3F8
100
AcDbDictionary
280
     1
281
     1
  3
ACAD_XREC_ROUNDTRIP
360
58B
  0
DICTIONARY
  5
588
330
3F7
100
AcDbDictionary
280
     1
281
     1
  3
ACAD_XREC_ROUNDTRIP
360
589
  0
DICTIONARY
  5
596
330
3FE
100
AcDbDictionary
280
     1
281
     1
  3
ACAD_XREC_ROUNDTRIP
360
597
  0
DICTIONARY
  5
59E
330
402
100
AcDbDictionary
280
     1
281
     1
  3
ACAD_XREC_ROUNDTRIP
360
59F
  0
DICTIONARY
  5
590
330
3FB
100
AcDbDictionary
280
     1
281
     1
  3
ACAD_XREC_ROUNDTRIP
360
591
  0
DICTIONARY
  5
594
330
3FD
100
AcDbDictionary
280
     1
281
     1
  3
ACAD_XREC_ROUNDTRIP
360
595
  0
DICTIONARY
  5
5AE
330
40A
100
AcDbDictionary
280
     1
281
     1
  3
ACAD_XREC_ROUNDTRIP
360
5AF
  0
DICTIONARY
  5
59C
330
401
100
AcDbDictionary
280
     1
281
     1
  3
ACAD_XREC_ROUNDTRIP
360
59D
  0
DICTIONARY
  5
580
330
3F3
100
AcDbDictionary
280
     1
281
     1
  3
ACAD_XREC_ROUNDTRIP
360
581
  0
DICTIONARY
  5
582
330
3F4
100
AcDbDictionary
280
     1
281
     1
  3
ACAD_XREC_ROUNDTRIP
360
583
  0
DICTIONARY
  5
584
330
3F5
100
AcDbDictionary
280
     1
281
     1
  3
ACAD_XREC_ROUNDTRIP
360
585
  0
DICTIONARY
  5
586
330
3F6
100
AcDbDictionary
280
     1
281
     1
  3
ACAD_XREC_ROUNDTRIP
360
587
  0
DICTIONARY
  5
58E
330
3FA
100
AcDbDictionary
280
     1
281
     1
  3
ACAD_XREC_ROUNDTRIP
360
58F
  0
DICTIONARY
  5
5AA
330
408
100
AcDbDictionary
280
     1
281
     1
  3
ACAD_XREC_ROUNDTRIP
360
5AB
  0
DICTIONARY
  5
59A
330
400
100
AcDbDictionary
280
     1
281
     1
  3
ACAD_XREC_ROUNDTRIP
360
59B
  0
DICTIONARY
  5
5AC
330
409
100
AcDbDictionary
280
     1
281
     1
  3
ACAD_XREC_ROUNDTRIP
360
5AD
  0
DICTIONARY
  5
592
330
3FC
100
AcDbDictionary
280
     1
281
     1
  3
ACAD_XREC_ROUNDTRIP
360
593
  0
DICTIONARY
  5
5A8
330
407
100
AcDbDictionary
280
     1
281
     1
  3
ACAD_XREC_ROUNDTRIP
360
5A9
  0
DICTIONARY
  5
5A6
330
406
100
AcDbDictionary
280
     1
281
     1
  3
ACAD_XREC_ROUNDTRIP
360
5A7
  0
DICTIONARY
  5
5A0
330
403
100
AcDbDictionary
280
     1
281
     1
  3
ACAD_XREC_ROUNDTRIP
360
5A1
  0
DICTIONARY
  5
5A2
330
404
100
AcDbDictionary
280
     1
281
     1
  3
ACAD_XREC_ROUNDTRIP
360
5A3
  0
DICTIONARY
  5
598
330
3FF
100
AcDbDictionary
280
     1
281
     1
  3
ACAD_XREC_ROUNDTRIP
360
599
  0
DICTIONARY
  5
58C
330
3F9
100
AcDbDictionary
280
     1
281
     1
  3
ACAD_XREC_ROUNDTRIP
360
58D
  0
DICTIONARY
  5
5A4
330
405
100
AcDbDictionary
280
     1
281
     1
  3
ACAD_XREC_ROUNDTRIP
360
5A5
  0
XRECORD
  5
57A
102
{ACAD_REACTORS
330
579
102
}
330
579
100
AcDbXrecord
280
     1
102
SHADEPLOT
 70
     0
102
SHADEPLOTRESLEVEL
 70
     2
102
SHADEPLOTCUSTOMDPI
 70
   300
  0
XRECORD
  5
57C
102
{ACAD_REACTORS
330
57B
102
}
330
57B
100
AcDbXrecord
280
     1
102
SHADEPLOT
 70
     0
102
SHADEPLOTRESLEVEL
 70
     2
102
SHADEPLOTCUSTOMDPI
 70
   300
  0
XRECORD
  5
57E
102
{ACAD_REACTORS
330
3E3
102
}
330
3E3
100
AcDbXrecord
280
     1
102
MATERIAL
148
0.0
149
0.0
149
0.0
 93
        0
 94
      127
282
     0
 72
     0
 77
     0
171
     0
175
     0
179
     0
273
     0
  0
XRECORD
  5
3E5
102
{ACAD_REACTORS
330
3E3
102
}
330
3E3
100
AcDbXrecord
280
     1
270
     1
271
     1
  0
XRECORD
  5
3E4
102
{ACAD_REACTORS
330
3E3
102
}
330
3E3
100
AcDbXrecord
280
     1
270
     1
271
     1
  0
XRECORD
  5
3E8
102
{ACAD_REACTORS
330
3E3
102
}
330
3E3
100
AcDbXrecord
280
     1
270
     1
271
     1
  0
XRECORD
  5
3E7
102
{ACAD_REACTORS
330
3E3
102
}
330
3E3
100
AcDbXrecord
280
     1
270
     1
271
     1
  0
XRECORD
  5
3E9
102
{ACAD_REACTORS
330
3E3
102
}
330
3E3
100
AcDbXrecord
280
     1
270
     1
271
     1
  0
XRECORD
  5
3E6
102
{ACAD_REACTORS
330
3E3
102
}
330
3E3
100
AcDbXrecord
280
     1
270
     1
271
     1
  0
XRECORD
  5
57D
102
{ACAD_REACTORS
330
3DB
102
}
330
3DB
100
AcDbXrecord
280
     1
102
MATERIAL
148
0.0
149
0.0
149
0.0
 93
        0
 94
      127
282
     0
 72
     0
 77
     0
171
     0
175
     0
179
     0
273
     0
  0
XRECORD
  5
3DD
102
{ACAD_REACTORS
330
3DB
102
}
330
3DB
100
AcDbXrecord
280
     1
270
     1
271
     1
  0
XRECORD
  5
3DC
102
{ACAD_REACTORS
330
3DB
102
}
330
3DB
100
AcDbXrecord
280
     1
270
     1
271
     1
  0
XRECORD
  5
3E0
102
{ACAD_REACTORS
330
3DB
102
}
330
3DB
100
AcDbXrecord
280
     1
270
     1
271
     1
  0
XRECORD
  5
3DF
102
{ACAD_REACTORS
330
3DB
102
}
330
3DB
100
AcDbXrecord
280
     1
270
     1
271
     1
  0
XRECORD
  5
3E1
102
{ACAD_REACTORS
330
3DB
102
}
330
3DB
100
AcDbXrecord
280
     1
270
     1
271
     1
  0
XRECORD
  5
3DE
102
{ACAD_REACTORS
330
3DB
102
}
330
3DB
100
AcDbXrecord
280
     1
270
     1
271
     1
  0
XRECORD
  5
57F
102
{ACAD_REACTORS
330
3EB
102
}
330
3EB
100
AcDbXrecord
280
     1
102
MATERIAL
148
0.0
149
0.0
149
0.0
 93
        0
 94
      127
282
     0
 72
     0
 77
     0
171
     0
175
     0
179
     0
273
     0
  0
XRECORD
  5
3ED
102
{ACAD_REACTORS
330
3EB
102
}
330
3EB
100
AcDbXrecord
280
     1
270
     1
271
     1
  0
XRECORD
  5
3EC
102
{ACAD_REACTORS
330
3EB
102
}
330
3EB
100
AcDbXrecord
280
     1
270
     1
271
     1
  0
XRECORD
  5
3F0
102
{ACAD_REACTORS
330
3EB
102
}
330
3EB
100
AcDbXrecord
280
     1
270
     1
271
     1
  0
XRECORD
  5
3EF
102
{ACAD_REACTORS
330
3EB
102
}
330
3EB
100
AcDbXrecord
280
     1
270
     1
271
     1
  0
XRECORD
  5
3F1
102
{ACAD_REACTORS
330
3EB
102
}
330
3EB
100
AcDbXrecord
280
     1
270
     1
271
     1
  0
XRECORD
  5
3EE
102
{ACAD_REACTORS
330
3EB
102
}
330
3EB
100
AcDbXrecord
280
     1
270
     1
271
     1
  0
XRECORD
  5
575
102
{ACAD_REACTORS
330
574
102
}
330
574
100
AcDbXrecord
280
     1
102
ACAD_ROUNDTRIP_2012_MLEADER_STYLE
298
     1
  0
CELLSTYLEMAP
  5
573
102
{ACAD_REACTORS
330
572
102
}
330
572
100
AcDbCellStyleMap
 90
        3
300
CELLSTYLE
  1
TABLEFORMAT_BEGIN
 90
        5
170
     1
 91
        0
 92
    32768
 62
   257
 93
        1
300
CONTENTFORMAT
  1
CONTENTFORMAT_BEGIN
 90
        0
 91
        0
 92
        4
 93
        0
300

 40
0.0
140
1.0
 94
        5
 62
     0
340
7
144
0.25
309
CONTENTFORMAT_END
171
     0
 94
        6
 95
        1
302
GRIDFORMAT
  1
GRIDFORMAT_BEGIN
 90
        0
 91
        1
 62
     0
 92
       -2
340
0
 93
        0
 40
0.045
309
GRIDFORMAT_END
 95
        2
302
GRIDFORMAT
  1
GRIDFORMAT_BEGIN
 90
        0
 91
        1
 62
     0
 92
       -2
340
0
 93
        0
 40
0.045
309
GRIDFORMAT_END
 95
        4
302
GRIDFORMAT
  1
GRIDFORMAT_BEGIN
 90
        0
 91
        1
 62
     0
 92
       -2
340
0
 93
        0
 40
0.045
309
GRIDFORMAT_END
 95
        8
302
GRIDFORMAT
  1
GRIDFORMAT_BEGIN
 90
        0
 91
        1
 62
     0
 92
       -2
340
0
 93
        0
 40
0.045
309
GRIDFORMAT_END
 95
       16
302
GRIDFORMAT
  1
GRIDFORMAT_BEGIN
 90
        0
 91
        1
 62
     0
 92
       -2
340
0
 93
        0
 40
0.045
309
GRIDFORMAT_END
 95
       32
302
GRIDFORMAT
  1
GRIDFORMAT_BEGIN
 90
        0
 91
        1
 62
     0
 92
       -2
340
0
 93
        0
 40
0.045
309
GRIDFORMAT_END
309
TABLEFORMAT_END
  1
CELLSTYLE_BEGIN
 90
        1
 91
        1
300
_TITLE
309
CELLSTYLE_END
300
CELLSTYLE
  1
TABLEFORMAT_BEGIN
 90
        5
170
     1
 91
        0
 92
        0
 62
   257
 93
        1
300
CONTENTFORMAT
  1
CONTENTFORMAT_BEGIN
 90
        0
 91
        0
 92
        4
 93
        0
300

 40
0.0
140
1.0
 94
        5
 62
     0
340
7
144
0.18
309
CONTENTFORMAT_END
171
     0
 94
        6
 95
        1
302
GRIDFORMAT
  1
GRIDFORMAT_BEGIN
 90
        0
 91
        1
 62
     0
 92
       -2
340
0
 93
        0
 40
0.045
309
GRIDFORMAT_END
 95
        2
302
GRIDFORMAT
  1
GRIDFORMAT_BEGIN
 90
        0
 91
        1
 62
     0
 92
       -2
340
0
 93
        0
 40
0.045
309
GRIDFORMAT_END
 95
        4
302
GRIDFORMAT
  1
GRIDFORMAT_BEGIN
 90
        0
 91
        1
 62
     0
 92
       -2
340
0
 93
        0
 40
0.045
309
GRIDFORMAT_END
 95
        8
302
GRIDFORMAT
  1
GRIDFORMAT_BEGIN
 90
        0
 91
        1
 62
     0
 92
       -2
340
0
 93
        0
 40
0.045
309
GRIDFORMAT_END
 95
       16
302
GRIDFORMAT
  1
GRIDFORMAT_BEGIN
 90
        0
 91
        1
 62
     0
 92
       -2
340
0
 93
        0
 40
0.045
309
GRIDFORMAT_END
 95
       32
302
GRIDFORMAT
  1
GRIDFORMAT_BEGIN
 90
        0
 91
        1
 62
     0
 92
       -2
340
0
 93
        0
 40
0.045
309
GRIDFORMAT_END
309
TABLEFORMAT_END
  1
CELLSTYLE_BEGIN
 90
        2
 91
        1
300
_HEADER
309
CELLSTYLE_END
300
CELLSTYLE
  1
TABLEFORMAT_BEGIN
 90
        5
170
     1
 91
        0
 92
        0
 62
   257
 93
        1
300
CONTENTFORMAT
  1
CONTENTFORMAT_BEGIN
 90
        0
 91
        0
 92
        4
 93
        0
300

 40
0.0
140
1.0
 94
        2
 62
     0
340
7
144
0.18
309
CONTENTFORMAT_END
171
     0
 94
        6
 95
        1
302
GRIDFORMAT
  1
GRIDFORMAT_BEGIN
 90
        0
 91
        1
 62
     0
 92
       -2
340
0
 93
        0
 40
0.045
309
GRIDFORMAT_END
 95
        2
302
GRIDFORMAT
  1
GRIDFORMAT_BEGIN
 90
        0
 91
        1
 62
     0
 92
       -2
340
0
 93
        0
 40
0.045
309
GRIDFORMAT_END
 95
        4
302
GRIDFORMAT
  1
GRIDFORMAT_BEGIN
 90
        0
 91
        1
 62
     0
 92
       -2
340
0
 93
        0
 40
0.045
309
GRIDFORMAT_END
 95
        8
302
GRIDFORMAT
  1
GRIDFORMAT_BEGIN
 90
        0
 91
        1
 62
     0
 92
       -2
340
0
 93
        0
 40
0.045
309
GRIDFORMAT_END
 95
       16
302
GRIDFORMAT
  1
GRIDFORMAT_BEGIN
 90
        0
 91
        1
 62
     0
 92
       -2
340
0
 93
        0
 40
0.045
309
GRIDFORMAT_END
 95
       32
302
GRIDFORMAT
  1
GRIDFORMAT_BEGIN
 90
        0
 91
        1
 62
     0
 92
       -2
340
0
 93
        0
 40
0.045
309
GRIDFORMAT_END
309
TABLEFORMAT_END
  1
CELLSTYLE_BEGIN
 90
        3
 91
        2
300
_DATA
309
CELLSTYLE_END
  0
XRECORD
  5
578
102
{ACAD_REACTORS
330
572
102
}
330
572
100
AcDbXrecord
280
     1
102
ACAD_ROUNDTRIP_PRE2007_TABLESTYLE
 90
        4
 91
        0
  1

 92
        4
 93
        0
  2

 94
        4
 95
        0
  3

  0
XRECORD
  5
58B
102
{ACAD_REACTORS
330
58A
102
}
330
58A
100
AcDbXrecord
280
     1
102
RTVSPropertyOp0
 70
     1
102
RTVSPropertyOp1
 70
     1
102
RTVSPropertyOp2
 70
     1
102
RTVSPropertyOp3
 70
     1
102
RTVSPropertyOp4
 70
     1
102
RTVSPropertyOp5
 70
     1
102
RTVSPropertyOp6
 70
     1
102
RTVSPropertyOp7
 70
     1
102
RTVSPropertyOp8
 70
     1
102
RTVSPropertyOp9
 70
     1
102
RTVSPropertyOp10
 70
     1
102
RTVSPropertyOp11
 70
     1
102
RTVSPropertyOp12
 70
     1
102
RTVSPropertyOp13
 70
     1
102
RTVSPropertyOp14
 70
     1
102
RTVSPropertyOp15
 70
     1
102
RTVSPropertyOp16
 70
     1
102
RTVSPropertyOp17
 70
     1
102
RTVSPropertyOp18
 70
     1
102
RTVSPropertyOp19
 70
     1
102
RTVSPropertyOp20
 70
     1
102
RTVSPropertyOp21
 70
     1
102
RTVSPropertyOp22
 70
     1
102
RTVSPropertyOp23
 70
     1
102
RTVSPropertyOp24
 70
     1
102
RTVSPropertyOp25
 70
     1
102
RTVSPropertyOp26
 70
     1
102
RTVSPropertyOp27
 70
     1
102
RTVSPropertyOp28
 70
     1
102
RTVSPropertyOp29
 70
     1
102
RTVSPropertyOp30
 70
     1
102
RTVSPropertyOp31
 70
     1
102
RTVSPropertyOp32
 70
     1
  0
XRECORD
  5
589
102
{ACAD_REACTORS
330
588
102
}
330
588
100
AcDbXrecord
280
     1
102
RTVSPropertyOp0
 70
     1
102
RTVSPropertyOp1
 70
     1
102
RTVSPropertyOp2
 70
     1
102
RTVSPropertyOp3
 70
     1
102
RTVSPropertyOp4
 70
     1
102
RTVSPropertyOp5
 70
     1
102
RTVSPropertyOp6
 70
     1
102
RTVSPropertyOp7
 70
     1
102
RTVSPropertyOp8
 70
     1
102
RTVSPropertyOp9
 70
     1
102
RTVSPropertyOp10
 70
     1
102
RTVSPropertyOp11
 70
     1
102
RTVSPropertyOp12
 70
     1
102
RTVSPropertyOp13
 70
     1
102
RTVSPropertyOp14
 70
     1
102
RTVSPropertyOp15
 70
     1
102
RTVSPropertyOp16
 70
     1
102
RTVSPropertyOp17
 70
     1
102
RTVSPropertyOp18
 70
     1
102
RTVSPropertyOp19
 70
     1
102
RTVSPropertyOp20
 70
     1
102
RTVSPropertyOp21
 70
     1
102
RTVSPropertyOp22
 70
     1
102
RTVSPropertyOp23
 70
     1
102
RTVSPropertyOp24
 70
     1
102
RTVSPropertyOp25
 70
     1
102
RTVSPropertyOp26
 70
     1
102
RTVSPropertyOp27
 70
     1
102
RTVSPropertyOp28
 70
     1
102
RTVSPropertyOp29
 70
     1
102
RTVSPropertyOp30
 70
     1
102
RTVSPropertyOp31
 70
     1
102
RTVSPropertyOp32
 70
     1
  0
XRECORD
  5
597
102
{ACAD_REACTORS
330
596
102
}
330
596
100
AcDbXrecord
280
     1
102
RTVSPropertyOp0
 70
     1
102
RTVSPropertyOp1
 70
     1
102
RTVSPropertyOp2
 70
     1
102
RTVSPropertyOp3
 70
     1
102
RTVSPropertyOp4
 70
     1
102
RTVSPropertyOp5
 70
     1
102
RTVSPropertyOp6
 70
     1
102
RTVSPropertyOp7
 70
     1
102
RTVSPropertyOp8
 70
     1
102
RTVSPropertyOp9
 70
     1
102
RTVSPropertyOp10
 70
     1
102
RTVSPropertyOp11
 70
     1
102
RTVSPropertyOp12
 70
     1
102
RTVSPropertyOp13
 70
     1
102
RTVSPropertyOp14
 70
     1
102
RTVSPropertyOp15
 70
     1
102
RTVSPropertyOp16
 70
     1
102
RTVSPropertyOp17
 70
     1
102
RTVSPropertyOp18
 70
     1
102
RTVSPropertyOp19
 70
     1
102
RTVSPropertyOp20
 70
     1
102
RTVSPropertyOp21
 70
     1
102
RTVSPropertyOp22
 70
     1
102
RTVSPropertyOp23
 70
     1
102
RTVSPropertyOp24
 70
     1
102
RTVSPropertyOp25
 70
     1
102
RTVSPropertyOp26
 70
     1
102
RTVSPropertyOp27
 70
     1
102
RTVSPropertyOp28
 70
     1
102
RTVSPropertyOp29
 70
     1
102
RTVSPropertyOp30
 70
     1
102
RTVSPropertyOp31
 70
     1
102
RTVSPropertyOp32
 70
     1
  0
XRECORD
  5
59F
102
{ACAD_REACTORS
330
59E
102
}
330
59E
100
AcDbXrecord
280
     1
102
RTVSPropertyOp0
 70
     1
102
RTVSPropertyOp1
 70
     1
102
RTVSPropertyOp2
 70
     1
102
RTVSPropertyOp3
 70
     1
102
RTVSPropertyOp4
 70
     1
102
RTVSPropertyOp5
 70
     1
102
RTVSPropertyOp6
 70
     1
102
RTVSPropertyOp7
 70
     1
102
RTVSPropertyOp8
 70
     1
102
RTVSPropertyOp9
 70
     1
102
RTVSPropertyOp10
 70
     1
102
RTVSPropertyOp11
 70
     1
102
RTVSPropertyOp12
 70
     1
102
RTVSPropertyOp13
 70
     1
102
RTVSPropertyOp14
 70
     1
102
RTVSPropertyOp15
 70
     1
102
RTVSPropertyOp16
 70
     1
102
RTVSPropertyOp17
 70
     1
102
RTVSPropertyOp18
 70
     1
102
RTVSPropertyOp19
 70
     1
102
RTVSPropertyOp20
 70
     1
102
RTVSPropertyOp21
 70
     1
102
RTVSPropertyOp22
 70
     1
102
RTVSPropertyOp23
 70
     1
102
RTVSPropertyOp24
 70
     1
102
RTVSPropertyOp25
 70
     1
102
RTVSPropertyOp26
 70
     1
102
RTVSPropertyOp27
 70
     1
102
RTVSPropertyOp28
 70
     1
102
RTVSPropertyOp29
 70
     1
102
RTVSPropertyOp30
 70
     1
102
RTVSPropertyOp31
 70
     1
102
RTVSPropertyOp32
 70
     1
  0
XRECORD
  5
591
102
{ACAD_REACTORS
330
590
102
}
330
590
100
AcDbXrecord
280
     1
102
RTVSPropertyOp0
 70
     1
102
RTVSPropertyOp1
 70
     1
102
RTVSPropertyOp2
 70
     1
102
RTVSPropertyOp3
 70
     1
102
RTVSPropertyOp4
 70
     1
102
RTVSPropertyOp5
 70
     1
102
RTVSPropertyOp6
 70
     1
102
RTVSPropertyOp7
 70
     1
102
RTVSPropertyOp8
 70
     1
102
RTVSPropertyOp9
 70
     1
102
RTVSPropertyOp10
 70
     1
102
RTVSPropertyOp11
 70
     1
102
RTVSPropertyOp12
 70
     1
102
RTVSPropertyOp13
 70
     1
102
RTVSPropertyOp14
 70
     1
102
RTVSPropertyOp15
 70
     1
102
RTVSPropertyOp16
 70
     1
102
RTVSPropertyOp17
 70
     1
102
RTVSPropertyOp18
 70
     1
102
RTVSPropertyOp19
 70
     1
102
RTVSPropertyOp20
 70
     1
102
RTVSPropertyOp21
 70
     1
102
RTVSPropertyOp22
 70
     1
102
RTVSPropertyOp23
 70
     1
102
RTVSPropertyOp24
 70
     1
102
RTVSPropertyOp25
 70
     1
102
RTVSPropertyOp26
 70
     1
102
RTVSPropertyOp27
 70
     1
102
RTVSPropertyOp28
 70
     1
102
RTVSPropertyOp29
 70
     1
102
RTVSPropertyOp30
 70
     1
102
RTVSPropertyOp31
 70
     1
102
RTVSPropertyOp32
 70
     1
  0
XRECORD
  5
595
102
{ACAD_REACTORS
330
594
102
}
330
594
100
AcDbXrecord
280
     1
102
RTVSPropertyOp0
 70
     1
102
RTVSPropertyOp1
 70
     1
102
RTVSPropertyOp2
 70
     1
102
RTVSPropertyOp3
 70
     1
102
RTVSPropertyOp4
 70
     1
102
RTVSPropertyOp5
 70
     1
102
RTVSPropertyOp6
 70
     1
102
RTVSPropertyOp7
 70
     1
102
RTVSPropertyOp8
 70
     1
102
RTVSPropertyOp9
 70
     1
102
RTVSPropertyOp10
 70
     1
102
RTVSPropertyOp11
 70
     1
102
RTVSPropertyOp12
 70
     1
102
RTVSPropertyOp13
 70
     1
102
RTVSPropertyOp14
 70
     1
102
RTVSPropertyOp15
 70
     1
102
RTVSPropertyOp16
 70
     1
102
RTVSPropertyOp17
 70
     1
102
RTVSPropertyOp18
 70
     1
102
RTVSPropertyOp19
 70
     1
102
RTVSPropertyOp20
 70
     1
102
RTVSPropertyOp21
 70
     1
102
RTVSPropertyOp22
 70
     1
102
RTVSPropertyOp23
 70
     1
102
RTVSPropertyOp24
 70
     1
102
RTVSPropertyOp25
 70
     1
102
RTVSPropertyOp26
 70
     1
102
RTVSPropertyOp27
 70
     1
102
RTVSPropertyOp28
 70
     1
102
RTVSPropertyOp29
 70
     1
102
RTVSPropertyOp30
 70
     1
102
RTVSPropertyOp31
 70
     1
102
RTVSPropertyOp32
 70
     1
  0
XRECORD
  5
5AF
102
{ACAD_REACTORS
330
5AE
102
}
330
5AE
100
AcDbXrecord
280
     1
102
RTVSPropertyOp0
 70
     0
102
RTVSPropertyOp1
 70
     0
102
RTVSPropertyOp2
 70
     0
102
RTVSPropertyOp3
 70
     0
102
RTVSPropertyOp4
 70
     0
102
RTVSPropertyOp5
 70
     0
102
RTVSPropertyOp6
 70
     0
102
RTVSPropertyOp7
 70
     0
102
RTVSPropertyOp8
 70
     0
102
RTVSPropertyOp9
 70
     0
102
RTVSPropertyOp10
 70
     0
102
RTVSPropertyOp11
 70
     0
102
RTVSPropertyOp12
 70
     0
102
RTVSPropertyOp13
 70
     0
102
RTVSPropertyOp14
 70
     2
102
RTVSPropertyOp15
 70
     0
102
RTVSPropertyOp16
 70
     0
102
RTVSPropertyOp17
 70
     0
102
RTVSPropertyOp18
 70
     0
102
RTVSPropertyOp19
 70
     0
102
RTVSPropertyOp20
 70
     0
102
RTVSPropertyOp21
 70
     0
102
RTVSPropertyOp22
 70
     0
102
RTVSPropertyOp23
 70
     0
102
RTVSPropertyOp24
 70
     0
102
RTVSPropertyOp25
 70
     0
102
RTVSPropertyOp26
 70
     0
102
RTVSPropertyOp27
 70
     0
102
RTVSPropertyOp28
 70
     1
102
RTVSPropertyOp29
 70
     1
102
RTVSPropertyOp30
 70
     1
102
RTVSPropertyOp31
 70
     1
102
RTVSPropertyOp32
 70
     1
  0
XRECORD
  5
59D
102
{ACAD_REACTORS
330
59C
102
}
330
59C
100
AcDbXrecord
280
     1
102
RTVSPropertyOp0
 70
     1
102
RTVSPropertyOp1
 70
     1
102
RTVSPropertyOp2
 70
     1
102
RTVSPropertyOp3
 70
     1
102
RTVSPropertyOp4
 70
     1
102
RTVSPropertyOp5
 70
     1
102
RTVSPropertyOp6
 70
     1
102
RTVSPropertyOp7
 70
     1
102
RTVSPropertyOp8
 70
     1
102
RTVSPropertyOp9
 70
     1
102
RTVSPropertyOp10
 70
     1
102
RTVSPropertyOp11
 70
     1
102
RTVSPropertyOp12
 70
     1
102
RTVSPropertyOp13
 70
     1
102
RTVSPropertyOp14
 70
     1
102
RTVSPropertyOp15
 70
     1
102
RTVSPropertyOp16
 70
     1
102
RTVSPropertyOp17
 70
     1
102
RTVSPropertyOp18
 70
     1
102
RTVSPropertyOp19
 70
     1
102
RTVSPropertyOp20
 70
     1
102
RTVSPropertyOp21
 70
     1
102
RTVSPropertyOp22
 70
     1
102
RTVSPropertyOp23
 70
     1
102
RTVSPropertyOp24
 70
     1
102
RTVSPropertyOp25
 70
     1
102
RTVSPropertyOp26
 70
     1
102
RTVSPropertyOp27
 70
     1
102
RTVSPropertyOp28
 70
     1
102
RTVSPropertyOp29
 70
     1
102
RTVSPropertyOp30
 70
     1
102
RTVSPropertyOp31
 70
     1
102
RTVSPropertyOp32
 70
     1
  0
XRECORD
  5
581
102
{ACAD_REACTORS
330
580
102
}
330
580
100
AcDbXrecord
280
     1
102
RTVSPropertyOp0
 70
     1
102
RTVSPropertyOp1
 70
     1
102
RTVSPropertyOp2
 70
     1
102
RTVSPropertyOp3
 70
     1
102
RTVSPropertyOp4
 70
     1
102
RTVSPropertyOp5
 70
     1
102
RTVSPropertyOp6
 70
     1
102
RTVSPropertyOp7
 70
     1
102
RTVSPropertyOp8
 70
     1
102
RTVSPropertyOp9
 70
     1
102
RTVSPropertyOp10
 70
     1
102
RTVSPropertyOp11
 70
     1
102
RTVSPropertyOp12
 70
     1
102
RTVSPropertyOp13
 70
     1
102
RTVSPropertyOp14
 70
     1
102
RTVSPropertyOp15
 70
     1
102
RTVSPropertyOp16
 70
     1
102
RTVSPropertyOp17
 70
     1
102
RTVSPropertyOp18
 70
     1
102
RTVSPropertyOp19
 70
     1
102
RTVSPropertyOp20
 70
     1
102
RTVSPropertyOp21
 70
     1
102
RTVSPropertyOp22
 70
     1
102
RTVSPropertyOp23
 70
     1
102
RTVSPropertyOp24
 70
     1
102
RTVSPropertyOp25
 70
     1
102
RTVSPropertyOp26
 70
     1
102
RTVSPropertyOp27
 70
     1
102
RTVSPropertyOp28
 70
     1
102
RTVSPropertyOp29
 70
     1
102
RTVSPropertyOp30
 70
     1
102
RTVSPropertyOp31
 70
     1
102
RTVSPropertyOp32
 70
     1
  0
XRECORD
  5
583
102
{ACAD_REACTORS
330
582
102
}
330
582
100
AcDbXrecord
280
     1
102
RTVSPropertyOp0
 70
     1
102
RTVSPropertyOp1
 70
     1
102
RTVSPropertyOp2
 70
     1
102
RTVSPropertyOp3
 70
     1
102
RTVSPropertyOp4
 70
     1
102
RTVSPropertyOp5
 70
     1
102
RTVSPropertyOp6
 70
     1
102
RTVSPropertyOp7
 70
     1
102
RTVSPropertyOp8
 70
     1
102
RTVSPropertyOp9
 70
     1
102
RTVSPropertyOp10
 70
     1
102
RTVSPropertyOp11
 70
     1
102
RTVSPropertyOp12
 70
     1
102
RTVSPropertyOp13
 70
     1
102
RTVSPropertyOp14
 70
     1
102
RTVSPropertyOp15
 70
     1
102
RTVSPropertyOp16
 70
     1
102
RTVSPropertyOp17
 70
     1
102
RTVSPropertyOp18
 70
     1
102
RTVSPropertyOp19
 70
     1
102
RTVSPropertyOp20
 70
     1
102
RTVSPropertyOp21
 70
     1
102
RTVSPropertyOp22
 70
     1
102
RTVSPropertyOp23
 70
     1
102
RTVSPropertyOp24
 70
     1
102
RTVSPropertyOp25
 70
     1
102
RTVSPropertyOp26
 70
     1
102
RTVSPropertyOp27
 70
     1
102
RTVSPropertyOp28
 70
     1
102
RTVSPropertyOp29
 70
     1
102
RTVSPropertyOp30
 70
     1
102
RTVSPropertyOp31
 70
     1
102
RTVSPropertyOp32
 70
     1
  0
XRECORD
  5
585
102
{ACAD_REACTORS
330
584
102
}
330
584
100
AcDbXrecord
280
     1
102
RTVSPropertyOp0
 70
     1
102
RTVSPropertyOp1
 70
     1
102
RTVSPropertyOp2
 70
     1
102
RTVSPropertyOp3
 70
     1
102
RTVSPropertyOp4
 70
     1
102
RTVSPropertyOp5
 70
     1
102
RTVSPropertyOp6
 70
     1
102
RTVSPropertyOp7
 70
     1
102
RTVSPropertyOp8
 70
     1
102
RTVSPropertyOp9
 70
     1
102
RTVSPropertyOp10
 70
     1
102
RTVSPropertyOp11
 70
     1
102
RTVSPropertyOp12
 70
     1
102
RTVSPropertyOp13
 70
     1
102
RTVSPropertyOp14
 70
     1
102
RTVSPropertyOp15
 70
     1
102
RTVSPropertyOp16
 70
     1
102
RTVSPropertyOp17
 70
     1
102
RTVSPropertyOp18
 70
     1
102
RTVSPropertyOp19
 70
     1
102
RTVSPropertyOp20
 70
     1
102
RTVSPropertyOp21
 70
     1
102
RTVSPropertyOp22
 70
     1
102
RTVSPropertyOp23
 70
     1
102
RTVSPropertyOp24
 70
     1
102
RTVSPropertyOp25
 70
     1
102
RTVSPropertyOp26
 70
     1
102
RTVSPropertyOp27
 70
     1
102
RTVSPropertyOp28
 70
     1
102
RTVSPropertyOp29
 70
     1
102
RTVSPropertyOp30
 70
     1
102
RTVSPropertyOp31
 70
     1
102
RTVSPropertyOp32
 70
     1
  0
XRECORD
  5
587
102
{ACAD_REACTORS
330
586
102
}
330
586
100
AcDbXrecord
280
     1
102
RTVSPropertyOp0
 70
     1
102
RTVSPropertyOp1
 70
     1
102
RTVSPropertyOp2
 70
     1
102
RTVSPropertyOp3
 70
     1
102
RTVSPropertyOp4
 70
     1
102
RTVSPropertyOp5
 70
     1
102
RTVSPropertyOp6
 70
     1
102
RTVSPropertyOp7
 70
     1
102
RTVSPropertyOp8
 70
     1
102
RTVSPropertyOp9
 70
     1
102
RTVSPropertyOp10
 70
     1
102
RTVSPropertyOp11
 70
     1
102
RTVSPropertyOp12
 70
     1
102
RTVSPropertyOp13
 70
     1
102
RTVSPropertyOp14
 70
     1
102
RTVSPropertyOp15
 70
     1
102
RTVSPropertyOp16
 70
     1
102
RTVSPropertyOp17
 70
     1
102
RTVSPropertyOp18
 70
     1
102
RTVSPropertyOp19
 70
     1
102
RTVSPropertyOp20
 70
     1
102
RTVSPropertyOp21
 70
     1
102
RTVSPropertyOp22
 70
     1
102
RTVSPropertyOp23
 70
     1
102
RTVSPropertyOp24
 70
     1
102
RTVSPropertyOp25
 70
     1
102
RTVSPropertyOp26
 70
     1
102
RTVSPropertyOp27
 70
     1
102
RTVSPropertyOp28
 70
     1
102
RTVSPropertyOp29
 70
     1
102
RTVSPropertyOp30
 70
     1
102
RTVSPropertyOp31
 70
     1
102
RTVSPropertyOp32
 70
     1
  0
XRECORD
  5
58F
102
{ACAD_REACTORS
330
58E
102
}
330
58E
100
AcDbXrecord
280
     1
102
RTVSPropertyOp0
 70
     1
102
RTVSPropertyOp1
 70
     1
102
RTVSPropertyOp2
 70
     1
102
RTVSPropertyOp3
 70
     1
102
RTVSPropertyOp4
 70
     1
102
RTVSPropertyOp5
 70
     1
102
RTVSPropertyOp6
 70
     1
102
RTVSPropertyOp7
 70
     1
102
RTVSPropertyOp8
 70
     1
102
RTVSPropertyOp9
 70
     1
102
RTVSPropertyOp10
 70
     1
102
RTVSPropertyOp11
 70
     1
102
RTVSPropertyOp12
 70
     1
102
RTVSPropertyOp13
 70
     1
102
RTVSPropertyOp14
 70
     1
102
RTVSPropertyOp15
 70
     1
102
RTVSPropertyOp16
 70
     1
102
RTVSPropertyOp17
 70
     1
102
RTVSPropertyOp18
 70
     1
102
RTVSPropertyOp19
 70
     1
102
RTVSPropertyOp20
 70
     1
102
RTVSPropertyOp21
 70
     1
102
RTVSPropertyOp22
 70
     1
102
RTVSPropertyOp23
 70
     1
102
RTVSPropertyOp24
 70
     1
102
RTVSPropertyOp25
 70
     1
102
RTVSPropertyOp26
 70
     1
102
RTVSPropertyOp27
 70
     1
102
RTVSPropertyOp28
 70
     1
102
RTVSPropertyOp29
 70
     1
102
RTVSPropertyOp30
 70
     1
102
RTVSPropertyOp31
 70
     1
102
RTVSPropertyOp32
 70
     1
  0
XRECORD
  5
5AB
102
{ACAD_REACTORS
330
5AA
102
}
330
5AA
100
AcDbXrecord
280
     1
102
RTVSPropertyOp0
 70
     0
102
RTVSPropertyOp1
 70
     0
102
RTVSPropertyOp2
 70
     0
102
RTVSPropertyOp3
 70
     0
102
RTVSPropertyOp4
 70
     0
102
RTVSPropertyOp5
 70
     0
102
RTVSPropertyOp6
 70
     0
102
RTVSPropertyOp7
 70
     0
102
RTVSPropertyOp8
 70
     0
102
RTVSPropertyOp9
 70
     0
102
RTVSPropertyOp10
 70
     0
102
RTVSPropertyOp11
 70
     0
102
RTVSPropertyOp12
 70
     0
102
RTVSPropertyOp13
 70
     0
102
RTVSPropertyOp14
 70
     2
102
RTVSPropertyOp15
 70
     0
102
RTVSPropertyOp16
 70
     0
102
RTVSPropertyOp17
 70
     0
102
RTVSPropertyOp18
 70
     0
102
RTVSPropertyOp19
 70
     0
102
RTVSPropertyOp20
 70
     0
102
RTVSPropertyOp21
 70
     0
102
RTVSPropertyOp22
 70
     0
102
RTVSPropertyOp23
 70
     0
102
RTVSPropertyOp24
 70
     0
102
RTVSPropertyOp25
 70
     0
102
RTVSPropertyOp26
 70
     0
102
RTVSPropertyOp27
 70
     0
102
RTVSPropertyOp28
 70
     1
102
RTVSPropertyOp29
 70
     1
102
RTVSPropertyOp30
 70
     1
102
RTVSPropertyOp31
 70
     1
102
RTVSPropertyOp32
 70
     1
  0
XRECORD
  5
59B
102
{ACAD_REACTORS
330
59A
102
}
330
59A
100
AcDbXrecord
280
     1
102
RTVSPropertyOp0
 70
     1
102
RTVSPropertyOp1
 70
     1
102
RTVSPropertyOp2
 70
     1
102
RTVSPropertyOp3
 70
     1
102
RTVSPropertyOp4
 70
     1
102
RTVSPropertyOp5
 70
     1
102
RTVSPropertyOp6
 70
     1
102
RTVSPropertyOp7
 70
     1
102
RTVSPropertyOp8
 70
     1
102
RTVSPropertyOp9
 70
     1
102
RTVSPropertyOp10
 70
     1
102
RTVSPropertyOp11
 70
     1
102
RTVSPropertyOp12
 70
     1
102
RTVSPropertyOp13
 70
     1
102
RTVSPropertyOp14
 70
     1
102
RTVSPropertyOp15
 70
     1
102
RTVSPropertyOp16
 70
     1
102
RTVSPropertyOp17
 70
     1
102
RTVSPropertyOp18
 70
     1
102
RTVSPropertyOp19
 70
     1
102
RTVSPropertyOp20
 70
     1
102
RTVSPropertyOp21
 70
     1
102
RTVSPropertyOp22
 70
     1
102
RTVSPropertyOp23
 70
     1
102
RTVSPropertyOp24
 70
     1
102
RTVSPropertyOp25
 70
     1
102
RTVSPropertyOp26
 70
     1
102
RTVSPropertyOp27
 70
     1
102
RTVSPropertyOp28
 70
     1
102
RTVSPropertyOp29
 70
     1
102
RTVSPropertyOp30
 70
     1
102
RTVSPropertyOp31
 70
     1
102
RTVSPropertyOp32
 70
     1
  0
XRECORD
  5
5AD
102
{ACAD_REACTORS
330
5AC
102
}
330
5AC
100
AcDbXrecord
280
     1
102
RTVSPropertyOp0
 70
     0
102
RTVSPropertyOp1
 70
     0
102
RTVSPropertyOp2
 70
     0
102
RTVSPropertyOp3
 70
     0
102
RTVSPropertyOp4
 70
     0
102
RTVSPropertyOp5
 70
     0
102
RTVSPropertyOp6
 70
     0
102
RTVSPropertyOp7
 70
     0
102
RTVSPropertyOp8
 70
     0
102
RTVSPropertyOp9
 70
     0
102
RTVSPropertyOp10
 70
     0
102
RTVSPropertyOp11
 70
     0
102
RTVSPropertyOp12
 70
     0
102
RTVSPropertyOp13
 70
     0
102
RTVSPropertyOp14
 70
     2
102
RTVSPropertyOp15
 70
     0
102
RTVSPropertyOp16
 70
     0
102
RTVSPropertyOp17
 70
     0
102
RTVSPropertyOp18
 70
     0
102
RTVSPropertyOp19
 70
     0
102
RTVSPropertyOp20
 70
     0
102
RTVSPropertyOp21
 70
     0
102
RTVSPropertyOp22
 70
     0
102
RTVSPropertyOp23
 70
     0
102
RTVSPropertyOp24
 70
     0
102
RTVSPropertyOp25
 70
     0
102
RTVSPropertyOp26
 70
     0
102
RTVSPropertyOp27
 70
     0
102
RTVSPropertyOp28
 70
     1
102
RTVSPropertyOp29
 70
     1
102
RTVSPropertyOp30
 70
     1
102
RTVSPropertyOp31
 70
     1
102
RTVSPropertyOp32
 70
     1
  0
XRECORD
  5
593
102
{ACAD_REACTORS
330
592
102
}
330
592
100
AcDbXrecord
280
     1
102
RTVSPropertyOp0
 70
     1
102
RTVSPropertyOp1
 70
     1
102
RTVSPropertyOp2
 70
     1
102
RTVSPropertyOp3
 70
     1
102
RTVSPropertyOp4
 70
     1
102
RTVSPropertyOp5
 70
     1
102
RTVSPropertyOp6
 70
     1
102
RTVSPropertyOp7
 70
     1
102
RTVSPropertyOp8
 70
     1
102
RTVSPropertyOp9
 70
     1
102
RTVSPropertyOp10
 70
     1
102
RTVSPropertyOp11
 70
     1
102
RTVSPropertyOp12
 70
     1
102
RTVSPropertyOp13
 70
     1
102
RTVSPropertyOp14
 70
     1
102
RTVSPropertyOp15
 70
     1
102
RTVSPropertyOp16
 70
     1
102
RTVSPropertyOp17
 70
     1
102
RTVSPropertyOp18
 70
     1
102
RTVSPropertyOp19
 70
     1
102
RTVSPropertyOp20
 70
     1
102
RTVSPropertyOp21
 70
     1
102
RTVSPropertyOp22
 70
     1
102
RTVSPropertyOp23
 70
     1
102
RTVSPropertyOp24
 70
     1
102
RTVSPropertyOp25
 70
     1
102
RTVSPropertyOp26
 70
     1
102
RTVSPropertyOp27
 70
     1
102
RTVSPropertyOp28
 70
     1
102
RTVSPropertyOp29
 70
     1
102
RTVSPropertyOp30
 70
     1
102
RTVSPropertyOp31
 70
     1
102
RTVSPropertyOp32
 70
     1
  0
XRECORD
  5
5A9
102
{ACAD_REACTORS
330
5A8
102
}
330
5A8
100
AcDbXrecord
280
     1
102
RTVSPropertyOp0
 70
     1
102
RTVSPropertyOp1
 70
     1
102
RTVSPropertyOp2
 70
     1
102
RTVSPropertyOp3
 70
     1
102
RTVSPropertyOp4
 70
     1
102
RTVSPropertyOp5
 70
     1
102
RTVSPropertyOp6
 70
     1
102
RTVSPropertyOp7
 70
     1
102
RTVSPropertyOp8
 70
     1
102
RTVSPropertyOp9
 70
     1
102
RTVSPropertyOp10
 70
     1
102
RTVSPropertyOp11
 70
     1
102
RTVSPropertyOp12
 70
     1
102
RTVSPropertyOp13
 70
     1
102
RTVSPropertyOp14
 70
     1
102
RTVSPropertyOp15
 70
     1
102
RTVSPropertyOp16
 70
     1
102
RTVSPropertyOp17
 70
     1
102
RTVSPropertyOp18
 70
     1
102
RTVSPropertyOp19
 70
     1
102
RTVSPropertyOp20
 70
     1
102
RTVSPropertyOp21
 70
     1
102
RTVSPropertyOp22
 70
     1
102
RTVSPropertyOp23
 70
     1
102
RTVSPropertyOp24
 70
     1
102
RTVSPropertyOp25
 70
     1
102
RTVSPropertyOp26
 70
     1
102
RTVSPropertyOp27
 70
     1
102
RTVSPropertyOp28
 70
     1
102
RTVSPropertyOp29
 70
     1
102
RTVSPropertyOp30
 70
     1
102
RTVSPropertyOp31
 70
     1
102
RTVSPropertyOp32
 70
     1
  0
XRECORD
  5
5A7
102
{ACAD_REACTORS
330
5A6
102
}
330
5A6
100
AcDbXrecord
280
     1
102
RTVSPropertyOp0
 70
     1
102
RTVSPropertyOp1
 70
     1
102
RTVSPropertyOp2
 70
     1
102
RTVSPropertyOp3
 70
     1
102
RTVSPropertyOp4
 70
     1
102
RTVSPropertyOp5
 70
     1
102
RTVSPropertyOp6
 70
     1
102
RTVSPropertyOp7
 70
     1
102
RTVSPropertyOp8
 70
     1
102
RTVSPropertyOp9
 70
     1
102
RTVSPropertyOp10
 70
     1
102
RTVSPropertyOp11
 70
     1
102
RTVSPropertyOp12
 70
     1
102
RTVSPropertyOp13
 70
     1
102
RTVSPropertyOp14
 70
     1
102
RTVSPropertyOp15
 70
     1
102
RTVSPropertyOp16
 70
     1
102
RTVSPropertyOp17
 70
     1
102
RTVSPropertyOp18
 70
     1
102
RTVSPropertyOp19
 70
     1
102
RTVSPropertyOp20
 70
     1
102
RTVSPropertyOp21
 70
     1
102
RTVSPropertyOp22
 70
     1
102
RTVSPropertyOp23
 70
     1
102
RTVSPropertyOp24
 70
     1
102
RTVSPropertyOp25
 70
     1
102
RTVSPropertyOp26
 70
     1
102
RTVSPropertyOp27
 70
     1
102
RTVSPropertyOp28
 70
     1
102
RTVSPropertyOp29
 70
     1
102
RTVSPropertyOp30
 70
     1
102
RTVSPropertyOp31
 70
     1
102
RTVSPropertyOp32
 70
     1
  0
XRECORD
  5
5A1
102
{ACAD_REACTORS
330
5A0
102
}
330
5A0
100
AcDbXrecord
280
     1
102
RTVSPropertyOp0
 70
     1
102
RTVSPropertyOp1
 70
     1
102
RTVSPropertyOp2
 70
     1
102
RTVSPropertyOp3
 70
     1
102
RTVSPropertyOp4
 70
     1
102
RTVSPropertyOp5
 70
     1
102
RTVSPropertyOp6
 70
     1
102
RTVSPropertyOp7
 70
     1
102
RTVSPropertyOp8
 70
     1
102
RTVSPropertyOp9
 70
     1
102
RTVSPropertyOp10
 70
     1
102
RTVSPropertyOp11
 70
     1
102
RTVSPropertyOp12
 70
     1
102
RTVSPropertyOp13
 70
     1
102
RTVSPropertyOp14
 70
     1
102
RTVSPropertyOp15
 70
     1
102
RTVSPropertyOp16
 70
     1
102
RTVSPropertyOp17
 70
     1
102
RTVSPropertyOp18
 70
     1
102
RTVSPropertyOp19
 70
     1
102
RTVSPropertyOp20
 70
     1
102
RTVSPropertyOp21
 70
     1
102
RTVSPropertyOp22
 70
     1
102
RTVSPropertyOp23
 70
     1
102
RTVSPropertyOp24
 70
     1
102
RTVSPropertyOp25
 70
     1
102
RTVSPropertyOp26
 70
     1
102
RTVSPropertyOp27
 70
     1
102
RTVSPropertyOp28
 70
     1
102
RTVSPropertyOp29
 70
     1
102
RTVSPropertyOp30
 70
     1
102
RTVSPropertyOp31
 70
     1
102
RTVSPropertyOp32
 70
     1
  0
XRECORD
  5
5A3
102
{ACAD_REACTORS
330
5A2
102
}
330
5A2
100
AcDbXrecord
280
     1
102
RTVSPropertyOp0
 70
     1
102
RTVSPropertyOp1
 70
     1
102
RTVSPropertyOp2
 70
     1
102
RTVSPropertyOp3
 70
     1
102
RTVSPropertyOp4
 70
     1
102
RTVSPropertyOp5
 70
     1
102
RTVSPropertyOp6
 70
     1
102
RTVSPropertyOp7
 70
     1
102
RTVSPropertyOp8
 70
     1
102
RTVSPropertyOp9
 70
     1
102
RTVSPropertyOp10
 70
     1
102
RTVSPropertyOp11
 70
     1
102
RTVSPropertyOp12
 70
     1
102
RTVSPropertyOp13
 70
     1
102
RTVSPropertyOp14
 70
     1
102
RTVSPropertyOp15
 70
     1
102
RTVSPropertyOp16
 70
     1
102
RTVSPropertyOp17
 70
     1
102
RTVSPropertyOp18
 70
     1
102
RTVSPropertyOp19
 70
     1
102
RTVSPropertyOp20
 70
     1
102
RTVSPropertyOp21
 70
     1
102
RTVSPropertyOp22
 70
     1
102
RTVSPropertyOp23
 70
     1
102
RTVSPropertyOp24
 70
     1
102
RTVSPropertyOp25
 70
     1
102
RTVSPropertyOp26
 70
     1
102
RTVSPropertyOp27
 70
     1
102
RTVSPropertyOp28
 70
     1
102
RTVSPropertyOp29
 70
     1
102
RTVSPropertyOp30
 70
     1
102
RTVSPropertyOp31
 70
     1
102
RTVSPropertyOp32
 70
     1
  0
XRECORD
  5
599
102
{ACAD_REACTORS
330
598
102
}
330
598
100
AcDbXrecord
280
     1
102
RTVSPropertyOp0
 70
     1
102
RTVSPropertyOp1
 70
     1
102
RTVSPropertyOp2
 70
     1
102
RTVSPropertyOp3
 70
     1
102
RTVSPropertyOp4
 70
     1
102
RTVSPropertyOp5
 70
     1
102
RTVSPropertyOp6
 70
     1
102
RTVSPropertyOp7
 70
     1
102
RTVSPropertyOp8
 70
     1
102
RTVSPropertyOp9
 70
     1
102
RTVSPropertyOp10
 70
     1
102
RTVSPropertyOp11
 70
     1
102
RTVSPropertyOp12
 70
     1
102
RTVSPropertyOp13
 70
     1
102
RTVSPropertyOp14
 70
     1
102
RTVSPropertyOp15
 70
     1
102
RTVSPropertyOp16
 70
     1
102
RTVSPropertyOp17
 70
     1
102
RTVSPropertyOp18
 70
     1
102
RTVSPropertyOp19
 70
     1
102
RTVSPropertyOp20
 70
     1
102
RTVSPropertyOp21
 70
     1
102
RTVSPropertyOp22
 70
     1
102
RTVSPropertyOp23
 70
     1
102
RTVSPropertyOp24
 70
     1
102
RTVSPropertyOp25
 70
     1
102
RTVSPropertyOp26
 70
     1
102
RTVSPropertyOp27
 70
     1
102
RTVSPropertyOp28
 70
     1
102
RTVSPropertyOp29
 70
     1
102
RTVSPropertyOp30
 70
     1
102
RTVSPropertyOp31
 70
     1
102
RTVSPropertyOp32
 70
     1
  0
XRECORD
  5
58D
102
{ACAD_REACTORS
330
58C
102
}
330
58C
100
AcDbXrecord
280
     1
102
RTVSPropertyOp0
 70
     1
102
RTVSPropertyOp1
 70
     1
102
RTVSPropertyOp2
 70
     1
102
RTVSPropertyOp3
 70
     1
102
RTVSPropertyOp4
 70
     1
102
RTVSPropertyOp5
 70
     1
102
RTVSPropertyOp6
 70
     1
102
RTVSPropertyOp7
 70
     1
102
RTVSPropertyOp8
 70
     1
102
RTVSPropertyOp9
 70
     1
102
RTVSPropertyOp10
 70
     1
102
RTVSPropertyOp11
 70
     1
102
RTVSPropertyOp12
 70
     1
102
RTVSPropertyOp13
 70
     1
102
RTVSPropertyOp14
 70
     1
102
RTVSPropertyOp15
 70
     1
102
RTVSPropertyOp16
 70
     1
102
RTVSPropertyOp17
 70
     1
102
RTVSPropertyOp18
 70
     1
102
RTVSPropertyOp19
 70
     1
102
RTVSPropertyOp20
 70
     1
102
RTVSPropertyOp21
 70
     1
102
RTVSPropertyOp22
 70
     1
102
RTVSPropertyOp23
 70
     1
102
RTVSPropertyOp24
 70
     1
102
RTVSPropertyOp25
 70
     1
102
RTVSPropertyOp26
 70
     1
102
RTVSPropertyOp27
 70
     1
102
RTVSPropertyOp28
 70
     1
102
RTVSPropertyOp29
 70
     1
102
RTVSPropertyOp30
 70
     1
102
RTVSPropertyOp31
 70
     1
102
RTVSPropertyOp32
 70
     1
  0
XRECORD
  5
5A5
102
{ACAD_REACTORS
330
5A4
102
}
330
5A4
100
AcDbXrecord
280
     1
102
RTVSPropertyOp0
 70
     1
102
RTVSPropertyOp1
 70
     1
102
RTVSPropertyOp2
 70
     1
102
RTVSPropertyOp3
 70
     1
102
RTVSPropertyOp4
 70
     1
102
RTVSPropertyOp5
 70
     1
102
RTVSPropertyOp6
 70
     1
102
RTVSPropertyOp7
 70
     1
102
RTVSPropertyOp8
 70
     1
102
RTVSPropertyOp9
 70
     1
102
RTVSPropertyOp10
 70
     1
102
RTVSPropertyOp11
 70
     1
102
RTVSPropertyOp12
 70
     1
102
RTVSPropertyOp13
 70
     1
102
RTVSPropertyOp14
 70
     1
102
RTVSPropertyOp15
 70
     1
102
RTVSPropertyOp16
 70
     1
102
RTVSPropertyOp17
 70
     1
102
RTVSPropertyOp18
 70
     1
102
RTVSPropertyOp19
 70
     1
102
RTVSPropertyOp20
 70
     1
102
RTVSPropertyOp21
 70
     1
102
RTVSPropertyOp22
 70
     1
102
RTVSPropertyOp23
 70
     1
102
RTVSPropertyOp24
 70
     1
102
RTVSPropertyOp25
 70
     1
102
RTVSPropertyOp26
 70
     1
102
RTVSPropertyOp27
 70
     1
102
RTVSPropertyOp28
 70
     1
102
RTVSPropertyOp29
 70
     1
102
RTVSPropertyOp30
 70
     1
102
RTVSPropertyOp31
 70
     1
102
RTVSPropertyOp32
 70
     1
  0
ENDSEC
  0
EOF
