  0
SECTION
  2
HEADER
  9
$ACADVER
  1
AC1015
  9
$ACADMAINTVER
 70
    20
  9
$DWGCODEPAGE
  3
ANSI_932
  9
$INSBASE
 10
0.0
 20
0.0
 30
0.0
  9
$EXTMIN
 10
-0.0128164049386896
 20
-0.027189087619945
 30
-0.0015258207003583
  9
$EXTMAX
 10
420.0128183607161
 20
297.0362562658688
 30
0.0000000349246037
  9
$LIMMIN
 10
0.0
 20
0.0
  9
$LIMMAX
 10
420.0
 20
297.0
  9
$ORTHOMODE
 70
     1
  9
$REGENMODE
 70
     1
  9
$FILLMODE
 70
     1
  9
$QTEXTMODE
 70
     0
  9
$MIRRTEXT
 70
     1
  9
$LTSCALE
 40
8.4
  9
$ATTMODE
 70
     1
  9
$TEXTSIZE
 40
0.2
  9
$TRACEWID
 40
0.05
  9
$TEXTSTYLE
  7
STANDARD
  9
$CLAYER
  8
0
  9
$CELTYPE
  6
CONTINUOUS
  9
$CECOLOR
 62
   256
  9
$CELTSCALE
 40
1.0
  9
$DISPSILH
 70
     0
  9
$DIMSCALE
 40
1.0
  9
$DIMASZ
 40
0.18
  9
$DIMEXO
 40
0.0625
  9
$DIMDLI
 40
0.38
  9
$DIMRND
 40
0.0
  9
$DIMDLE
 40
0.0
  9
$DIMEXE
 40
0.18
  9
$DIMTP
 40
0.0
  9
$DIMTM
 40
0.0
  9
$DIMTXT
 40
0.18
  9
$DIMCEN
 40
0.09
  9
$DIMTSZ
 40
0.0
  9
$DIMTOL
 70
     0
  9
$DIMLIM
 70
     0
  9
$DIMTIH
 70
     1
  9
$DIMTOH
 70
     1
  9
$DIMSE1
 70
     0
  9
$DIMSE2
 70
     0
  9
$DIMTAD
 70
     0
  9
$DIMZIN
 70
     0
  9
$DIMBLK
  1

  9
$DIMASO
 70
     1
  9
$DIMSHO
 70
     1
  9
$DIMPOST
  1

  9
$DIMAPOST
  1

  9
$DIMALT
 70
     0
  9
$DIMALTD
 70
     2
  9
$DIMALTF
 40
25.4
  9
$DIMLFAC
 40
1.0
  9
$DIMTOFL
 70
     0
  9
$DIMTVP
 40
0.0
  9
$DIMTIX
 70
     0
  9
$DIMSOXD
 70
     0
  9
$DIMSAH
 70
     0
  9
$DIMBLK1
  1

  9
$DIMBLK2
  1

  9
$DIMSTYLE
  2
STANDARD
  9
$DIMCLRD
 70
     0
  9
$DIMCLRE
 70
     0
  9
$DIMCLRT
 70
     0
  9
$DIMTFAC
 40
1.0
  9
$DIMGAP
 40
0.09
  9
$DIMJUST
 70
     0
  9
$DIMSD1
 70
     0
  9
$DIMSD2
 70
     0
  9
$DIMTOLJ
 70
     1
  9
$DIMTZIN
 70
     0
  9
$DIMALTZ
 70
     0
  9
$DIMALTTZ
 70
     0
  9
$DIMUPT
 70
     0
  9
$DIMDEC
 70
     4
  9
$DIMTDEC
 70
     4
  9
$DIMALTU
 70
     2
  9
$DIMALTTD
 70
     2
  9
$DIMTXSTY
  7
STANDARD
  9
$DIMAUNIT
 70
     0
  9
$DIMADEC
 70
     0
  9
$DIMALTRND
 40
0.0
  9
$DIMAZIN
 70
     0
  9
$DIMDSEP
 70
    46
  9
$DIMATFIT
 70
     3
  9
$DIMFRAC
 70
     0
  9
$DIMLDRBLK
  1

  9
$DIMLUNIT
 70
     2
  9
$DIMLWD
 70
    -2
  9
$DIMLWE
 70
    -2
  9
$DIMTMOVE
 70
     0
  9
$LUNITS
 70
     2
  9
$LUPREC
 70
     4
  9
$SKETCHINC
 40
0.1
  9
$FILLETRAD
 40
0.0
  9
$AUNITS
 70
     0
  9
$AUPREC
 70
     0
  9
$MENU
  1
.
  9
$ELEVATION
 40
0.0
  9
$PELEVATION
 40
0.0
  9
$THICKNESS
 40
0.0
  9
$LIMCHECK
 70
     0
  9
$CHAMFERA
 40
0.0
  9
$CHAMFERB
 40
0.0
  9
$CHAMFERC
 40
0.0
  9
$CHAMFERD
 40
0.0
  9
$SKPOLY
 70
     0
  9
$TDCREATE
 40
2451212.682759178
  9
$TDUCREATE
 40
2451212.307759178
  9
$TDUPDATE
 40
2458689.358174294
  9
$TDUUPDATE
 40
2458688.983174294
  9
$TDINDWG
 40
0.0201780093
  9
$TDUSRTIMER
 40
0.0201780093
  9
$USRTIMER
 70
     1
  9
$ANGBASE
 50
0.0
  9
$ANGDIR
 70
     0
  9
$PDMODE
 70
     0
  9
$PDSIZE
 40
0.0
  9
$PLINEWID
 40
0.0
  9
$SPLFRAME
 70
     0
  9
$SPLINETYPE
 70
     6
  9
$SPLINESEGS
 70
     8
  9
$HANDSEED
  5
B2B
  9
$SURFTAB1
 70
     6
  9
$SURFTAB2
 70
     6
  9
$SURFTYPE
 70
     6
  9
$SURFU
 70
     6
  9
$SURFV
 70
     6
  9
$UCSBASE
  2

  9
$UCSNAME
  2

  9
$UCSORG
 10
0.0
 20
0.0
 30
0.0
  9
$UCSXDIR
 10
1.0
 20
0.0
 30
0.0
  9
$UCSYDIR
 10
0.0
 20
1.0
 30
0.0
  9
$UCSORTHOREF
  2

  9
$UCSORTHOVIEW
 70
     0
  9
$UCSORGTOP
 10
0.0
 20
0.0
 30
0.0
  9
$UCSORGBOTTOM
 10
0.0
 20
0.0
 30
0.0
  9
$UCSORGLEFT
 10
0.0
 20
0.0
 30
0.0
  9
$UCSORGRIGHT
 10
0.0
 20
0.0
 30
0.0
  9
$UCSORGFRONT
 10
0.0
 20
0.0
 30
0.0
  9
$UCSORGBACK
 10
0.0
 20
0.0
 30
0.0
  9
$PUCSBASE
  2

  9
$PUCSNAME
  2

  9
$PUCSORG
 10
0.0
 20
0.0
 30
0.0
  9
$PUCSXDIR
 10
1.0
 20
0.0
 30
0.0
  9
$PUCSYDIR
 10
0.0
 20
1.0
 30
0.0
  9
$PUCSORTHOREF
  2

  9
$PUCSORTHOVIEW
 70
     0
  9
$PUCSORGTOP
 10
0.0
 20
0.0
 30
0.0
  9
$PUCSORGBOTTOM
 10
0.0
 20
0.0
 30
0.0
  9
$PUCSORGLEFT
 10
0.0
 20
0.0
 30
0.0
  9
$PUCSORGRIGHT
 10
0.0
 20
0.0
 30
0.0
  9
$PUCSORGFRONT
 10
0.0
 20
0.0
 30
0.0
  9
$PUCSORGBACK
 10
0.0
 20
0.0
 30
0.0
  9
$USERI1
 70
     0
  9
$USERI2
 70
     0
  9
$USERI3
 70
     0
  9
$USERI4
 70
     0
  9
$USERI5
 70
     0
  9
$USERR1
 40
0.0
  9
$USERR2
 40
0.0
  9
$USERR3
 40
0.0
  9
$USERR4
 40
0.0
  9
$USERR5
 40
0.0
  9
$WORLDVIEW
 70
     1
  9
$SHADEDGE
 70
     3
  9
$SHADEDIF
 70
    70
  9
$TILEMODE
 70
     1
  9
$MAXACTVP
 70
    16
  9
$PINSBASE
 10
0.0
 20
0.0
 30
0.0
  9
$PLIMCHECK
 70
     0
  9
$PEXTMIN
 10
1.000000000000000E+20
 20
1.000000000000000E+20
 30
1.000000000000000E+20
  9
$PEXTMAX
 10
-1.000000000000000E+20
 20
-1.000000000000000E+20
 30
-1.000000000000000E+20
  9
$PLIMMIN
 10
0.0
 20
0.0
  9
$PLIMMAX
 10
12.0
 20
9.0
  9
$UNITMODE
 70
     0
  9
$VISRETAIN
 70
     1
  9
$PLINEGEN
 70
     0
  9
$PSLTSCALE
 70
     1
  9
$TREEDEPTH
 70
  3020
  9
$CMLSTYLE
  2
STANDARD
  9
$CMLJUST
 70
     0
  9
$CMLSCALE
 40
1.0
  9
$PROXYGRAPHICS
 70
     1
  9
$MEASUREMENT
 70
     0
  9
$CELWEIGHT
370
    -1
  9
$ENDCAPS
280
     0
  9
$JOINSTYLE
280
     0
  9
$LWDISPLAY
290
     0
  9
$INSUNITS
 70
     0
  9
$HYPERLINKBASE
  1

  9
$STYLESHEET
  1

  9
$XEDIT
290
     1
  9
$CEPSNTYPE
380
     0
  9
$PSTYLEMODE
290
     0
  9
$FINGERPRINTGUID
  2
{CD040D11-B4F0-4F61-A8BD-26F2D04E472A}
  9
$VERSIONGUID
  2
{7B58D0C1-5A14-40EE-AA0D-EE0E0037CA94}
  9
$EXTNAMES
290
     1
  9
$PSVPSCALE
 40
0.0
  9
$OLESTARTUP
290
     0
  0
ENDSEC
  0
SECTION
  2
CLASSES
  0
CLASS
  1
ACDBDICTIONARYWDFLT
  2
AcDbDictionaryWithDefault
  3
ObjectDBX Classes
 90
        0
280
     0
281
     0
  0
CLASS
  1
TABLESTYLE
  2
AcDbTableStyle
  3
ObjectDBX Classes
 90
     4095
280
     0
281
     0
  0
CLASS
  1
DICTIONARYVAR
  2
AcDbDictionaryVar
  3
ObjectDBX Classes
 90
        0
280
     0
281
     0
  0
CLASS
  1
ACDBPLACEHOLDER
  2
AcDbPlaceHolder
  3
ObjectDBX Classes
 90
        0
280
     0
281
     0
  0
CLASS
  1
LAYOUT
  2
AcDbLayout
  3
ObjectDBX Classes
 90
        0
280
     0
281
     0
  0
CLASS
  1
MATERIAL
  2
AcDbMaterial
  3
ObjectDBX Classes
 90
     1153
280
     0
281
     0
  0
CLASS
  1
VISUALSTYLE
  2
AcDbVisualStyle
  3
ObjectDBX Classes
 90
     4095
280
     0
281
     0
  0
CLASS
  1
SCALE
  2
AcDbScale
  3
ObjectDBX Classes
 90
     1153
280
     0
281
     0
  0
CLASS
  1
MLEADERSTYLE
  2
AcDbMLeaderStyle
  3
ACDB_MLEADERSTYLE_CLASS
 90
     4095
280
     0
281
     0
  0
CLASS
  1
SORTENTSTABLE
  2
AcDbSortentsTable
  3
ObjectDBX Classes
 90
        0
280
     0
281
     0
  0
CLASS
  1
CELLSTYLEMAP
  2
AcDbCellStyleMap
  3
ObjectDBX Classes
 90
     1152
280
     0
281
     0
  0
ENDSEC
  0
SECTION
  2
TABLES
  0
TABLE
  2
VPORT
  5
1
330
0
100
AcDbSymbolTable
 70
     1
  0
VPORT
  5
92D
330
1
100
AcDbSymbolTableRecord
100
AcDbViewportTableRecord
  2
*Active
 70
     0
 10
0.0
 20
0.0
 11
1.0
 21
1.0
 12
210.0000009778888
 22
148.5045335891244
 13
0.0
 23
0.0
 14
1.0
 24
1.0
 15
0.0
 25
0.0
 16
0.0
 26
0.0
 36
1.0
 17
0.0
 27
0.0
 37
0.0
 40
299.3456229106218
 41
1.534615384615384
 42
50.0
 43
0.0
 44
0.0
 50
0.0
 51
0.0
 71
     0
 72
   100
 73
     1
 74
     1
 75
     0
 76
     0
 77
     0
 78
     0
281
     0
 65
     1
110
0.0
120
0.0
130
0.0
111
1.0
121
0.0
131
0.0
112
0.0
122
1.0
132
0.0
 79
     0
146
0.0
1001
ACAD_NAV_VCDISPLAY
1070
     3
  0
ENDTAB
  0
TABLE
  2
LTYPE
  5
69
330
0
100
AcDbSymbolTable
 70
    26
  0
LTYPE
  5
1D
330
69
100
AcDbSymbolTableRecord
100
AcDbLinetypeTableRecord
  2
BYBLOCK
 70
     0
  3

 72
    65
 73
     0
 40
0.0
  0
LTYPE
  5
1E
330
69
100
AcDbSymbolTableRecord
100
AcDbLinetypeTableRecord
  2
BYLAYER
 70
     0
  3

 72
    65
 73
     0
 40
0.0
  0
LTYPE
  5
1F
330
69
100
AcDbSymbolTableRecord
100
AcDbLinetypeTableRecord
  2
CONTINUOUS
 70
     0
  3
Solid line
 72
    65
 73
     0
 40
0.0
  0
LTYPE
  5
20
330
69
100
AcDbSymbolTableRecord
100
AcDbLinetypeTableRecord
  2
BORDER
 70
     0
  3
__ __ . __ __ . __ __ . __ __ . __ __ . __ __ .
 72
    65
 73
     6
 40
1.75
 49
0.5
 74
     0
 49
-0.25
 74
     0
 49
0.5
 74
     0
 49
-0.25
 74
     0
 49
0.0
 74
     0
 49
-0.25
 74
     0
  0
LTYPE
  5
21
330
69
100
AcDbSymbolTableRecord
100
AcDbLinetypeTableRecord
  2
BORDER2
 70
     0
  3
__.__.__.__.__.__.__.__.__.__.__.__.__.__.__.__
 72
    65
 73
     6
 40
0.875
 49
0.25
 74
     0
 49
-0.125
 74
     0
 49
0.25
 74
     0
 49
-0.125
 74
     0
 49
0.0
 74
     0
 49
-0.125
 74
     0
  0
LTYPE
  5
22
330
69
100
AcDbSymbolTableRecord
100
AcDbLinetypeTableRecord
  2
BORDERX2
 70
     0
  3
____  ____  .  ____  ____  .  ____  ____  .  __
 72
    65
 73
     6
 40
3.5
 49
1.0
 74
     0
 49
-0.5
 74
     0
 49
1.0
 74
     0
 49
-0.5
 74
     0
 49
0.0
 74
     0
 49
-0.5
 74
     0
  0
LTYPE
  5
23
330
69
100
AcDbSymbolTableRecord
100
AcDbLinetypeTableRecord
  2
CENTER
 70
     0
  3
____ _ ____ _ ____ _ ____ _ ____ _ ____ _ ____ 
 72
    65
 73
     4
 40
2.0
 49
1.25
 74
     0
 49
-0.25
 74
     0
 49
0.25
 74
     0
 49
-0.25
 74
     0
  0
LTYPE
  5
24
330
69
100
AcDbSymbolTableRecord
100
AcDbLinetypeTableRecord
  2
CENTER2
 70
     0
  3
___ _ ___ _ ___ _ ___ _ ___ _ ___ _ ___ _ ___ _
 72
    65
 73
     4
 40
1.125
 49
0.75
 74
     0
 49
-0.125
 74
     0
 49
0.125
 74
     0
 49
-0.125
 74
     0
  0
LTYPE
  5
25
330
69
100
AcDbSymbolTableRecord
100
AcDbLinetypeTableRecord
  2
CENTERX2
 70
     0
  3
________  __  ________  __  ________  __  _____
 72
    65
 73
     4
 40
4.0
 49
2.5
 74
     0
 49
-0.5
 74
     0
 49
0.5
 74
     0
 49
-0.5
 74
     0
  0
LTYPE
  5
26
330
69
100
AcDbSymbolTableRecord
100
AcDbLinetypeTableRecord
  2
DASHDOT
 70
     0
  3
__ . __ . __ . __ . __ . __ . __ . __ . __ . __
 72
    65
 73
     4
 40
1.0
 49
0.5
 74
     0
 49
-0.25
 74
     0
 49
0.0
 74
     0
 49
-0.25
 74
     0
  0
LTYPE
  5
27
330
69
100
AcDbSymbolTableRecord
100
AcDbLinetypeTableRecord
  2
DASHDOT2
 70
     0
  3
_._._._._._._._._._._._._._._._._._._._._._._._
 72
    65
 73
     4
 40
0.5
 49
0.25
 74
     0
 49
-0.125
 74
     0
 49
0.0
 74
     0
 49
-0.125
 74
     0
  0
LTYPE
  5
28
330
69
100
AcDbSymbolTableRecord
100
AcDbLinetypeTableRecord
  2
DASHDOTX2
 70
     0
  3
____  .  ____  .  ____  .  ____  .  ____  .  __
 72
    65
 73
     4
 40
2.0
 49
1.0
 74
     0
 49
-0.5
 74
     0
 49
0.0
 74
     0
 49
-0.5
 74
     0
  0
LTYPE
  5
29
330
69
100
AcDbSymbolTableRecord
100
AcDbLinetypeTableRecord
  2
DASHED
 70
     0
  3
__ __ __ __ __ __ __ __ __ __ __ __ __ __ __ __
 72
    65
 73
     2
 40
0.75
 49
0.5
 74
     0
 49
-0.25
 74
     0
  0
LTYPE
  5
2A
330
69
100
AcDbSymbolTableRecord
100
AcDbLinetypeTableRecord
  2
DASHED2
 70
     0
  3
_ _ _ _ _ _ _ _ _ _ _ _ _ _ _ _ _ _ _ _ _ _ _ _
 72
    65
 73
     2
 40
0.375
 49
0.25
 74
     0
 49
-0.125
 74
     0
  0
LTYPE
  5
2B
330
69
100
AcDbSymbolTableRecord
100
AcDbLinetypeTableRecord
  2
DASHEDX2
 70
     0
  3
____  ____  ____  ____  ____  ____  ____  ____ 
 72
    65
 73
     2
 40
1.5
 49
1.0
 74
     0
 49
-0.5
 74
     0
  0
LTYPE
  5
2C
330
69
100
AcDbSymbolTableRecord
100
AcDbLinetypeTableRecord
  2
DIVIDE
 70
     0
  3
____ . . ____ . . ____ . . ____ . . ____ . . __
 72
    65
 73
     6
 40
1.25
 49
0.5
 74
     0
 49
-0.25
 74
     0
 49
0.0
 74
     0
 49
-0.25
 74
     0
 49
0.0
 74
     0
 49
-0.25
 74
     0
  0
LTYPE
  5
2D
330
69
100
AcDbSymbolTableRecord
100
AcDbLinetypeTableRecord
  2
DIVIDE2
 70
     0
  3
__..__..__..__..__..__..__..__..__..__..__..__.
 72
    65
 73
     6
 40
0.625
 49
0.25
 74
     0
 49
-0.125
 74
     0
 49
0.0
 74
     0
 49
-0.125
 74
     0
 49
0.0
 74
     0
 49
-0.125
 74
     0
  0
LTYPE
  5
2E
330
69
100
AcDbSymbolTableRecord
100
AcDbLinetypeTableRecord
  2
DIVIDEX2
 70
     0
  3
________  .  .  ________  .  .  ________  .  . 
 72
    65
 73
     6
 40
2.5
 49
1.0
 74
     0
 49
-0.5
 74
     0
 49
0.0
 74
     0
 49
-0.5
 74
     0
 49
0.0
 74
     0
 49
-0.5
 74
     0
  0
LTYPE
  5
2F
330
69
100
AcDbSymbolTableRecord
100
AcDbLinetypeTableRecord
  2
DOT
 70
     0
  3
. . . . . . . . . . . . . . . . . . . . . . . .
 72
    65
 73
     2
 40
0.25
 49
0.0
 74
     0
 49
-0.25
 74
     0
  0
LTYPE
  5
30
330
69
100
AcDbSymbolTableRecord
100
AcDbLinetypeTableRecord
  2
DOT2
 70
     0
  3
...............................................
 72
    65
 73
     2
 40
0.125
 49
0.0
 74
     0
 49
-0.125
 74
     0
  0
LTYPE
  5
31
330
69
100
AcDbSymbolTableRecord
100
AcDbLinetypeTableRecord
  2
DOTX2
 70
     0
  3
.  .  .  .  .  .  .  .  .  .  .  .  .  .  .  . 
 72
    65
 73
     2
 40
0.5
 49
0.0
 74
     0
 49
-0.5
 74
     0
  0
LTYPE
  5
32
330
69
100
AcDbSymbolTableRecord
100
AcDbLinetypeTableRecord
  2
HIDDEN
 70
     0
  3
__ __ __ __ __ __ __ __ __ __ __ __ __ __ __ __
 72
    65
 73
     2
 40
0.375
 49
0.25
 74
     0
 49
-0.125
 74
     0
  0
LTYPE
  5
33
330
69
100
AcDbSymbolTableRecord
100
AcDbLinetypeTableRecord
  2
HIDDEN2
 70
     0
  3
_ _ _ _ _ _ _ _ _ _ _ _ _ _ _ _ _ _ _ _ _ _ _ _
 72
    65
 73
     2
 40
0.1875
 49
0.125
 74
     0
 49
-0.0625
 74
     0
  0
LTYPE
  5
34
330
69
100
AcDbSymbolTableRecord
100
AcDbLinetypeTableRecord
  2
HIDDENX2
 70
     0
  3
____ ____ ____ ____ ____ ____ ____ ____ ____ __
 72
    65
 73
     2
 40
0.75
 49
0.5
 74
     0
 49
-0.25
 74
     0
  0
LTYPE
  5
35
330
69
100
AcDbSymbolTableRecord
100
AcDbLinetypeTableRecord
  2
PHANTOM
 70
     0
  3
______  __  __  ______  __  __  ______  __  __ 
 72
    65
 73
     6
 40
2.5
 49
1.25
 74
     0
 49
-0.25
 74
     0
 49
0.25
 74
     0
 49
-0.25
 74
     0
 49
0.25
 74
     0
 49
-0.25
 74
     0
  0
LTYPE
  5
36
330
69
100
AcDbSymbolTableRecord
100
AcDbLinetypeTableRecord
  2
PHANTOM2
 70
     0
  3
___ _ _ ___ _ _ ___ _ _ ___ _ _ ___ _ _ ___ _ _
 72
    65
 73
     6
 40
1.25
 49
0.625
 74
     0
 49
-0.125
 74
     0
 49
0.125
 74
     0
 49
-0.125
 74
     0
 49
0.125
 74
     0
 49
-0.125
 74
     0
  0
LTYPE
  5
37
330
69
100
AcDbSymbolTableRecord
100
AcDbLinetypeTableRecord
  2
PHANTOMX2
 70
     0
  3
____________    ____    ____    ____________   
 72
    65
 73
     6
 40
5.0
 49
2.5
 74
     0
 49
-0.5
 74
     0
 49
0.5
 74
     0
 49
-0.5
 74
     0
 49
0.5
 74
     0
 49
-0.5
 74
     0
  0
ENDTAB
  0
TABLE
  2
LAYER
  5
68
102
{ACAD_XDICTIONARY
360
98E
102
}
330
0
100
AcDbSymbolTable
 70
     5
  0
LAYER
  5
38
102
{ACAD_XDICTIONARY
360
983
102
}
330
68
100
AcDbSymbolTableRecord
100
AcDbLayerTableRecord
  2
0
 70
     0
 62
     7
  6
CONTINUOUS
370
    -3
390
910
  0
LAYER
  5
39
102
{ACAD_XDICTIONARY
360
985
102
}
330
68
100
AcDbSymbolTableRecord
100
AcDbLayerTableRecord
  2
LEVEL001
 70
     0
 62
     7
  6
CONTINUOUS
370
    -3
390
910
  0
LAYER
  5
3A
102
{ACAD_XDICTIONARY
360
987
102
}
330
68
100
AcDbSymbolTableRecord
100
AcDbLayerTableRecord
  2
LEVEL003
 70
     0
 62
     7
  6
CONTINUOUS
370
    -3
390
910
  0
LAYER
  5
3B
102
{ACAD_XDICTIONARY
360
989
102
}
330
68
100
AcDbSymbolTableRecord
100
AcDbLayerTableRecord
  2
LEVEL005
 70
     0
 62
     7
  6
CONTINUOUS
370
    -3
390
910
  0
LAYER
  5
AA9
330
68
100
AcDbSymbolTableRecord
100
AcDbLayerTableRecord
  2
Defpoints
 70
     0
 62
     7
  6
CONTINUOUS
290
     0
370
    -3
390
910
  0
ENDTAB
  0
TABLE
  2
STYLE
  5
6
330
0
100
AcDbSymbolTable
 70
     2
  0
STYLE
  5
7
330
6
100
AcDbSymbolTableRecord
100
AcDbTextStyleTableRecord
  2
STANDARD
 70
     0
 40
0.0
 41
0.8
 50
0.0
 71
     0
 42
0.2
  3
TXT.shx
  4
BIGFONT.shx
  0
STYLE
  5
8
330
6
100
AcDbSymbolTableRecord
100
AcDbTextStyleTableRecord
  2
STANDARD1
 70
     4
 40
0.0
 41
1.0
 50
0.0
 71
     0
 42
0.2
  3
TXT
  4
BIGFONT
  0
ENDTAB
  0
TABLE
  2
VIEW
  5
2
330
0
100
AcDbSymbolTable
 70
     0
  0
ENDTAB
  0
TABLE
  2
UCS
  5
3
330
0
100
AcDbSymbolTable
 70
     0
  0
ENDTAB
  0
TABLE
  2
APPID
  5
4
330
0
100
AcDbSymbolTable
 70
     6
  0
APPID
  5
5
330
4
100
AcDbSymbolTableRecord
100
AcDbRegAppTableRecord
  2
ACAD
 70
     0
  0
APPID
  5
981
330
4
100
AcDbSymbolTableRecord
100
AcDbRegAppTableRecord
  2
ACAD_EXEMPT_FROM_CAD_STANDARDS
 70
     0
  0
APPID
  5
996
330
4
100
AcDbSymbolTableRecord
100
AcDbRegAppTableRecord
  2
ACAD_NAV_VCDISPLAY
 70
     0
  0
APPID
  5
9FF
330
4
100
AcDbSymbolTableRecord
100
AcDbRegAppTableRecord
  2
GradientColor1ACI
 70
     0
  0
APPID
  5
A00
330
4
100
AcDbSymbolTableRecord
100
AcDbRegAppTableRecord
  2
GradientColor2ACI
 70
     0
  0
APPID
  5
B2A
330
4
100
AcDbSymbolTableRecord
100
AcDbRegAppTableRecord
  2
ACAD_MLEADERVER
 70
     0
  0
ENDTAB
  0
TABLE
  2
DIMSTYLE
  5
67
330
0
100
AcDbSymbolTable
 70
     2
100
AcDbDimStyleTable
 71
     1
340
3C
  0
DIMSTYLE
105
3C
330
67
100
AcDbSymbolTableRecord
100
AcDbDimStyleTableRecord
  2
STANDARD
 70
     0
340
7
  0
ENDTAB
  0
TABLE
  2
BLOCK_RECORD
  5
9
330
0
100
AcDbSymbolTable
 70
    19
  0
BLOCK_RECORD
  5
A
102
{ACAD_XDICTIONARY
360
9B7
102
}
330
9
100
AcDbSymbolTableRecord
100
AcDbBlockTableRecord
  2
*MODEL_SPACE
340
917
  0
BLOCK_RECORD
  5
B
330
9
100
AcDbSymbolTableRecord
100
AcDbBlockTableRecord
  2
*PAPER_SPACE
340
918
  0
BLOCK_RECORD
  5
C
330
9
100
AcDbSymbolTableRecord
100
AcDbBlockTableRecord
  2
_ARCHTICK
340
0
  0
BLOCK_RECORD
  5
D
330
9
100
AcDbSymbolTableRecord
100
AcDbBlockTableRecord
  2
_OBLIQUE
340
0
  0
BLOCK_RECORD
  5
E
330
9
100
AcDbSymbolTableRecord
100
AcDbBlockTableRecord
  2
_BOXBLANK
340
0
  0
BLOCK_RECORD
  5
F
330
9
100
AcDbSymbolTableRecord
100
AcDbBlockTableRecord
  2
_BOXFILLED
340
0
  0
BLOCK_RECORD
  5
10
330
9
100
AcDbSymbolTableRecord
100
AcDbBlockTableRecord
  2
_CLOSED
340
0
  0
BLOCK_RECORD
  5
11
330
9
100
AcDbSymbolTableRecord
100
AcDbBlockTableRecord
  2
_OPEN
340
0
  0
BLOCK_RECORD
  5
12
330
9
100
AcDbSymbolTableRecord
100
AcDbBlockTableRecord
  2
_OPEN30
340
0
  0
BLOCK_RECORD
  5
13
330
9
100
AcDbSymbolTableRecord
100
AcDbBlockTableRecord
  2
_OPEN90
340
0
  0
BLOCK_RECORD
  5
14
330
9
100
AcDbSymbolTableRecord
100
AcDbBlockTableRecord
  2
_CLOSEDBLANK
340
0
  0
BLOCK_RECORD
  5
15
330
9
100
AcDbSymbolTableRecord
100
AcDbBlockTableRecord
  2
_DOT
340
0
  0
BLOCK_RECORD
  5
16
330
9
100
AcDbSymbolTableRecord
100
AcDbBlockTableRecord
  2
_DOTSMALL
340
0
  0
BLOCK_RECORD
  5
17
330
9
100
AcDbSymbolTableRecord
100
AcDbBlockTableRecord
  2
_DATUMBLANK
340
0
  0
BLOCK_RECORD
  5
18
330
9
100
AcDbSymbolTableRecord
100
AcDbBlockTableRecord
  2
_DATUMFILLED
340
0
  0
BLOCK_RECORD
  5
19
330
9
100
AcDbSymbolTableRecord
100
AcDbBlockTableRecord
  2
_ORIGIN
340
0
  0
BLOCK_RECORD
  5
1A
330
9
100
AcDbSymbolTableRecord
100
AcDbBlockTableRecord
  2
_NONE
340
0
  0
BLOCK_RECORD
  5
1B
330
9
100
AcDbSymbolTableRecord
100
AcDbBlockTableRecord
  2
_DOTBLANK
340
0
  0
BLOCK_RECORD
  5
1C
330
9
100
AcDbSymbolTableRecord
100
AcDbBlockTableRecord
  2
_INTEGRAL
340
0
  0
ENDTAB
  0
ENDSEC
  0
SECTION
  2
BLOCKS
  0
BLOCK
  5
41
330
A
100
AcDbEntity
  8
0
100
AcDbBlockBegin
  2
*MODEL_SPACE
 70
     0
 10
0.0
 20
0.0
 30
0.0
  3
*MODEL_SPACE
  1

  0
ENDBLK
  5
54
330
A
100
AcDbEntity
  8
0
100
AcDbBlockEnd
  0
BLOCK
  5
42
330
B
100
AcDbEntity
 67
     1
  8
0
100
AcDbBlockBegin
  2
*PAPER_SPACE
 70
     0
 10
0.0
 20
0.0
 30
0.0
  3
*PAPER_SPACE
  1

  0
ENDBLK
  5
55
330
B
100
AcDbEntity
 67
     1
  8
0
100
AcDbBlockEnd
  0
BLOCK
  5
43
330
C
100
AcDbEntity
  8
0
100
AcDbBlockBegin
  2
_ARCHTICK
 70
     0
 10
0.0
 20
0.0
 30
0.0
  3
_ARCHTICK
  1

  0
LWPOLYLINE
  5
76
330
C
100
AcDbEntity
  8
0
  6
ByBlock
 62
     0
380
     1
100
AcDbPolyline
 90
        2
 70
     1
 43
0.15
 10
-0.5
 20
-0.5
 10
0.5
 20
0.5
  0
ENDBLK
  5
56
330
C
100
AcDbEntity
  8
0
100
AcDbBlockEnd
  0
BLOCK
  5
44
330
D
100
AcDbEntity
  8
0
100
AcDbBlockBegin
  2
_OBLIQUE
 70
     0
 10
0.0
 20
0.0
 30
0.0
  3
_OBLIQUE
  1

  0
LINE
  5
7A
330
D
100
AcDbEntity
  8
0
  6
ByBlock
 62
     0
380
     1
100
AcDbLine
 10
-0.5
 20
-0.5
 30
0.0
 11
0.5
 21
0.5
 31
0.0
  0
ENDBLK
  5
62
330
D
100
AcDbEntity
  8
0
100
AcDbBlockEnd
  0
BLOCK
  5
45
330
E
100
AcDbEntity
  8
0
100
AcDbBlockBegin
  2
_BOXBLANK
 70
     0
 10
0.0
 20
0.0
 30
0.0
  3
_BOXBLANK
  1

  0
LINE
  5
7B
330
E
100
AcDbEntity
  8
0
  6
ByBlock
 62
     0
380
     1
100
AcDbLine
 10
-0.5
 20
-0.5
 30
0.0
 11
0.5
 21
-0.5
 31
0.0
  0
LINE
  5
7C
330
E
100
AcDbEntity
  8
0
  6
ByBlock
 62
     0
380
     1
100
AcDbLine
 10
0.5
 20
-0.5
 30
0.0
 11
0.5
 21
0.5
 31
0.0
  0
LINE
  5
7D
330
E
100
AcDbEntity
  8
0
  6
ByBlock
 62
     0
380
     1
100
AcDbLine
 10
0.5
 20
0.5
 30
0.0
 11
-0.5
 21
0.5
 31
0.0
  0
LINE
  5
7E
330
E
100
AcDbEntity
  8
0
  6
ByBlock
 62
     0
380
     1
100
AcDbLine
 10
-0.5
 20
0.5
 30
0.0
 11
-0.5
 21
-0.5
 31
0.0
  0
LINE
  5
7F
330
E
100
AcDbEntity
  8
0
  6
ByBlock
 62
     0
380
     1
100
AcDbLine
 10
-0.5
 20
0.0
 30
0.0
 11
-1.0
 21
0.0
 31
0.0
  0
ENDBLK
  5
57
330
E
100
AcDbEntity
  8
0
100
AcDbBlockEnd
  0
BLOCK
  5
46
330
F
100
AcDbEntity
  8
0
100
AcDbBlockBegin
  2
_BOXFILLED
 70
     0
 10
0.0
 20
0.0
 30
0.0
  3
_BOXFILLED
  1

  0
SOLID
  5
80
330
F
100
AcDbEntity
  8
0
  6
ByBlock
 62
     0
380
     1
100
AcDbTrace
 10
-0.5
 20
0.5
 30
0.0
 11
0.5
 21
0.5
 31
0.0
 12
-0.5
 22
-0.5
 32
0.0
 13
0.5
 23
-0.5
 33
0.0
  0
LINE
  5
81
330
F
100
AcDbEntity
  8
0
  6
ByBlock
 62
     0
380
     1
100
AcDbLine
 10
-0.5
 20
0.0
 30
0.0
 11
-1.0
 21
0.0
 31
0.0
  0
ENDBLK
  5
58
330
F
100
AcDbEntity
  8
0
100
AcDbBlockEnd
  0
BLOCK
  5
47
330
10
100
AcDbEntity
  8
0
100
AcDbBlockBegin
  2
_CLOSED
 70
     0
 10
0.0
 20
0.0
 30
0.0
  3
_CLOSED
  1

  0
LINE
  5
82
330
10
100
AcDbEntity
  8
0
  6
ByBlock
 62
     0
380
     1
100
AcDbLine
 10
-1.0
 20
0.16666666666667
 30
0.0
 11
0.0
 21
0.0
 31
0.0
  0
LINE
  5
83
330
10
100
AcDbEntity
  8
0
  6
ByBlock
 62
     0
380
     1
100
AcDbLine
 10
0.0
 20
0.0
 30
0.0
 11
-1.0
 21
-0.16666666666667
 31
0.0
  0
LINE
  5
84
330
10
100
AcDbEntity
  8
0
  6
ByBlock
 62
     0
380
     1
100
AcDbLine
 10
-1.0
 20
0.16666666666667
 30
0.0
 11
-1.0
 21
-0.16666666666667
 31
0.0
  0
LINE
  5
85
330
10
100
AcDbEntity
  8
0
  6
ByBlock
 62
     0
380
     1
100
AcDbLine
 10
0.0
 20
0.0
 30
0.0
 11
-1.0
 21
0.0
 31
0.0
  0
ENDBLK
  5
59
330
10
100
AcDbEntity
  8
0
100
AcDbBlockEnd
  0
BLOCK
  5
48
330
11
100
AcDbEntity
  8
0
100
AcDbBlockBegin
  2
_OPEN
 70
     0
 10
0.0
 20
0.0
 30
0.0
  3
_OPEN
  1

  0
LINE
  5
86
330
11
100
AcDbEntity
  8
0
  6
ByBlock
 62
     0
380
     1
100
AcDbLine
 10
-1.0
 20
0.16666666666667
 30
0.0
 11
0.0
 21
0.0
 31
0.0
  0
LINE
  5
87
330
11
100
AcDbEntity
  8
0
  6
ByBlock
 62
     0
380
     1
100
AcDbLine
 10
0.0
 20
0.0
 30
0.0
 11
-1.0
 21
-0.16666666666667
 31
0.0
  0
LINE
  5
88
330
11
100
AcDbEntity
  8
0
  6
ByBlock
 62
     0
380
     1
100
AcDbLine
 10
0.0
 20
0.0
 30
0.0
 11
-1.0
 21
0.0
 31
0.0
  0
ENDBLK
  5
63
330
11
100
AcDbEntity
  8
0
100
AcDbBlockEnd
  0
BLOCK
  5
49
330
12
100
AcDbEntity
  8
0
100
AcDbBlockBegin
  2
_OPEN30
 70
     0
 10
0.0
 20
0.0
 30
0.0
  3
_OPEN30
  1

  0
LINE
  5
89
330
12
100
AcDbEntity
  8
0
  6
ByBlock
 62
     0
380
     1
100
AcDbLine
 10
-1.0
 20
0.2679491924311
 30
0.0
 11
0.0
 21
0.0
 31
0.0
  0
LINE
  5
8A
330
12
100
AcDbEntity
  8
0
  6
ByBlock
 62
     0
380
     1
100
AcDbLine
 10
0.0
 20
0.0
 30
0.0
 11
-1.0
 21
-0.2679491924311
 31
0.0
  0
LINE
  5
8B
330
12
100
AcDbEntity
  8
0
  6
ByBlock
 62
     0
380
     1
100
AcDbLine
 10
0.0
 20
0.0
 30
0.0
 11
-1.0
 21
0.0
 31
0.0
  0
ENDBLK
  5
64
330
12
100
AcDbEntity
  8
0
100
AcDbBlockEnd
  0
BLOCK
  5
4A
330
13
100
AcDbEntity
  8
0
100
AcDbBlockBegin
  2
_OPEN90
 70
     0
 10
0.0
 20
0.0
 30
0.0
  3
_OPEN90
  1

  0
LINE
  5
8C
330
13
100
AcDbEntity
  8
0
  6
ByBlock
 62
     0
380
     1
100
AcDbLine
 10
-0.5
 20
0.5
 30
0.0
 11
0.0
 21
0.0
 31
0.0
  0
LINE
  5
8D
330
13
100
AcDbEntity
  8
0
  6
ByBlock
 62
     0
380
     1
100
AcDbLine
 10
0.0
 20
0.0
 30
0.0
 11
-0.5
 21
-0.5
 31
0.0
  0
LINE
  5
8E
330
13
100
AcDbEntity
  8
0
  6
ByBlock
 62
     0
380
     1
100
AcDbLine
 10
0.0
 20
0.0
 30
0.0
 11
-1.0
 21
0.0
 31
0.0
  0
ENDBLK
  5
65
330
13
100
AcDbEntity
  8
0
100
AcDbBlockEnd
  0
BLOCK
  5
4B
330
14
100
AcDbEntity
  8
0
100
AcDbBlockBegin
  2
_CLOSEDBLANK
 70
     0
 10
0.0
 20
0.0
 30
0.0
  3
_CLOSEDBLANK
  1

  0
LINE
  5
8F
330
14
100
AcDbEntity
  8
0
  6
ByBlock
 62
     0
380
     1
100
AcDbLine
 10
-1.0
 20
0.16666666666667
 30
0.0
 11
0.0
 21
0.0
 31
0.0
  0
LINE
  5
90
330
14
100
AcDbEntity
  8
0
  6
ByBlock
 62
     0
380
     1
100
AcDbLine
 10
0.0
 20
0.0
 30
0.0
 11
-1.0
 21
-0.16666666666667
 31
0.0
  0
LINE
  5
91
330
14
100
AcDbEntity
  8
0
  6
ByBlock
 62
     0
380
     1
100
AcDbLine
 10
-1.0
 20
0.16666666666667
 30
0.0
 11
-1.0
 21
-0.16666666666667
 31
0.0
  0
ENDBLK
  5
5A
330
14
100
AcDbEntity
  8
0
100
AcDbBlockEnd
  0
BLOCK
  5
4C
330
15
100
AcDbEntity
  8
0
100
AcDbBlockBegin
  2
_DOT
 70
     0
 10
0.0
 20
0.0
 30
0.0
  3
_DOT
  1

  0
LWPOLYLINE
  5
92
330
15
100
AcDbEntity
  8
0
  6
ByBlock
 62
     0
380
     1
100
AcDbPolyline
 90
        2
 70
     1
 43
0.5
 10
-0.25
 20
0.0
 42
1.0
 10
0.25
 20
0.0
 42
1.0
  0
LINE
  5
96
330
15
100
AcDbEntity
  8
0
  6
ByBlock
 62
     0
380
     1
100
AcDbLine
 10
-0.5
 20
0.0
 30
0.0
 11
-1.0
 21
0.0
 31
0.0
  0
ENDBLK
  5
5D
330
15
100
AcDbEntity
  8
0
100
AcDbBlockEnd
  0
BLOCK
  5
4D
330
16
100
AcDbEntity
  8
0
100
AcDbBlockBegin
  2
_DOTSMALL
 70
     0
 10
0.0
 20
0.0
 30
0.0
  3
_DOTSMALL
  1

  0
LWPOLYLINE
  5
97
330
16
100
AcDbEntity
  8
0
  6
ByBlock
 62
     0
380
     1
100
AcDbPolyline
 90
        2
 70
     1
 43
0.5
 10
-0.0625
 20
0.0
 42
1.0
 10
0.0625
 20
0.0
 42
1.0
  0
ENDBLK
  5
5F
330
16
100
AcDbEntity
  8
0
100
AcDbBlockEnd
  0
BLOCK
  5
4E
330
17
100
AcDbEntity
  8
0
100
AcDbBlockBegin
  2
_DATUMBLANK
 70
     0
 10
0.0
 20
0.0
 30
0.0
  3
_DATUMBLANK
  1

  0
LINE
  5
9B
330
17
100
AcDbEntity
  8
0
  6
ByBlock
 62
     0
380
     1
100
AcDbLine
 10
0.0
 20
0.5773502700000001
 30
0.0
 11
-1.0
 21
0.0
 31
0.0
  0
LINE
  5
9C
330
17
100
AcDbEntity
  8
0
  6
ByBlock
 62
     0
380
     1
100
AcDbLine
 10
-1.0
 20
0.0
 30
0.0
 11
0.0
 21
-0.5773502700000001
 31
0.0
  0
LINE
  5
9D
330
17
100
AcDbEntity
  8
0
  6
ByBlock
 62
     0
380
     1
100
AcDbLine
 10
0.0
 20
-0.5773502700000001
 30
0.0
 11
0.0
 21
0.5773502700000001
 31
0.0
  0
ENDBLK
  5
5B
330
17
100
AcDbEntity
  8
0
100
AcDbBlockEnd
  0
BLOCK
  5
4F
330
18
100
AcDbEntity
  8
0
100
AcDbBlockBegin
  2
_DATUMFILLED
 70
     0
 10
0.0
 20
0.0
 30
0.0
  3
_DATUMFILLED
  1

  0
SOLID
  5
9E
330
18
100
AcDbEntity
  8
0
  6
ByBlock
 62
     0
380
     1
100
AcDbTrace
 10
0.0
 20
0.5773502700000001
 30
0.0
 11
-1.0
 21
0.0
 31
0.0
 12
0.0
 22
-0.5773502700000001
 32
0.0
 13
0.0
 23
-0.5773502700000001
 33
0.0
  0
ENDBLK
  5
5C
330
18
100
AcDbEntity
  8
0
100
AcDbBlockEnd
  0
BLOCK
  5
50
330
19
100
AcDbEntity
  8
0
100
AcDbBlockBegin
  2
_ORIGIN
 70
     0
 10
0.0
 20
0.0
 30
0.0
  3
_ORIGIN
  1

  0
CIRCLE
  5
9F
330
19
100
AcDbEntity
  8
0
  6
ByBlock
 62
     0
380
     1
100
AcDbCircle
 10
0.0
 20
0.0
 30
0.0
 40
0.5
  0
LINE
  5
A0
330
19
100
AcDbEntity
  8
0
  6
ByBlock
 62
     0
380
     1
100
AcDbLine
 10
0.0
 20
0.0
 30
0.0
 11
-1.0
 21
0.0
 31
0.0
  0
ENDBLK
  5
66
330
19
100
AcDbEntity
  8
0
100
AcDbBlockEnd
  0
BLOCK
  5
51
330
1A
100
AcDbEntity
  8
0
100
AcDbBlockBegin
  2
_NONE
 70
     0
 10
0.0
 20
0.0
 30
0.0
  3
_NONE
  1

  0
CIRCLE
  5
A1
330
1A
100
AcDbEntity
  8
0
  6
ByBlock
 62
     0
380
     1
100
AcDbCircle
 10
0.0
 20
0.0
 30
0.0
 40
0.25
  0
ENDBLK
  5
61
330
1A
100
AcDbEntity
  8
0
100
AcDbBlockEnd
  0
BLOCK
  5
52
330
1B
100
AcDbEntity
  8
0
100
AcDbBlockBegin
  2
_DOTBLANK
 70
     0
 10
0.0
 20
0.0
 30
0.0
  3
_DOTBLANK
  1

  0
CIRCLE
  5
A2
330
1B
100
AcDbEntity
  8
0
  6
ByBlock
 62
     0
380
     1
100
AcDbCircle
 10
0.0
 20
0.0
 30
0.0
 40
0.5
  0
LINE
  5
A3
330
1B
100
AcDbEntity
  8
0
  6
ByBlock
 62
     0
380
     1
100
AcDbLine
 10
-0.5
 20
0.0
 30
0.0
 11
-1.0
 21
0.0
 31
0.0
  0
ENDBLK
  5
5E
330
1B
100
AcDbEntity
  8
0
100
AcDbBlockEnd
  0
BLOCK
  5
53
330
1C
100
AcDbEntity
  8
0
100
AcDbBlockBegin
  2
_INTEGRAL
 70
     0
 10
0.0
 20
0.0
 30
0.0
  3
_INTEGRAL
  1

  0
ARC
  5
A4
330
1C
100
AcDbEntity
  8
0
  6
ByBlock
 62
     0
380
     1
100
AcDbCircle
 10
0.444888
 20
-0.091335
 30
0.0
 40
0.454167
100
AcDbArc
 50
102.0
 51
168.0
  0
ARC
  5
A5
330
1C
100
AcDbEntity
  8
0
  6
ByBlock
 62
     0
380
     1
100
AcDbCircle
 10
-0.444888
 20
0.091335
 30
0.0
 40
0.454167
100
AcDbArc
 50
282.0
 51
348.0
  0
ENDBLK
  5
60
330
1C
100
AcDbEntity
  8
0
100
AcDbBlockEnd
  0
ENDSEC
  0
SECTION
  2
ENTITIES
  0
TEXT
  5
3A2
330
A
100
AcDbEntity
  8
LEVEL001
 62
     8
100
AcDbText
 10
314.50000000003
 20
485.7499999999999
 30
0.0
 40
3.0
  1
　
100
AcDbText
  0
TEXT
  5
3A4
330
A
100
AcDbEntity
  8
LEVEL001
 62
     8
100
AcDbText
 10
314.50000000003
 20
477.7499999999999
 30
0.0
 40
3.0
  1
　
100
AcDbText
  0
TEXT
  5
3AC
330
A
100
AcDbEntity
  8
LEVEL001
 62
     8
100
AcDbText
 10
314.50000000003
 20
445.75
 30
0.0
 40
3.0
  1

 41
0.5
100
AcDbText
  0
TEXT
  5
3B3
330
A
100
AcDbEntity
  8
LEVEL001
 62
     8
100
AcDbText
 10
314.50000000003
 20
192.75
 30
0.0
 40
3.0
  1
　
100
AcDbText
  0
TEXT
  5
3B5
330
A
100
AcDbEntity
  8
LEVEL001
 62
     8
100
AcDbText
 10
314.50000000003
 20
184.75
 30
0.0
 40
3.0
  1
　
100
AcDbText
  0
TEXT
  5
3BB
330
A
100
AcDbEntity
  8
LEVEL001
 62
     8
100
AcDbText
 10
314.50000000003
 20
160.75
 30
0.0
 40
3.0
  1

 41
0.5
100
AcDbText
  0
TEXT
  5
3BF
330
A
100
AcDbEntity
  8
LEVEL001
 62
     7
100
AcDbText
 10
326.40000000003
 20
16.375
 30
0.0
 40
3.75
  1
Ａ３
 41
0.8
 72
     1
 11
329.50000000003
 21
18.25
 31
0.0
100
AcDbText
 73
     2
  0
TEXT
  5
3C0
330
A
100
AcDbEntity
  8
LEVEL001
 62
     7
100
AcDbText
 10
371.85508456083
 20
40.49999999999999
 30
0.0
 40
3.0
  1
令和　１年　７月２３日
 41
0.8
 72
     1
 11
387.21508456083
 21
42.0
 31
0.0
100
AcDbText
 73
     2
  0
TEXT
  5
3C1
330
A
100
AcDbEntity
  8
LEVEL001
 62
     7
100
AcDbText
 10
371.85508456083
 20
33.83333333333997
 30
0.0
 40
3.0
  1
平成　　年　　月　　日
 41
0.8
 72
     1
 11
387.21508456083
 21
35.33333333333997
 31
0.0
100
AcDbText
 73
     2
  0
LWPOLYLINE
  5
3C2
330
A
100
AcDbEntity
  8
LEVEL001
  6
Continuous
 62
     3
370
    40
100
AcDbPolyline
 90
        5
 70
     0
 43
0.0
 10
15.500000000027
 20
12.0
 10
404.50000000003
 20
12.0
 10
404.50000000003
 20
285.0
 10
15.500000000027
 20
285.0
 10
15.500000000027
 20
12.0
  0
LINE
  5
3C9
330
A
100
AcDbEntity
  8
LEVEL001
  6
Continuous
 62
     3
370
    40
100
AcDbLine
 10
304.50000000003
 20
285.0
 30
0.0
 11
304.50000000003
 21
12.0
 31
0.0
  0
LINE
  5
466
330
A
100
AcDbEntity
  8
LEVEL001
  6
Continuous
 62
     3
100
AcDbLine
 10
304.50000000003
 20
256.75
 30
0.0
 11
404.50000000003
 21
256.75
 31
0.0
  0
LINE
  5
467
330
A
100
AcDbEntity
  8
LEVEL001
  6
Continuous
 62
     3
100
AcDbLine
 10
304.50000000003
 20
236.75
 30
0.0
 11
404.50000000003
 21
236.75
 31
0.0
  0
LINE
  5
468
330
A
100
AcDbEntity
  8
LEVEL001
  6
Continuous
 62
     3
100
AcDbLine
 10
304.50000000003
 20
216.75
 30
0.0
 11
404.50000000003
 21
216.75
 31
0.0
  0
TEXT
  5
469
330
A
100
AcDbEntity
  8
LEVEL001
 62
     3
100
AcDbText
 10
305.84000000003
 20
251.5
 30
0.0
 40
3.0
  1
商品名：
 41
0.8
 72
     1
 11
310.80000000003
 21
253.0
 31
0.0
100
AcDbText
 73
     2
  0
TEXT
  5
46A
330
A
100
AcDbEntity
  8
LEVEL001
 62
     3
100
AcDbText
 10
305.78000000003
 20
231.5
 30
0.0
 40
3.0
  1
形式：
 41
0.8
 72
     1
 11
309.30000000003
 21
233.0
 31
0.0
100
AcDbText
 73
     2
  0
TEXT
  5
46B
330
A
100
AcDbEntity
  8
LEVEL001
 62
     3
100
AcDbText
 10
305.78000000003
 20
211.5
 30
0.0
 40
3.0
  1
仕様：
 41
0.8
 72
     1
 11
309.30000000003
 21
213.0
 31
0.0
100
AcDbText
 73
     2
  0
LINE
  5
46C
330
A
100
AcDbEntity
  8
LEVEL001
  6
Continuous
 62
     3
100
AcDbLine
 10
304.50000000003
 20
72.0
 30
0.0
 11
404.50000000003
 21
72.0
 31
0.0
  0
TEXT
  5
46D
330
A
100
AcDbEntity
  8
LEVEL001
 62
     3
100
AcDbText
 10
305.82000000003
 20
66.75
 30
0.0
 40
3.0
  1
図面名称：
 41
0.8
 72
     1
 11
312.30000000003
 21
68.25
 31
0.0
100
AcDbText
 73
     2
  0
LINE
  5
46E
330
A
100
AcDbEntity
  8
LEVEL001
  6
Continuous
 62
     3
100
AcDbLine
 10
304.50000000003
 20
52.0
 30
0.0
 11
404.50000000003
 21
52.0
 31
0.0
  0
TEXT
  5
46F
330
A
100
AcDbEntity
  8
LEVEL001
 62
     3
100
AcDbText
 10
305.78000000003
 20
46.74999999999999
 30
0.0
 40
3.0
  1
縮尺：
 41
0.8
 72
     1
 11
309.30000000003
 21
48.25
 31
0.0
100
AcDbText
 73
     2
  0
LINE
  5
470
330
A
100
AcDbEntity
  8
LEVEL001
  6
Continuous
 62
     3
100
AcDbLine
 10
304.50000000003
 20
32.0
 30
0.0
 11
404.50000000003
 21
32.0
 31
0.0
  0
TEXT
  5
471
330
A
100
AcDbEntity
  8
LEVEL001
 62
     3
100
AcDbText
 10
305.9600000000301
 20
27.22153522863005
 30
0.0
 40
3.0
  1
用紙サイズ：
 41
0.8
 72
     1
 11
313.80000000003
 21
28.72153522863005
 31
0.0
100
AcDbText
 73
     2
  0
TEXT
  5
472
330
A
100
AcDbEntity
  8
LEVEL001
 62
     3
100
AcDbText
 10
356.3266666666967
 20
47.26666666667004
 30
0.0
 40
2.799999999999999
  1
作成日付：
 41
0.8
 72
     1
 11
362.30000000003
 21
48.66666666667004
 31
0.0
100
AcDbText
 73
     2
  0
TEXT
  5
473
330
A
100
AcDbEntity
  8
LEVEL001
 62
     3
100
AcDbText
 10
356.3266666666967
 20
40.6
 30
0.0
 40
2.799999999999999
  1
変更日付：
 41
0.8
 72
     1
 11
362.30000000003
 21
42.0
 31
0.0
100
AcDbText
 73
     2
  0
LINE
  5
474
330
A
100
AcDbEntity
  8
LEVEL001
  6
Continuous
 62
     3
100
AcDbLine
 10
354.50000000003
 20
45.33333333333996
 30
0.0
 11
404.50000000003
 21
45.33333333333996
 31
0.0
  0
TEXT
  5
475
330
A
100
AcDbEntity
  8
LEVEL001
 62
     3
100
AcDbText
 10
355.88000000003
 20
26.75
 30
0.0
 40
3.0
  1
ファイル名：
 41
0.8
 72
     1
 11
363.80000000003
 21
28.25
 31
0.0
100
AcDbText
 73
     2
  0
LINE
  5
476
330
A
100
AcDbEntity
  8
LEVEL001
  6
Continuous
 62
     3
100
AcDbLine
 10
354.50000000003
 20
52.0
 30
0.0
 11
354.50000000003
 21
12.0
 31
0.0
  0
LINE
  5
477
330
A
100
AcDbEntity
  8
LEVEL001
  6
Continuous
 62
     3
100
AcDbLine
 10
354.50000000003
 20
38.66666666667004
 30
0.0
 11
404.50000000003
 21
38.66666666667004
 31
0.0
  0
TEXT
  5
478
330
A
100
AcDbEntity
  8
LEVEL001
 62
     7
100
AcDbText
 10
321.30000000003
 20
36.375
 30
0.0
 40
3.75
  1
Ｓ＝１：１　
 41
0.8
 72
     1
 11
329.50000000003
 21
38.25
 31
0.0
100
AcDbText
 73
     2
  0
LWPOLYLINE
  5
479
330
A
100
AcDbEntity
  8
0
  6
DOT
 62
     3
100
AcDbPolyline
 90
        5
 70
     0
 43
0.0
 10
0.0
 20
0.0
 10
420.0
 20
0.0
 10
420.0
 20
297.0
 10
0.0
 20
297.0
 10
0.0
 20
0.0
  0
TEXT
  5
480
330
A
100
AcDbEntity
  8
LEVEL001
 62
     8
100
AcDbText
 10
310.22087571478
 20
73.71475621829995
 30
0.0
 40
4.0
  1
※本製品は予告無しに変更する事があります。
 41
0.8
 72
     1
 11
349.26087571478
 21
75.71475621829995
 31
0.0
100
AcDbText
 73
     2
  0
TEXT
  5
481
330
A
100
AcDbEntity
  8
LEVEL001
 62
     8
100
AcDbText
 10
320.33487664471
 20
240.45460526316
 30
0.0
 40
4.5
  1
コーナープロテクター(軟質タイプ)
 41
0.8
 72
     1
 11
354.77487664471
 21
242.70460526316
 31
0.0
100
AcDbText
 73
     2
  0
TEXT
  5
482
330
A
100
AcDbEntity
  8
LEVEL001
 62
     7
100
AcDbText
 10
343.40000000003
 20
56.375
 30
0.0
 40
3.75
  1
平面図･断面図
 41
0.8
 72
     1
 11
354.50000000003
 21
58.25
 31
0.0
100
AcDbText
 73
     2
  0
TEXT
  5
483
330
A
100
AcDbEntity
  8
LEVEL001
 62
     7
100
AcDbText
 10
371.85508456083
 20
47.16666666667004
 30
0.0
 40
3.0
  1
平成２６年１０月３１日
 41
0.8
 72
     1
 11
387.21508456083
 21
48.66666666667004
 31
0.0
100
AcDbText
 73
     2
  0
TEXT
  5
484
330
A
100
AcDbEntity
  8
LEVEL001
 62
     8
100
AcDbText
 10
341.2466666666967
 20
223.5833333333399
 30
0.0
 40
3.5
  1
ＣＰＬ９０タイプ
 41
0.8
 72
     1
 11
354.50000000003
 21
225.33333333334
 31
0.0
100
AcDbText
 73
     2
  0
TEXT
  5
485
330
A
100
AcDbEntity
  8
LEVEL001
 62
     8
100
AcDbText
 10
314.50000000003
 20
204.75
 30
0.0
 40
3.0
  1
●ＣＰＬ９０
 41
0.8
100
AcDbText
  0
TEXT
  5
486
330
A
100
AcDbEntity
  8
LEVEL001
 62
     8
100
AcDbText
 10
314.50000000003
 20
200.75
 30
0.0
 40
3.0
  1
　材質：本体－特殊樹脂
 41
0.8
100
AcDbText
  0
TEXT
  5
487
330
A
100
AcDbEntity
  8
LEVEL001
 62
     8
100
AcDbText
 10
314.50000000003
 20
196.75
 30
0.0
 40
3.0
  1
　　　　芯材－亜鉛鋼板
 41
0.8
100
AcDbText
  0
TEXT
  5
488
330
A
100
AcDbEntity
  8
LEVEL001
 62
     8
100
AcDbText
 10
314.50000000003
 20
786.75
 30
0.0
 40
3.0
  1
              
 41
0.5
100
AcDbText
  0
TEXT
  5
489
330
A
100
AcDbEntity
  8
LEVEL001
 62
     8
100
AcDbText
 10
314.50000000003
 20
188.75
 30
0.0
 40
3.0
  1
　長さ：１０００m/m･２０００m/m
 41
0.8
100
AcDbText
  0
TEXT
  5
48A
330
A
100
AcDbEntity
  8
LEVEL001
 62
     8
100
AcDbText
 10
314.50000000003
 20
778.75
 30
0.0
 40
3.0
  1
　
100
AcDbText
  0
TEXT
  5
48B
330
A
100
AcDbEntity
  8
LEVEL001
 62
     8
100
AcDbText
 10
314.50000000003
 20
180.75
 30
0.0
 40
3.0
  1
　仕上：(標準色３色)
 41
0.8
100
AcDbText
  0
TEXT
  5
48C
330
A
100
AcDbEntity
  8
LEVEL001
 62
     8
100
AcDbText
 10
314.50000000003
 20
176.75
 30
0.0
 40
3.0
  1
　　　　Ｐ０５－フローステッドブラック(淡黒)　(Ｂ)
 41
0.8
100
AcDbText
  0
TEXT
  5
48D
330
A
100
AcDbEntity
  8
LEVEL001
 62
     8
100
AcDbText
 10
314.50000000003
 20
172.75
 30
0.0
 40
3.0
  1
        Ｐ０７－ダークアイボリー　　　(薄黄)　(ＤＩ)
 41
0.8
100
AcDbText
  0
TEXT
  5
48E
330
A
100
AcDbEntity
  8
LEVEL001
 62
     8
100
AcDbText
 10
314.50000000003
 20
168.75
 30
0.0
 40
3.0
  1
　　　　Ｐ１２－イエロー　　　　　　　(黄)　　(Ｙ)
 41
0.8
100
AcDbText
  0
TEXT
  5
48F
330
A
100
AcDbEntity
  8
LEVEL001
 62
     8
100
AcDbText
 10
314.50000000003
 20
758.75
 30
0.0
 40
3.0
  1

 41
0.5
100
AcDbText
  0
TEXT
  5
490
330
A
100
AcDbEntity
  8
LEVEL001
 62
     8
100
AcDbText
 10
314.50000000003
 20
160.75
 30
0.0
 40
3.0
  1
●ＣＰ９０(キャップ)
 41
0.8
100
AcDbText
  0
TEXT
  5
491
330
A
100
AcDbEntity
  8
LEVEL001
 62
     8
100
AcDbText
 10
314.50000000003
 20
156.75
 30
0.0
 40
3.0
  1
　材質：特殊樹脂
 41
0.8
100
AcDbText
  0
TEXT
  5
492
330
A
100
AcDbEntity
  8
LEVEL001
 62
     8
100
AcDbText
 10
314.50000000003
 20
152.75
 30
0.0
 40
3.0
  1
　適応：ＣＰＬ９０用　
 41
0.8
100
AcDbText
  0
TEXT
  5
493
330
A
100
AcDbEntity
  8
LEVEL001
 62
     7
100
AcDbText
 10
370.90000000003
 20
16.375
 30
0.0
 40
3.75
  1
ＣＰＬ－３
 41
0.8
 72
     1
 11
379.50000000003
 21
18.25
 31
0.0
100
AcDbText
 73
     2
  0
LINE
  5
4EB
330
A
100
AcDbEntity
  8
LEVEL001
  6
DASHDOT
 62
     6
370
    15
100
AcDbLine
 10
92.471127481852
 20
263.35523990327
 30
0.0
 11
92.471127481852
 21
214.56414657317
 31
0.0
  0
LINE
  5
4EC
330
A
100
AcDbEntity
  8
LEVEL001
  6
DASHDOT
 62
     6
370
    15
100
AcDbLine
 10
190.28879715046
 20
215.59806967232
 30
0.0
 11
243.33152770304
 21
268.64080022491
 31
0.0
  0
TEXT
  5
4ED
330
A
100
AcDbEntity
  8
LEVEL001
 62
     8
100
AcDbText
 10
76.47112748185199
 20
190.7840309550199
 30
0.0
 40
4.0
  1
ＣＰＬ９０断面図
 41
0.8
100
AcDbText
  0
TEXT
  5
4EE
330
A
100
AcDbEntity
  8
LEVEL001
 62
     8
100
AcDbText
 10
76.47112748185199
 20
185.45069762168
 30
0.0
 40
4.0
  1
　(Ｓ＝１：２)
 41
0.8
100
AcDbText
  0
TEXT
  5
4EF
330
A
100
AcDbEntity
  8
LEVEL001
 62
     8
100
AcDbText
 10
194.21614266429
 20
190.7840309550199
 30
0.0
 40
4.0
  1
ＣＰ９０断面図
 41
0.8
100
AcDbText
  0
TEXT
  5
4F0
330
A
100
AcDbEntity
  8
LEVEL001
 62
     8
100
AcDbText
 10
194.21614266429
 20
185.45069762168
 30
0.0
 40
4.0
  1
 (Ｓ＝１：２)
 41
0.8
100
AcDbText
  0
TEXT
  5
4F3
330
A
100
AcDbEntity
  8
LEVEL001
 62
     8
100
AcDbText
 10
18.779937791403
 20
165.56458757698
 30
0.0
 40
3.5
  1
･ＣＰＬ９０１０用芯金
 41
0.8
 11
18.779937791403
 21
167.31458757698
 31
0.0
100
AcDbText
 73
     2
  0
TEXT
  5
4F4
330
A
100
AcDbEntity
  8
LEVEL001
 62
     8
100
AcDbText
 10
18.779937791403
 20
99.84597207112996
 30
0.0
 40
3.5
  1
･ＣＰＬ９０２０用芯金
 41
0.8
 11
18.779937791403
 21
101.5959720711299
 31
0.0
100
AcDbText
 73
     2
  0
LINE
  5
4F5
330
A
100
AcDbEntity
  8
LEVEL001
  6
Continuous
 62
     2
100
AcDbLine
 10
41.641201785315
 20
135.17887901316
 30
0.0
 11
42.50480568531499
 21
135.17887901316
 31
0.0
  0
LINE
  5
4F6
330
A
100
AcDbEntity
  8
LEVEL001
  6
Continuous
 62
     2
100
AcDbLine
 10
41.641201785315
 20
134.54248291316
 30
0.0
 11
42.50480568531499
 21
134.54248291316
 31
0.0
  0
ARC
  5
4F7
330
A
100
AcDbEntity
  8
LEVEL001
  6
Continuous
 62
     2
100
AcDbCircle
 10
41.641201785315
 20
134.86068096163
 30
0.0
 40
0.3181980515338
100
AcDbArc
 50
90.0
 51
270.0
  0
ARC
  5
4F8
330
A
100
AcDbEntity
  8
LEVEL001
  6
Continuous
 62
     2
100
AcDbCircle
 10
42.50480568531499
 20
134.86068096163
 30
0.0
 40
0.3181980515338
100
AcDbArc
 50
270.0
 51
90.0
  0
LINE
  5
4F9
330
A
100
AcDbEntity
  8
LEVEL001
  6
Continuous
 62
     2
100
AcDbLine
 10
122.141201785315
 20
140.41146919395
 30
0.0
 11
123.004805685315
 21
140.41146919395
 31
0.0
  0
LINE
  5
4FA
330
A
100
AcDbEntity
  8
LEVEL001
  6
Continuous
 62
     2
100
AcDbLine
 10
122.141201785315
 20
139.77507309395
 30
0.0
 11
123.004805685315
 21
139.77507309395
 31
0.0
  0
ARC
  5
4FB
330
A
100
AcDbEntity
  8
LEVEL001
  6
Continuous
 62
     2
100
AcDbCircle
 10
122.141201785315
 20
140.09327114242
 30
0.0
 40
0.3181980515338
100
AcDbArc
 50
90.0
 51
270.0
  0
ARC
  5
4FC
330
A
100
AcDbEntity
  8
LEVEL001
  6
Continuous
 62
     2
100
AcDbCircle
 10
123.004805685315
 20
140.09327114242
 30
0.0
 40
0.3181980515338
100
AcDbArc
 50
270.0
 51
90.0
  0
LINE
  5
4FD
330
A
100
AcDbEntity
  8
LEVEL001
  6
Continuous
 62
     2
100
AcDbLine
 10
84.14120178531499
 20
135.1788790101
 30
0.0
 11
85.00480568531498
 21
135.1788790101
 31
0.0
  0
LINE
  5
4FE
330
A
100
AcDbEntity
  8
LEVEL001
  6
Continuous
 62
     2
100
AcDbLine
 10
84.14120178531499
 20
134.5424829101
 30
0.0
 11
85.00480568531498
 21
134.5424829101
 31
0.0
  0
ARC
  5
4FF
330
A
100
AcDbEntity
  8
LEVEL001
  6
Continuous
 62
     2
100
AcDbCircle
 10
84.14120178531499
 20
134.86068095856
 30
0.0
 40
0.3181980515338
100
AcDbArc
 50
90.0
 51
270.0
  0
ARC
  5
500
330
A
100
AcDbEntity
  8
LEVEL001
  6
Continuous
 62
     2
100
AcDbCircle
 10
85.00480568531498
 20
134.86068095856
 30
0.0
 40
0.3181980515338
100
AcDbArc
 50
270.0
 51
90.0
  0
LINE
  5
501
330
A
100
AcDbEntity
  8
LEVEL001
  6
Continuous
 62
     2
100
AcDbLine
 10
79.64120178531499
 20
140.4114691908899
 30
0.0
 11
80.50480568531499
 21
140.4114691908899
 31
0.0
  0
LINE
  5
502
330
A
100
AcDbEntity
  8
LEVEL001
  6
Continuous
 62
     2
100
AcDbLine
 10
79.64120178531499
 20
139.77507309089
 30
0.0
 11
80.50480568531499
 21
139.77507309089
 31
0.0
  0
ARC
  5
503
330
A
100
AcDbEntity
  8
LEVEL001
  6
Continuous
 62
     2
100
AcDbCircle
 10
79.64120178531499
 20
140.09327113935
 30
0.0
 40
0.3181980515338
100
AcDbArc
 50
90.0
 51
270.0
  0
ARC
  5
504
330
A
100
AcDbEntity
  8
LEVEL001
  6
Continuous
 62
     2
100
AcDbCircle
 10
80.50480568531499
 20
140.09327113935
 30
0.0
 40
0.3181980515338
100
AcDbArc
 50
270.0
 51
90.0
  0
LINE
  5
505
330
A
100
AcDbEntity
  8
LEVEL001
  6
Continuous
 62
     2
100
AcDbLine
 10
126.641201785315
 20
135.1788790101
 30
0.0
 11
127.504805685315
 21
135.1788790101
 31
0.0
  0
LINE
  5
506
330
A
100
AcDbEntity
  8
LEVEL001
  6
Continuous
 62
     2
100
AcDbLine
 10
126.641201785315
 20
134.5424829101
 30
0.0
 11
127.504805685315
 21
134.5424829101
 31
0.0
  0
ARC
  5
507
330
A
100
AcDbEntity
  8
LEVEL001
  6
Continuous
 62
     2
100
AcDbCircle
 10
126.641201785315
 20
134.86068095856
 30
0.0
 40
0.3181980515338
100
AcDbArc
 50
90.0
 51
270.0
  0
ARC
  5
508
330
A
100
AcDbEntity
  8
LEVEL001
  6
Continuous
 62
     2
100
AcDbCircle
 10
127.504805685315
 20
134.86068095856
 30
0.0
 40
0.3181980515338
100
AcDbArc
 50
270.0
 51
90.0
  0
LWPOLYLINE
  5
509
330
A
100
AcDbEntity
  8
LEVEL001
  6
Continuous
 62
     2
100
AcDbPolyline
 90
        5
 70
     0
 43
0.0
 10
32.573003735315
 20
142.6489060610399
 10
32.573003735315
 20
132.3050460430399
 10
132.57300373532
 20
132.3050460430399
 10
132.57300373532
 20
142.6489060610399
 10
32.573003735315
 20
142.6489060610399
  0
LINE
  5
510
330
A
100
AcDbEntity
  8
LEVEL001
  6
Continuous
 62
     2
100
AcDbLine
 10
32.573003735315
 20
141.6489060610399
 30
0.0
 11
132.57300373532
 21
141.6489060610399
 31
0.0
  0
LINE
  5
511
330
A
100
AcDbEntity
  8
LEVEL001
  6
Continuous
 62
     2
100
AcDbLine
 10
32.573003735315
 20
137.4769760520199
 30
0.0
 11
132.57300373532
 21
137.4769760520199
 31
0.0
  0
LINE
  5
512
330
A
100
AcDbEntity
  8
LEVEL001
  6
Continuous
 62
     2
100
AcDbLine
 10
32.573003735315
 20
133.3050460430399
 30
0.0
 11
132.57300373532
 21
133.3050460430399
 31
0.0
  0
LWPOLYLINE
  5
513
330
A
100
AcDbEntity
  8
LEVEL001
  6
Continuous
 62
     2
100
AcDbPolyline
 90
        5
 70
     0
 43
0.0
 10
232.57300373532
 20
78.15017911432994
 10
32.573003735315
 20
78.15017911432994
 10
32.573003735315
 20
67.80631909632996
 10
232.57300373532
 20
67.80631909632996
 10
232.57300373532
 20
78.15017911432994
  0
LINE
  5
51A
330
A
100
AcDbEntity
  8
LEVEL001
  6
Continuous
 62
     2
100
AcDbLine
 10
32.573003735315
 20
72.97824910531005
 30
0.0
 11
232.57300373532
 21
72.97824910531005
 31
0.0
  0
LINE
  5
51B
330
A
100
AcDbEntity
  8
LEVEL001
  6
Continuous
 62
     2
100
AcDbLine
 10
32.573003735315
 20
77.15017911432994
 30
0.0
 11
232.57300373532
 21
77.15017911432994
 31
0.0
  0
LINE
  5
51C
330
A
100
AcDbEntity
  8
LEVEL001
  6
Continuous
 62
     2
100
AcDbLine
 10
32.573003735315
 20
68.80631909632995
 30
0.0
 11
232.57300373532
 21
68.80631909632995
 31
0.0
  0
LINE
  5
51D
330
A
100
AcDbEntity
  8
LEVEL001
  6
Continuous
 62
     2
100
AcDbLine
 10
37.141201785315
 20
75.27634614416013
 30
0.0
 11
38.004805685315
 21
75.27634614416013
 31
0.0
  0
LINE
  5
51E
330
A
100
AcDbEntity
  8
LEVEL001
  6
Continuous
 62
     2
100
AcDbLine
 10
37.141201785315
 20
75.91274225337395
 30
0.0
 11
38.004805685315
 21
75.91274225337395
 31
0.0
  0
ARC
  5
51F
330
A
100
AcDbEntity
  8
LEVEL001
  6
Continuous
 62
     2
100
AcDbCircle
 10
37.141201785315
 20
75.59454419570011
 30
0.0
 40
0.3181980515338
100
AcDbArc
 50
90.00000000000003
 51
270.0
  0
ARC
  5
520
330
A
100
AcDbEntity
  8
LEVEL001
  6
Continuous
 62
     2
100
AcDbCircle
 10
38.004805685315
 20
75.59454419570011
 30
0.0
 40
0.3181980515338
100
AcDbArc
 50
270.0
 51
90.00000000000003
  0
LINE
  5
521
330
A
100
AcDbEntity
  8
LEVEL001
  6
Continuous
 62
     2
100
AcDbLine
 10
47.141201785315
 20
70.04375596337013
 30
0.0
 11
48.004805685315
 21
70.04375596337013
 31
0.0
  0
LINE
  5
522
330
A
100
AcDbEntity
  8
LEVEL001
  6
Continuous
 62
     2
100
AcDbLine
 10
47.141201785315
 20
70.68015206337008
 30
0.0
 11
48.004805685315
 21
70.68015206337008
 31
0.0
  0
ARC
  5
523
330
A
100
AcDbEntity
  8
LEVEL001
  6
Continuous
 62
     2
100
AcDbCircle
 10
47.141201785315
 20
70.36195401491011
 30
0.0
 40
0.3181980515338
100
AcDbArc
 50
90.00000000000003
 51
270.0
  0
ARC
  5
524
330
A
100
AcDbEntity
  8
LEVEL001
  6
Continuous
 62
     2
100
AcDbCircle
 10
48.004805685315
 20
70.36195401491011
 30
0.0
 40
0.3181980515338
100
AcDbArc
 50
270.0
 51
90.00000000000003
  0
LINE
  5
525
330
A
100
AcDbEntity
  8
LEVEL001
  6
Continuous
 62
     2
100
AcDbLine
 10
82.141201785315
 20
75.27634614723012
 30
0.0
 11
83.00480568531501
 21
75.27634614723012
 31
0.0
  0
LINE
  5
526
330
A
100
AcDbEntity
  8
LEVEL001
  6
Continuous
 62
     2
100
AcDbLine
 10
82.141201785315
 20
75.91274225030395
 30
0.0
 11
83.00480568531501
 21
75.91274225030395
 31
0.0
  0
ARC
  5
527
330
A
100
AcDbEntity
  8
LEVEL001
  6
Continuous
 62
     2
100
AcDbCircle
 10
82.141201785315
 20
75.59454419877011
 30
0.0
 40
0.3181980515338
100
AcDbArc
 50
90.00000000000003
 51
270.0
  0
ARC
  5
528
330
A
100
AcDbEntity
  8
LEVEL001
  6
Continuous
 62
     2
100
AcDbCircle
 10
83.00480568531501
 20
75.59454419877011
 30
0.0
 40
0.3181980515338
100
AcDbArc
 50
270.0
 51
90.00000000000003
  0
LINE
  5
529
330
A
100
AcDbEntity
  8
LEVEL001
  6
Continuous
 62
     2
100
AcDbLine
 10
92.141201785315
 20
70.04375596644013
 30
0.0
 11
93.00480568531501
 21
70.04375596644013
 31
0.0
  0
LINE
  5
52A
330
A
100
AcDbEntity
  8
LEVEL001
  6
Continuous
 62
     2
100
AcDbLine
 10
92.141201785315
 20
70.68015206644009
 30
0.0
 11
93.00480568531501
 21
70.68015206644009
 31
0.0
  0
ARC
  5
52B
330
A
100
AcDbEntity
  8
LEVEL001
  6
Continuous
 62
     2
100
AcDbCircle
 10
92.141201785315
 20
70.3619540179701
 30
0.0
 40
0.3181980515338
100
AcDbArc
 50
90.00000000000003
 51
270.0
  0
ARC
  5
52C
330
A
100
AcDbEntity
  8
LEVEL001
  6
Continuous
 62
     2
100
AcDbCircle
 10
93.00480568531501
 20
70.3619540179701
 30
0.0
 40
0.3181980515338
100
AcDbArc
 50
270.0
 51
90.00000000000003
  0
LINE
  5
52D
330
A
100
AcDbEntity
  8
LEVEL001
  6
Continuous
 62
     2
100
AcDbLine
 10
127.14120178532
 20
75.27634614723012
 30
0.0
 11
128.00480568532
 21
75.27634614723012
 31
0.0
  0
LINE
  5
52E
330
A
100
AcDbEntity
  8
LEVEL001
  6
Continuous
 62
     2
100
AcDbLine
 10
127.14120178532
 20
75.91274224723008
 30
0.0
 11
128.00480568532
 21
75.91274224723008
 31
0.0
  0
ARC
  5
52F
330
A
100
AcDbEntity
  8
LEVEL001
  6
Continuous
 62
     2
100
AcDbCircle
 10
127.14120178532
 20
75.59454419877011
 30
0.0
 40
0.3181980515338
100
AcDbArc
 50
90.00000000000003
 51
270.0
  0
ARC
  5
530
330
A
100
AcDbEntity
  8
LEVEL001
  6
Continuous
 62
     2
100
AcDbCircle
 10
128.00480568532
 20
75.59454419877011
 30
0.0
 40
0.3181980515338
100
AcDbArc
 50
270.0
 51
90.00000000000003
  0
LINE
  5
531
330
A
100
AcDbEntity
  8
LEVEL001
  6
Continuous
 62
     2
100
AcDbLine
 10
137.14120178532
 20
70.04375596644013
 30
0.0
 11
138.00480568532
 21
70.04375596644013
 31
0.0
  0
LINE
  5
532
330
A
100
AcDbEntity
  8
LEVEL001
  6
Continuous
 62
     2
100
AcDbLine
 10
137.14120178532
 20
70.68015206644009
 30
0.0
 11
138.00480568532
 21
70.68015206644009
 31
0.0
  0
ARC
  5
533
330
A
100
AcDbEntity
  8
LEVEL001
  6
Continuous
 62
     2
100
AcDbCircle
 10
137.14120178532
 20
70.3619540179701
 30
0.0
 40
0.3181980515338
100
AcDbArc
 50
90.00000000000003
 51
270.0
  0
ARC
  5
534
330
A
100
AcDbEntity
  8
LEVEL001
  6
Continuous
 62
     2
100
AcDbCircle
 10
138.00480568532
 20
70.3619540179701
 30
0.0
 40
0.3181980515338
100
AcDbArc
 50
270.0
 51
90.00000000000003
  0
LINE
  5
535
330
A
100
AcDbEntity
  8
LEVEL001
  6
Continuous
 62
     2
100
AcDbLine
 10
172.14120178532
 20
75.27634614723012
 30
0.0
 11
173.00480568532
 21
75.27634614723012
 31
0.0
  0
LINE
  5
536
330
A
100
AcDbEntity
  8
LEVEL001
  6
Continuous
 62
     2
100
AcDbLine
 10
172.14120178532
 20
75.91274224723008
 30
0.0
 11
173.00480568532
 21
75.91274224723008
 31
0.0
  0
ARC
  5
537
330
A
100
AcDbEntity
  8
LEVEL001
  6
Continuous
 62
     2
100
AcDbCircle
 10
172.14120178532
 20
75.59454419877011
 30
0.0
 40
0.3181980515338
100
AcDbArc
 50
90.00000000000003
 51
270.0
  0
ARC
  5
538
330
A
100
AcDbEntity
  8
LEVEL001
  6
Continuous
 62
     2
100
AcDbCircle
 10
173.00480568532
 20
75.59454419877011
 30
0.0
 40
0.3181980515338
100
AcDbArc
 50
270.0
 51
90.00000000000003
  0
LINE
  5
539
330
A
100
AcDbEntity
  8
LEVEL001
  6
Continuous
 62
     2
100
AcDbLine
 10
182.14120178532
 20
70.04375596644013
 30
0.0
 11
183.00480568532
 21
70.04375596644013
 31
0.0
  0
LINE
  5
53A
330
A
100
AcDbEntity
  8
LEVEL001
  6
Continuous
 62
     2
100
AcDbLine
 10
182.14120178532
 20
70.68015206644009
 30
0.0
 11
183.00480568532
 21
70.68015206644009
 31
0.0
  0
ARC
  5
53B
330
A
100
AcDbEntity
  8
LEVEL001
  6
Continuous
 62
     2
100
AcDbCircle
 10
182.14120178532
 20
70.3619540179701
 30
0.0
 40
0.3181980515338
100
AcDbArc
 50
90.00000000000003
 51
270.0
  0
ARC
  5
53C
330
A
100
AcDbEntity
  8
LEVEL001
  6
Continuous
 62
     2
100
AcDbCircle
 10
183.00480568532
 20
70.3619540179701
 30
0.0
 40
0.3181980515338
100
AcDbArc
 50
270.0
 51
90.00000000000003
  0
LINE
  5
53D
330
A
100
AcDbEntity
  8
LEVEL001
  6
Continuous
 62
     2
100
AcDbLine
 10
217.14120178532
 20
75.27634614723012
 30
0.0
 11
218.00480568532
 21
75.27634614723012
 31
0.0
  0
LINE
  5
53E
330
A
100
AcDbEntity
  8
LEVEL001
  6
Continuous
 62
     2
100
AcDbLine
 10
217.14120178532
 20
75.91274224723008
 30
0.0
 11
218.00480568532
 21
75.91274224723008
 31
0.0
  0
ARC
  5
53F
330
A
100
AcDbEntity
  8
LEVEL001
  6
Continuous
 62
     2
100
AcDbCircle
 10
217.14120178532
 20
75.59454419877011
 30
0.0
 40
0.3181980515338
100
AcDbArc
 50
90.00000000000003
 51
270.0
  0
ARC
  5
540
330
A
100
AcDbEntity
  8
LEVEL001
  6
Continuous
 62
     2
100
AcDbCircle
 10
218.00480568532
 20
75.59454419877011
 30
0.0
 40
0.3181980515338
100
AcDbArc
 50
270.0
 51
90.00000000000003
  0
LINE
  5
541
330
A
100
AcDbEntity
  8
LEVEL001
  6
Continuous
 62
     2
100
AcDbLine
 10
22.618541566103
 20
75.27634614418002
 30
0.0
 11
22.505404481104
 21
75.16320905917996
 31
0.0
  0
LINE
  5
542
330
A
100
AcDbEntity
  8
LEVEL001
  6
Continuous
 62
     2
100
AcDbLine
 10
21.869008378036
 20
75.79960516225003
 30
0.0
 11
21.982145463037
 21
75.91274224724998
 31
0.0
  0
LINE
  5
543
330
A
100
AcDbEntity
  8
LEVEL001
  6
Continuous
 62
     2
100
AcDbLine
 10
22.618541566093
 20
70.68015206645998
 30
0.0
 11
22.505404481104
 21
70.79328915144003
 31
0.0
  0
LINE
  5
544
330
A
100
AcDbEntity
  8
LEVEL001
  6
Continuous
 62
     2
100
AcDbLine
 10
21.982145463025
 20
70.04375596339002
 30
0.0
 11
21.869008378036
 21
70.15689304837997
 31
0.0
  0
ARC
  5
545
330
A
100
AcDbEntity
  8
LEVEL001
  6
Continuous
 62
     2
100
AcDbCircle
 10
24.690364435099
 20
72.97824910517999
 30
0.0
 40
0.16
100
AcDbArc
 50
314.9999999999517
 51
45.00000006480598
  0
LWPOLYLINE
  5
546
330
A
100
AcDbEntity
  8
LEVEL001
  6
Continuous
 62
     2
100
AcDbPolyline
 90
        6
 70
     0
 43
0.0
 10
24.803501519961
 20
72.86511202031999
 10
20.744708595964
 20
68.80631909632995
 10
20.744708595964
 20
67.80631909632996
 10
20.584708595963
 20
67.80631909632996
 10
20.584708595963
 20
68.87259326629998
 10
24.655009095911
 20
72.94289376624999
  0
LWPOLYLINE
  5
54E
330
A
100
AcDbEntity
  8
LEVEL001
  6
Continuous
 62
     2
100
AcDbPolyline
 90
        6
 70
     0
 43
0.0
 10
24.655009095911
 20
73.01360444437
 10
20.584708595963
 20
77.08390494432001
 10
20.584708595963
 20
78.15017911432994
 10
20.744708595964
 20
78.15017911432994
 10
20.744708595964
 20
77.15017911432994
 10
24.803501519961
 20
73.0913861903
  0
ARC
  5
556
330
A
100
AcDbEntity
  8
LEVEL001
  6
Continuous
 62
     2
100
AcDbCircle
 10
24.619653756826
 20
72.97824910533996
 30
0.0
 40
0.05
100
AcDbArc
 50
314.9999999999902
 51
44.99999995829916
  0
LINE
  5
557
330
A
100
AcDbEntity
  8
LEVEL001
  6
Continuous
 62
     2
100
AcDbLine
 10
227.14120178532
 20
70.04375596644013
 30
0.0
 11
228.00480568532
 21
70.04375596644013
 31
0.0
  0
LINE
  5
558
330
A
100
AcDbEntity
  8
LEVEL001
  6
Continuous
 62
     2
100
AcDbLine
 10
227.14120178532
 20
70.68015206644009
 30
0.0
 11
228.00480568532
 21
70.68015206644009
 31
0.0
  0
ARC
  5
559
330
A
100
AcDbEntity
  8
LEVEL001
  6
Continuous
 62
     2
100
AcDbCircle
 10
227.14120178532
 20
70.3619540179701
 30
0.0
 40
0.3181980515338
100
AcDbArc
 50
90.00000000000003
 51
270.0
  0
ARC
  5
55A
330
A
100
AcDbEntity
  8
LEVEL001
  6
Continuous
 62
     2
100
AcDbCircle
 10
228.00480568532
 20
70.3619540179701
 30
0.0
 40
0.3181980515338
100
AcDbArc
 50
270.0
 51
90.00000000000003
  0
LINE
  5
55B
330
A
100
AcDbEntity
  8
LEVEL001
  6
Continuous
 62
     2
100
AcDbLine
 10
22.618541566103
 20
139.77507309088
 30
0.0
 11
22.505404481104
 21
139.6619360058899
 31
0.0
  0
LINE
  5
55C
330
A
100
AcDbEntity
  8
LEVEL001
  6
Continuous
 62
     2
100
AcDbLine
 10
21.869008378036
 20
140.29833210895
 30
0.0
 11
21.982145463037
 21
140.41146919395
 31
0.0
  0
LINE
  5
55D
330
A
100
AcDbEntity
  8
LEVEL001
  6
Continuous
 62
     2
100
AcDbLine
 10
22.618541566093
 20
135.17887901316
 30
0.0
 11
22.505404481104
 21
135.29201609815
 31
0.0
  0
LINE
  5
55E
330
A
100
AcDbEntity
  8
LEVEL001
  6
Continuous
 62
     2
100
AcDbLine
 10
21.982145463025
 20
134.5424829101
 30
0.0
 11
21.869008378036
 21
134.65561999508
 31
0.0
  0
ARC
  5
55F
330
A
100
AcDbEntity
  8
LEVEL001
  6
Continuous
 62
     2
100
AcDbCircle
 10
24.690364435073
 20
137.47697605192
 30
0.0
 40
0.16
100
AcDbArc
 50
314.9999999999902
 51
45.00000005135632
  0
LWPOLYLINE
  5
560
330
A
100
AcDbEntity
  8
LEVEL001
  6
Continuous
 62
     2
100
AcDbPolyline
 90
        6
 70
     0
 43
0.0
 10
24.803501519961
 20
137.36383896703
 10
20.744708595964
 20
133.3050460430399
 10
20.744708595964
 20
132.3050460430399
 10
20.584708595963
 20
132.3050460430399
 10
20.584708595963
 20
133.37132021301
 10
24.655009095911
 20
137.44162071296
  0
LWPOLYLINE
  5
568
330
A
100
AcDbEntity
  8
LEVEL001
  6
Continuous
 62
     2
100
AcDbPolyline
 90
        6
 70
     0
 43
0.0
 10
24.655009095911
 20
137.51233139108
 10
20.584708595963
 20
141.58263189103
 10
20.584708595963
 20
142.6489060610399
 10
20.744708595964
 20
142.6489060610399
 10
20.744708595964
 20
141.6489060610399
 10
24.803501519961
 20
137.59011313701
  0
ARC
  5
570
330
A
100
AcDbEntity
  8
LEVEL001
  6
Continuous
 62
     2
100
AcDbCircle
 10
24.619653757157
 20
137.47697605171
 30
0.0
 40
0.05
100
AcDbArc
 50
314.9999999999183
 51
45.00000049442909
  0
LWPOLYLINE
  5
571
330
A
100
AcDbEntity
  8
LEVEL001
  6
Continuous
 62
     1
100
AcDbPolyline
 90
        5
 70
     0
 43
0.0
 10
68.217364887166
 20
225.43395499697
 10
72.05341917504499
 20
224.8859472415599
 10
92.471127481852
 20
245.30365554836
 10
112.88883578861
 20
224.88594724161
 10
116.72489007658
 20
225.43395499704
  0
LINE
  5
578
330
A
100
AcDbEntity
  8
LEVEL001
  6
Continuous
 62
     1
100
AcDbLine
 10
71.98270849690501
 20
224.39097249475
 30
0.0
 11
71.611477436849
 21
224.44400550336
 31
0.0
  0
ARC
  5
579
330
A
100
AcDbEntity
  8
LEVEL001
  6
Continuous
 62
     1
100
AcDbCircle
 10
72.053419175068
 20
224.88594724158
 30
0.0
 40
0.5
100
AcDbArc
 50
261.8698976407003
 51
314.9999999996881
  0
LWPOLYLINE
  5
57A
330
A
100
AcDbEntity
  8
LEVEL001
  6
Continuous
 62
     1
100
AcDbPolyline
 90
        3
 70
     0
 43
0.0
 10
112.53528239799
 20
224.5323938510499
 10
92.471127481852
 20
244.59654876718
 10
72.406972565657
 20
224.53239385098
  0
ARC
  5
57F
330
A
100
AcDbEntity
  8
LEVEL001
  6
Continuous
 62
     1
100
AcDbCircle
 10
68.18200954811
 20
225.18646762358
 30
0.0
 40
0.25
100
AcDbArc
 50
81.86989764584271
 51
261.8698976458398
  0
LINE
  5
580
330
A
100
AcDbEntity
  8
LEVEL001
  6
Continuous
 62
     1
100
AcDbLine
 10
113.33077752686
 20
224.44400550336
 30
0.0
 11
112.95954646664
 21
224.3909724948001
 31
0.0
  0
ARC
  5
581
330
A
100
AcDbEntity
  8
LEVEL001
  6
Continuous
 62
     1
100
AcDbCircle
 10
112.88883578869
 20
224.88594724153
 30
0.0
 40
0.5
100
AcDbArc
 50
224.9999999823599
 51
278.1301023374804
  0
ARC
  5
582
330
A
100
AcDbEntity
  8
LEVEL001
  6
Continuous
 62
     1
100
AcDbCircle
 10
116.76024541563
 20
225.1864676236499
 30
0.0
 40
0.25
100
AcDbArc
 50
278.1301023541504
 51
98.13010235415925
  0
LINE
  5
59B
330
A
100
AcDbEntity
  8
LEVEL001
  6
Continuous
 62
     3
370
    30
100
AcDbLine
 10
175.70035276227
 20
233.8419320916401
 30
0.0
 11
175.70035276227
 21
232.34193209164
 31
0.0
  0
LINE
  5
59C
330
A
100
AcDbEntity
  8
LEVEL001
  6
Continuous
 62
     3
370
    30
100
AcDbLine
 10
175.95035276227
 20
232.59193209164
 30
0.0
 11
175.95035276227
 21
233.5919320916401
 31
0.0
  0
TEXT
  5
59D
330
A
100
AcDbEntity
  8
LEVEL001
 62
     8
100
AcDbText
 10
99.01178954957668
 20
44.46385152844004
 30
0.0
 40
4.0
  1
ＣＰＬ９０用芯材ピッチ図(Ｓ＝１：１０)
 41
0.8
 72
     1
 11
135.38512288291
 21
46.46385152844004
 31
0.0
100
AcDbText
 73
     2
  0
LINE
  5
5EE
330
A
100
AcDbEntity
  8
LEVEL001
  6
Continuous
 62
     3
370
    30
100
AcDbLine
 10
71.611477436849
 20
224.44400550336
 30
0.0
 11
67.89916683561999
 21
224.97433558925
 31
0.0
  0
LINE
  5
5EF
330
A
100
AcDbEntity
  8
LEVEL001
  6
Continuous
 62
     3
370
    30
100
AcDbLine
 10
113.33077752686
 20
224.44400550336
 30
0.0
 11
117.04308812808
 21
224.97433558925
 31
0.0
  0
ARC
  5
5F0
330
A
100
AcDbEntity
  8
LEVEL001
  6
Continuous
 62
     3
370
    30
100
AcDbCircle
 10
68.07594353090699
 20
226.21177245633
 30
0.0
 40
1.25
100
AcDbArc
 50
134.9999999997312
 51
261.8698976462802
  0
ARC
  5
5F1
330
A
100
AcDbEntity
  8
LEVEL001
  6
Continuous
 62
     3
370
    30
100
AcDbCircle
 10
116.86631143276
 20
226.21177245636
 30
0.0
 40
1.25
100
AcDbArc
 50
278.1301023554297
 51
44.99999999787326
  0
ARC
  5
5F2
330
A
100
AcDbEntity
  8
LEVEL001
  6
Continuous
 62
     3
370
    30
100
AcDbCircle
 10
92.471127481851
 20
248.1320826731099
 30
0.0
 40
6.0
100
AcDbArc
 50
44.99999999998151
 51
134.9999999999997
  0
ARC
  5
5F3
330
A
100
AcDbEntity
  8
LEVEL001
  6
Continuous
 62
     3
370
    30
100
AcDbCircle
 10
92.47112748185699
 20
248.1320826731099
 30
0.0
 40
3.0
100
AcDbArc
 50
45.00000000013732
 51
134.9999999999997
  0
LINE
  5
5F4
330
A
100
AcDbEntity
  8
LEVEL001
  6
Continuous
 62
     3
370
    30
100
AcDbLine
 10
87.909942088905
 20
247.81353796728
 30
0.0
 11
90.349807138293
 21
250.25340301667
 31
0.0
  0
LWPOLYLINE
  5
5F5
330
A
100
AcDbEntity
  8
LEVEL001
  6
Continuous
 62
     3
370
    30
100
AcDbPolyline
 90
        5
 70
     0
 43
0.0
 10
67.192060054433
 20
227.09565593281
 10
83.27873932642701
 20
243.18233520481
 10
87.521380013546
 20
240.35390808006
 10
89.289146966513
 20
242.12167503303
 10
87.597583306027
 20
244.65902052375
  0
ARC
  5
5FC
330
A
100
AcDbEntity
  8
LEVEL001
  6
Continuous
 62
     3
370
    30
100
AcDbCircle
 10
89.67770904186201
 20
246.04577101433
 30
0.0
 40
2.5
100
AcDbArc
 50
135.0000000000812
 51
213.6900675263786
  0
LWPOLYLINE
  5
5FD
330
A
100
AcDbEntity
  8
LEVEL001
  6
Continuous
 62
     3
370
    30
100
AcDbPolyline
 90
        5
 70
     0
 43
0.0
 10
97.344671657677
 20
244.65902052375
 10
95.65310799719199
 20
242.12167503303
 10
97.420874950158
 20
240.35390808006
 10
101.66351563728
 20
243.18233520481
 10
117.75019490927
 20
227.09565593281
  0
LINE
  5
604
330
A
100
AcDbEntity
  8
LEVEL001
  6
Continuous
 62
     3
370
    30
100
AcDbLine
 10
94.59244782541199
 20
250.25340301667
 30
0.0
 11
97.03231287479901
 21
247.81353796728
 31
0.0
  0
ARC
  5
605
330
A
100
AcDbEntity
  8
LEVEL001
  6
Continuous
 62
     3
370
    30
100
AcDbCircle
 10
95.264545921833
 20
246.0457710143201
 30
0.0
 40
2.5
100
AcDbArc
 50
326.309932474021
 51
45.00000000001694
  0
LWPOLYLINE
  5
606
330
A
100
AcDbEntity
  8
LEVEL001
  6
Continuous
 62
     3
370
    30
100
AcDbPolyline
 90
        3
 70
     0
 43
0.0
 10
71.611477436849
 20
224.44400550336
 10
66.30817657794999
 20
219.14070464446
 10
62.772642672017
 20
222.6762385503999
  0
LINE
  5
60B
330
A
100
AcDbEntity
  8
LEVEL001
  6
Continuous
 62
     3
370
    30
100
AcDbLine
 10
62.772642672017
 20
226.91887923751
 30
0.0
 11
88.22848679473301
 21
252.3747233602299
 31
0.0
  0
ARC
  5
60C
330
A
100
AcDbEntity
  8
LEVEL001
  6
Continuous
 62
     3
370
    30
100
AcDbCircle
 10
64.893963015575
 20
224.7975588939501
 30
0.0
 40
3.0
100
AcDbArc
 50
134.9999999999613
 51
225.0000000000002
  0
LINE
  5
60D
330
A
100
AcDbEntity
  8
LEVEL001
  6
Continuous
 62
     3
370
    30
100
AcDbLine
 10
96.713768168972
 20
252.3747233602299
 30
0.0
 11
122.16961229169
 21
226.91887923751
 31
0.0
  0
LWPOLYLINE
  5
60E
330
A
100
AcDbEntity
  8
LEVEL001
  6
Continuous
 62
     3
370
    30
100
AcDbPolyline
 90
        3
 70
     0
 43
0.0
 10
122.16961229169
 20
222.6762385503999
 10
118.63407838575
 20
219.14070464446
 10
113.33077752686
 20
224.44400550336
  0
ARC
  5
613
330
A
100
AcDbEntity
  8
LEVEL001
  6
Continuous
 62
     3
370
    30
100
AcDbCircle
 10
120.04829194813
 20
224.7975588939501
 30
0.0
 40
3.0
100
AcDbArc
 50
315.0000000000382
 51
44.99999999999973
  0
ARC
  5
614
330
A
100
AcDbEntity
  8
LEVEL001
  6
Continuous
 62
     3
370
    30
100
AcDbCircle
 10
233.67607852711
 20
258.8419320916401
 30
0.0
 40
3.125
100
AcDbArc
 50
0.0
 51
46.85968946843681
  0
ARC
  5
615
330
A
100
AcDbEntity
  8
LEVEL001
  6
Continuous
 62
     3
370
    30
100
AcDbCircle
 10
233.67607852712
 20
258.8419320916301
 30
0.0
 40
2.5
100
AcDbArc
 50
0.0
 51
47.32484158630079
  0
ARC
  5
616
330
A
100
AcDbEntity
  8
LEVEL001
  6
Continuous
 62
     3
370
    30
100
AcDbCircle
 10
233.53265956972
 20
258.98535104903
 30
0.0
 40
3.125
100
AcDbArc
 50
43.14031053160547
 51
90.00000000015498
  0
ARC
  5
617
330
A
100
AcDbEntity
  8
LEVEL001
  6
Continuous
 62
     3
370
    30
100
AcDbCircle
 10
233.53265956973
 20
258.98535104902
 30
0.0
 40
2.5
100
AcDbArc
 50
42.67515841447001
 51
90.00000000043399
  0
LINE
  5
618
330
A
100
AcDbEntity
  8
LEVEL001
  6
Continuous
 62
     3
370
    30
100
AcDbLine
 10
232.17607852718
 20
214.46693209164
 30
0.0
 11
235.17607852718
 21
214.46693209164
 31
0.0
  0
LINE
  5
619
330
A
100
AcDbEntity
  8
LEVEL001
  6
Continuous
 62
     3
370
    30
100
AcDbLine
 10
232.17607852714
 20
214.46693209164
 30
0.0
 11
235.17607852718
 21
214.46693209164
 31
0.0
  0
ARC
  5
61A
330
A
100
AcDbEntity
  8
LEVEL001
  6
Continuous
 62
     3
370
    30
100
AcDbCircle
 10
235.17607852718
 20
216.09193209162
 30
0.0
 40
1.0
100
AcDbArc
 50
270.0
 51
0.0
  0
LINE
  5
61B
330
A
100
AcDbEntity
  8
LEVEL001
  6
Continuous
 62
     3
370
    30
100
AcDbLine
 10
232.17607852714
 20
214.4669320917
 30
0.0
 11
235.17607852718
 21
214.4669320917
 31
0.0
  0
ARC
  5
61C
330
A
100
AcDbEntity
  8
LEVEL001
  6
Continuous
 62
     3
370
    30
100
AcDbCircle
 10
235.17607852718
 20
216.09193209163
 30
0.0
 40
1.625
100
AcDbArc
 50
270.0
 51
0.0
  0
LINE
  5
61D
330
A
100
AcDbEntity
  8
LEVEL001
  6
Continuous
 62
     3
370
    30
100
AcDbLine
 10
236.17607852712
 20
216.09193209164
 30
0.0
 11
236.17607852712
 21
258.8419320916401
 31
0.0
  0
LINE
  5
61E
330
A
100
AcDbEntity
  8
LEVEL001
  6
Continuous
 62
     3
370
    30
100
AcDbLine
 10
236.80107852712
 20
216.09193209164
 30
0.0
 11
236.80107852712
 21
258.8419320916401
 31
0.0
  0
LINE
  5
61F
330
A
100
AcDbEntity
  8
LEVEL001
  6
Continuous
 62
     3
370
    30
100
AcDbLine
 10
190.78265956972
 20
261.48535104904
 30
0.0
 11
233.53265956971
 21
261.48535104904
 31
0.0
  0
LINE
  5
620
330
A
100
AcDbEntity
  8
LEVEL001
  6
Continuous
 62
     3
370
    30
100
AcDbLine
 10
190.78265956972
 20
262.11035104904
 30
0.0
 11
233.53265956971
 21
262.11035104904
 31
0.0
  0
LINE
  5
621
330
A
100
AcDbEntity
  8
LEVEL001
  6
Continuous
 62
     3
370
    30
100
AcDbLine
 10
189.15765956972
 20
257.48535104911
 30
0.0
 11
189.15765956972
 21
260.48535104911
 31
0.0
  0
LINE
  5
622
330
A
100
AcDbEntity
  8
LEVEL001
  6
Continuous
 62
     3
370
    30
100
AcDbLine
 10
189.15765956972
 20
257.48535104906
 30
0.0
 11
189.15765956972
 21
260.48535104911
 31
0.0
  0
ARC
  5
623
330
A
100
AcDbEntity
  8
LEVEL001
  6
Continuous
 62
     3
370
    30
100
AcDbCircle
 10
190.7826595697
 20
260.48535104911
 30
0.0
 40
1.0
100
AcDbArc
 50
89.99999999905901
 51
180.0
  0
LINE
  5
624
330
A
100
AcDbEntity
  8
LEVEL001
  6
Continuous
 62
     3
370
    30
100
AcDbLine
 10
189.15765956977
 20
257.48535104906
 30
0.0
 11
189.15765956977
 21
260.48535104911
 31
0.0
  0
ARC
  5
625
330
A
100
AcDbEntity
  8
LEVEL001
  6
Continuous
 62
     3
370
    30
100
AcDbCircle
 10
190.7826595697
 20
260.48535104911
 30
0.0
 40
1.625
100
AcDbArc
 50
89.99999999957799
 51
180.0
  0
LINE
  5
626
330
A
100
AcDbEntity
  8
LEVEL001
  6
Continuous
 62
     3
370
    30
100
AcDbLine
 10
227.80107852712
 20
215.0919320916401
 30
0.0
 11
235.17607852718
 21
215.0919320916401
 31
0.0
  0
LINE
  5
627
330
A
100
AcDbEntity
  8
LEVEL001
  6
Continuous
 62
     3
370
    30
100
AcDbLine
 10
227.80107852712
 20
214.46693209175
 30
0.0
 11
235.17607852718
 21
214.46693209175
 31
0.0
  0
CIRCLE
  5
628
330
A
100
AcDbEntity
  8
LEVEL001
  6
Continuous
 62
     3
370
    30
100
AcDbCircle
 10
232.30107852712
 20
233.09193209164
 30
0.0
 40
0.75
  0
CIRCLE
  5
629
330
A
100
AcDbEntity
  8
LEVEL001
  6
Continuous
 62
     3
370
    30
100
AcDbCircle
 10
232.30107852712
 20
233.09193209164
 30
0.0
 40
0.5
  0
CIRCLE
  5
62A
330
A
100
AcDbEntity
  8
LEVEL001
  6
Continuous
 62
     3
370
    30
100
AcDbCircle
 10
207.78265956972
 20
257.61035104904
 30
0.0
 40
0.75
  0
CIRCLE
  5
62B
330
A
100
AcDbEntity
  8
LEVEL001
  6
Continuous
 62
     3
370
    30
100
AcDbCircle
 10
207.78265956972
 20
257.61035104904
 30
0.0
 40
0.5
  0
LINE
  5
62C
330
A
100
AcDbEntity
  8
LEVEL001
  6
Continuous
 62
     3
370
    30
100
AcDbLine
 10
227.80107852712
 20
214.46693209175
 30
0.0
 11
227.80107852712
 21
253.11035104904
 31
0.0
  0
LINE
  5
62D
330
A
100
AcDbEntity
  8
LEVEL001
  6
Continuous
 62
     3
370
    30
100
AcDbLine
 10
189.15765956983
 20
253.11035104904
 30
0.0
 11
227.80107852712
 21
253.11035104904
 31
0.0
  0
LINE
  5
62E
330
A
100
AcDbEntity
  8
LEVEL001
  6
Continuous
 62
     3
370
    30
100
AcDbLine
 10
189.15765956983
 20
253.11035104904
 30
0.0
 11
189.15765956983
 21
260.48535104911
 31
0.0
  0
LINE
  5
62F
330
A
100
AcDbEntity
  8
LEVEL001
  6
Continuous
 62
     3
370
    30
100
AcDbLine
 10
189.78265956972
 20
253.11035104904
 30
0.0
 11
189.78265956972
 21
260.48535104911
 31
0.0
  0
LINE
  5
630
330
A
100
AcDbEntity
  8
LEVEL001
  6
Continuous
 62
     3
370
    30
100
AcDbLine
 10
169.70035276227
 20
253.11035104904
 30
0.0
 11
177.20035276227
 21
253.11035104904
 31
0.0
  0
LINE
  5
631
330
A
100
AcDbEntity
  8
LEVEL001
  6
Continuous
 62
     3
370
    30
100
AcDbLine
 10
171.20035276227
 20
215.0919320916401
 30
0.0
 11
177.20035276227
 21
215.0919320916401
 31
0.0
  0
LINE
  5
632
330
A
100
AcDbEntity
  8
LEVEL001
  6
Continuous
 62
     3
370
    30
100
AcDbLine
 10
171.20035276227
 20
253.11035104904
 30
0.0
 11
171.20035276227
 21
215.0919320916401
 31
0.0
  0
ARC
  5
633
330
A
100
AcDbEntity
  8
LEVEL001
  6
Continuous
 62
     3
370
    30
100
AcDbCircle
 10
176.70035276227
 20
233.09193209164
 30
0.0
 40
0.5
100
AcDbArc
 50
270.0
 51
90.0
  0
LWPOLYLINE
  5
634
330
A
100
AcDbEntity
  8
LEVEL001
  6
Continuous
 62
     3
370
    30
100
AcDbPolyline
 90
        4
 70
     0
 43
0.0
 10
171.20035276227
 20
233.8419320916401
 10
175.70035276227
 20
233.8419320916401
 10
175.95035276227
 20
233.5919320916401
 10
176.70035276227
 20
233.5919320916401
  0
LWPOLYLINE
  5
63A
330
A
100
AcDbEntity
  8
LEVEL001
  6
Continuous
 62
     3
370
    30
100
AcDbPolyline
 90
        4
 70
     0
 43
0.0
 10
171.20035276227
 20
232.34193209164
 10
175.70035276227
 20
232.34193209164
 10
175.95035276227
 20
232.59193209164
 10
176.70035276227
 20
232.59193209164
  0
LWPOLYLINE
  5
640
330
A
100
AcDbEntity
  8
LEVEL001
  6
Continuous
 62
     3
370
    30
100
AcDbPolyline
 90
        5
 70
     0
 43
0.0
 10
169.70035276227
 20
262.11035104904
 10
169.70035276227
 20
214.46693209175
 10
177.20035276227
 20
214.46693209175
 10
177.20035276227
 20
262.11035104904
 10
169.70035276227
 20
262.11035104904
  0
LINE
  5
835
330
A
100
AcDbEntity
  8
LEVEL001
  6
Continuous
 62
     6
370
    15
100
AcDbLine
 10
32.57300373531748
 20
60.48987850209994
 30
0.0
 11
47.57300373531747
 21
60.4898785021029
 31
0.0
  0
LINE
  5
836
330
A
100
AcDbEntity
  8
LEVEL001
  6
Continuous
 62
     6
370
    15
100
AcDbLine
 10
32.57300373531622
 20
66.80631909629005
 30
0.0
 11
32.57300373531768
 21
59.48987850209994
 31
0.0
  0
CIRCLE
  5
837
330
A
100
AcDbEntity
  8
LEVEL001
  6
Continuous
 62
     6
370
    15
100
AcDbCircle
 10
32.57300373531748
 20
60.48987850209994
 30
0.0
 40
0.2
  0
TEXT
  5
838
330
A
100
AcDbEntity
  8
LEVEL001
 62
     6
370
    15
100
AcDbText
 10
36.07300373532009
 20
60.57746814561006
 30
0.0
 40
3.0
  1
１４５
 41
0.8
100
AcDbText
  0
LINE
  5
839
330
A
100
AcDbEntity
  8
LEVEL001
  6
Continuous
 62
     6
370
    15
100
AcDbLine
 10
47.57300373531747
 20
60.4898785021029
 30
0.0
 11
92.57300373531748
 21
60.48987850211188
 31
0.0
  0
LINE
  5
83A
330
A
100
AcDbEntity
  8
LEVEL001
  6
Continuous
 62
     6
370
    15
100
AcDbLine
 10
47.57300373531622
 20
66.80631909629301
 30
0.0
 11
47.57300373531768
 21
59.4898785021029
 31
0.0
  0
CIRCLE
  5
83B
330
A
100
AcDbEntity
  8
LEVEL001
  6
Continuous
 62
     6
370
    15
100
AcDbCircle
 10
47.57300373531747
 20
60.4898785021029
 30
0.0
 40
0.2
  0
TEXT
  5
83C
330
A
100
AcDbEntity
  8
LEVEL001
 62
     6
370
    15
100
AcDbText
 10
66.07300373532009
 20
60.57746814561006
 30
0.0
 40
3.0
  1
４５０
 41
0.8
100
AcDbText
  0
LINE
  5
83D
330
A
100
AcDbEntity
  8
LEVEL001
  6
Continuous
 62
     6
370
    15
100
AcDbLine
 10
92.57300373531748
 20
60.48987850211188
 30
0.0
 11
137.5730037353224
 21
60.48987850212085
 31
0.0
  0
LINE
  5
83E
330
A
100
AcDbEntity
  8
LEVEL001
  6
Continuous
 62
     6
370
    15
100
AcDbLine
 10
92.57300373531622
 20
66.80631909630199
 30
0.0
 11
92.57300373531768
 21
59.48987850211188
 31
0.0
  0
CIRCLE
  5
83F
330
A
100
AcDbEntity
  8
LEVEL001
  6
Continuous
 62
     6
370
    15
100
AcDbCircle
 10
92.57300373531748
 20
60.48987850211188
 30
0.0
 40
0.2
  0
TEXT
  5
840
330
A
100
AcDbEntity
  8
LEVEL001
 62
     6
370
    15
100
AcDbText
 10
111.0730037353251
 20
60.57746814561006
 30
0.0
 40
3.0
  1
４５０
 41
0.8
100
AcDbText
  0
LINE
  5
841
330
A
100
AcDbEntity
  8
LEVEL001
  6
Continuous
 62
     6
370
    15
100
AcDbLine
 10
137.5730037353224
 20
60.48987850212085
 30
0.0
 11
182.5730037353224
 21
60.48987850212984
 31
0.0
  0
LINE
  5
842
330
A
100
AcDbEntity
  8
LEVEL001
  6
Continuous
 62
     6
370
    15
100
AcDbLine
 10
137.5730037353212
 20
66.80631909631097
 30
0.0
 11
137.5730037353226
 21
59.48987850212086
 31
0.0
  0
CIRCLE
  5
843
330
A
100
AcDbEntity
  8
LEVEL001
  6
Continuous
 62
     6
370
    15
100
AcDbCircle
 10
137.5730037353224
 20
60.48987850212085
 30
0.0
 40
0.2
  0
TEXT
  5
844
330
A
100
AcDbEntity
  8
LEVEL001
 62
     6
370
    15
100
AcDbText
 10
156.073003735325
 20
60.57746814561006
 30
0.0
 40
3.0
  1
４５０
 41
0.8
100
AcDbText
  0
LINE
  5
845
330
A
100
AcDbEntity
  8
LEVEL001
  6
Continuous
 62
     6
370
    15
100
AcDbLine
 10
182.5730037353224
 20
60.48987850212984
 30
0.0
 11
227.5730037353225
 21
60.48987850213871
 31
0.0
  0
LINE
  5
846
330
A
100
AcDbEntity
  8
LEVEL001
  6
Continuous
 62
     6
370
    15
100
AcDbLine
 10
182.5730037353212
 20
66.80631909631995
 30
0.0
 11
182.5730037353226
 21
59.48987850212984
 31
0.0
  0
CIRCLE
  5
847
330
A
100
AcDbEntity
  8
LEVEL001
  6
Continuous
 62
     6
370
    15
100
AcDbCircle
 10
182.5730037353224
 20
60.48987850212984
 30
0.0
 40
0.2
  0
TEXT
  5
848
330
A
100
AcDbEntity
  8
LEVEL001
 62
     6
370
    15
100
AcDbText
 10
201.0730037353251
 20
60.57746814561006
 30
0.0
 40
3.0
  1
４５０
 41
0.8
100
AcDbText
  0
LINE
  5
849
330
A
100
AcDbEntity
  8
LEVEL001
  6
Continuous
 62
     6
370
    15
100
AcDbLine
 10
227.5730037353225
 20
60.48987850213871
 30
0.0
 11
232.5730037353225
 21
60.48987850213973
 31
0.0
  0
LINE
  5
84A
330
A
100
AcDbEntity
  8
LEVEL001
  6
Continuous
 62
     6
370
    15
100
AcDbLine
 10
227.5730037353212
 20
66.80631909632882
 30
0.0
 11
227.5730037353226
 21
59.48987850213871
 31
0.0
  0
LINE
  5
84B
330
A
100
AcDbEntity
  8
LEVEL001
  6
Continuous
 62
     6
370
    15
100
AcDbLine
 10
232.5730037353212
 20
66.80631909632984
 30
0.0
 11
232.5730037353227
 21
59.48987850213973
 31
0.0
  0
CIRCLE
  5
84C
330
A
100
AcDbEntity
  8
LEVEL001
  6
Continuous
 62
     6
370
    15
100
AcDbCircle
 10
227.5730037353225
 20
60.48987850213871
 30
0.0
 40
0.2
  0
CIRCLE
  5
84D
330
A
100
AcDbEntity
  8
LEVEL001
  6
Continuous
 62
     6
370
    15
100
AcDbCircle
 10
232.5730037353225
 20
60.48987850213973
 30
0.0
 40
0.2
  0
TEXT
  5
84E
330
A
100
AcDbEntity
  8
LEVEL001
 62
     6
370
    15
100
AcDbText
 10
227.3230037353251
 20
60.57746814561006
 30
0.0
 40
3.0
  1
５０
 41
0.8
100
AcDbText
  0
LINE
  5
84F
330
A
100
AcDbEntity
  8
LEVEL001
  6
Continuous
 62
     6
370
    15
100
AcDbLine
 10
32.573003735315
 20
95.63735782252001
 30
0.0
 11
232.57300373532
 21
95.63735782252001
 31
0.0
  0
LINE
  5
850
330
A
100
AcDbEntity
  8
LEVEL001
  6
Continuous
 62
     6
370
    15
100
AcDbLine
 10
32.573003735315
 20
86.46661970852006
 30
0.0
 11
32.573003735315
 21
96.63735782252002
 31
0.0
  0
LINE
  5
851
330
A
100
AcDbEntity
  8
LEVEL001
  6
Continuous
 62
     6
370
    15
100
AcDbLine
 10
232.57300373532
 20
86.46661970852006
 30
0.0
 11
232.57300373532
 21
96.63735782252002
 31
0.0
  0
CIRCLE
  5
852
330
A
100
AcDbEntity
  8
LEVEL001
  6
Continuous
 62
     6
370
    15
100
AcDbCircle
 10
32.573003735315
 20
95.63735782252001
 30
0.0
 40
0.2
  0
CIRCLE
  5
853
330
A
100
AcDbEntity
  8
LEVEL001
  6
Continuous
 62
     6
370
    15
100
AcDbCircle
 10
232.57300373532
 20
95.63735782252001
 30
0.0
 40
0.2
  0
TEXT
  5
854
330
A
100
AcDbEntity
  8
LEVEL001
 62
     6
370
    15
100
AcDbText
 10
127.32300373532
 20
96.63735782252002
 30
0.0
 40
3.0
  1
１９９５
 41
0.8
100
AcDbText
  0
LINE
  5
855
330
A
100
AcDbEntity
  8
LEVEL001
  6
Continuous
 62
     6
370
    15
100
AcDbLine
 10
32.57300373531233
 20
86.37903006500994
 30
0.0
 11
37.57300373531233
 21
86.37903006501096
 31
0.0
  0
LINE
  5
856
330
A
100
AcDbEntity
  8
LEVEL001
  6
Continuous
 62
     6
370
    15
100
AcDbLine
 10
32.57300373531377
 20
79.15017911429004
 30
0.0
 11
32.57300373531213
 21
87.37903006500994
 31
0.0
  0
CIRCLE
  5
857
330
A
100
AcDbEntity
  8
LEVEL001
  6
Continuous
 62
     6
370
    15
100
AcDbCircle
 10
32.57300373531233
 20
86.37903006500994
 30
0.0
 40
0.2
  0
TEXT
  5
858
330
A
100
AcDbEntity
  8
LEVEL001
 62
     6
370
    15
100
AcDbText
 10
32.323003735315
 20
86.80184862772193
 30
0.0
 40
3.0
  1
５０
 41
0.8
100
AcDbText
  0
LINE
  5
859
330
A
100
AcDbEntity
  8
LEVEL001
  6
Continuous
 62
     6
370
    15
100
AcDbLine
 10
37.57300373531233
 20
86.37903006501096
 30
0.0
 11
82.57300373531233
 21
86.37903006501995
 31
0.0
  0
LINE
  5
85A
330
A
100
AcDbEntity
  8
LEVEL001
  6
Continuous
 62
     6
370
    15
100
AcDbLine
 10
37.57300373531377
 20
79.15017911429107
 30
0.0
 11
37.57300373531213
 21
87.37903006501097
 31
0.0
  0
CIRCLE
  5
85B
330
A
100
AcDbEntity
  8
LEVEL001
  6
Continuous
 62
     6
370
    15
100
AcDbCircle
 10
37.57300373531233
 20
86.37903006501096
 30
0.0
 40
0.2
  0
TEXT
  5
85C
330
A
100
AcDbEntity
  8
LEVEL001
 62
     6
370
    15
100
AcDbText
 10
56.073003735315
 20
86.80184862772193
 30
0.0
 40
3.0
  1
４５０
 41
0.8
100
AcDbText
  0
LINE
  5
85D
330
A
100
AcDbEntity
  8
LEVEL001
  6
Continuous
 62
     6
370
    15
100
AcDbLine
 10
82.57300373531233
 20
86.37903006501995
 30
0.0
 11
127.5730037353173
 21
86.37903006502881
 31
0.0
  0
LINE
  5
85E
330
A
100
AcDbEntity
  8
LEVEL001
  6
Continuous
 62
     6
370
    15
100
AcDbLine
 10
82.57300373531377
 20
79.15017911430004
 30
0.0
 11
82.57300373531213
 21
87.37903006501994
 31
0.0
  0
CIRCLE
  5
85F
330
A
100
AcDbEntity
  8
LEVEL001
  6
Continuous
 62
     6
370
    15
100
AcDbCircle
 10
82.57300373531233
 20
86.37903006501995
 30
0.0
 40
0.2
  0
TEXT
  5
860
330
A
100
AcDbEntity
  8
LEVEL001
 62
     6
370
    15
100
AcDbText
 10
101.07300373532
 20
86.80184862772193
 30
0.0
 40
3.0
  1
４５０
 41
0.8
100
AcDbText
  0
LINE
  5
861
330
A
100
AcDbEntity
  8
LEVEL001
  6
Continuous
 62
     6
370
    15
100
AcDbLine
 10
127.5730037353173
 20
86.37903006502881
 30
0.0
 11
172.5730037353173
 21
86.3790300650378
 31
0.0
  0
LINE
  5
862
330
A
100
AcDbEntity
  8
LEVEL001
  6
Continuous
 62
     6
370
    15
100
AcDbLine
 10
127.5730037353187
 20
79.15017911430891
 30
0.0
 11
127.5730037353171
 21
87.37903006502881
 31
0.0
  0
CIRCLE
  5
863
330
A
100
AcDbEntity
  8
LEVEL001
  6
Continuous
 62
     6
370
    15
100
AcDbCircle
 10
127.5730037353173
 20
86.37903006502881
 30
0.0
 40
0.2
  0
TEXT
  5
864
330
A
100
AcDbEntity
  8
LEVEL001
 62
     6
370
    15
100
AcDbText
 10
146.07300373532
 20
86.80184862772193
 30
0.0
 40
3.0
  1
４５０
 41
0.8
100
AcDbText
  0
LINE
  5
865
330
A
100
AcDbEntity
  8
LEVEL001
  6
Continuous
 62
     6
370
    15
100
AcDbLine
 10
172.5730037353173
 20
86.3790300650378
 30
0.0
 11
217.5730037353173
 21
86.37903006504677
 31
0.0
  0
LINE
  5
866
330
A
100
AcDbEntity
  8
LEVEL001
  6
Continuous
 62
     6
370
    15
100
AcDbLine
 10
172.5730037353187
 20
79.15017911431789
 30
0.0
 11
172.5730037353171
 21
87.37903006503779
 31
0.0
  0
CIRCLE
  5
867
330
A
100
AcDbEntity
  8
LEVEL001
  6
Continuous
 62
     6
370
    15
100
AcDbCircle
 10
172.5730037353173
 20
86.3790300650378
 30
0.0
 40
0.2
  0
TEXT
  5
868
330
A
100
AcDbEntity
  8
LEVEL001
 62
     6
370
    15
100
AcDbText
 10
191.07300373532
 20
86.80184862772193
 30
0.0
 40
3.0
  1
４５０
 41
0.8
100
AcDbText
  0
LINE
  5
869
330
A
100
AcDbEntity
  8
LEVEL001
  6
Continuous
 62
     6
370
    15
100
AcDbLine
 10
217.5730037353173
 20
86.37903006504677
 30
0.0
 11
232.5730037353173
 21
86.37903006504974
 31
0.0
  0
LINE
  5
86A
330
A
100
AcDbEntity
  8
LEVEL001
  6
Continuous
 62
     6
370
    15
100
AcDbLine
 10
217.5730037353188
 20
79.15017911432688
 30
0.0
 11
217.5730037353171
 21
87.37903006504678
 31
0.0
  0
LINE
  5
86B
330
A
100
AcDbEntity
  8
LEVEL001
  6
Continuous
 62
     6
370
    15
100
AcDbLine
 10
232.5730037353188
 20
79.15017911432983
 30
0.0
 11
232.5730037353171
 21
87.37903006504973
 31
0.0
  0
CIRCLE
  5
86C
330
A
100
AcDbEntity
  8
LEVEL001
  6
Continuous
 62
     6
370
    15
100
AcDbCircle
 10
217.5730037353173
 20
86.37903006504677
 30
0.0
 40
0.2
  0
CIRCLE
  5
86D
330
A
100
AcDbEntity
  8
LEVEL001
  6
Continuous
 62
     6
370
    15
100
AcDbCircle
 10
232.5730037353173
 20
86.37903006504974
 30
0.0
 40
0.2
  0
TEXT
  5
86E
330
A
100
AcDbEntity
  8
LEVEL001
 62
     6
370
    15
100
AcDbText
 10
221.07300373532
 20
86.80184862772193
 30
0.0
 40
3.0
  1
１４５
 41
0.8
100
AcDbText
  0
LINE
  5
86F
330
A
100
AcDbEntity
  8
LEVEL001
  6
Continuous
 62
     6
370
    15
100
AcDbLine
 10
32.573003735315
 20
122.9489902405399
 30
0.0
 11
37.573003735315
 21
122.9489902405399
 31
0.0
  0
LINE
  5
870
330
A
100
AcDbEntity
  8
LEVEL001
  6
Continuous
 62
     6
370
    15
100
AcDbLine
 10
32.573003735315
 20
131.3050460430399
 30
0.0
 11
32.573003735315
 21
121.9489902405399
 31
0.0
  0
CIRCLE
  5
871
330
A
100
AcDbEntity
  8
LEVEL001
  6
Continuous
 62
     6
370
    15
100
AcDbCircle
 10
32.573003735315
 20
122.9489902405399
 30
0.0
 40
0.2
  0
TEXT
  5
872
330
A
100
AcDbEntity
  8
LEVEL001
 62
     6
370
    15
100
AcDbText
 10
34.69791952333708
 20
123.9489902405399
 30
0.0
 40
3.0
  1
９５
 41
0.8
100
AcDbText
  0
LINE
  5
873
330
A
100
AcDbEntity
  8
LEVEL001
  6
Continuous
 62
     6
370
    15
100
AcDbLine
 10
37.573003735315
 20
122.9489902405399
 30
0.0
 11
82.57300373531499
 21
122.9489902405399
 31
0.0
  0
LINE
  5
874
330
A
100
AcDbEntity
  8
LEVEL001
  6
Continuous
 62
     6
370
    15
100
AcDbLine
 10
42.07300373531499
 20
131.3050460430399
 30
0.0
 11
42.07300373531499
 21
121.9489902405399
 31
0.0
  0
CIRCLE
  5
875
330
A
100
AcDbEntity
  8
LEVEL001
  6
Continuous
 62
     6
370
    15
100
AcDbCircle
 10
42.07300373531499
 20
122.9489902405399
 30
0.0
 40
0.2
  0
TEXT
  5
876
330
A
100
AcDbEntity
  8
LEVEL001
 62
     6
370
    15
100
AcDbText
 10
59.04925340995124
 20
123.9489902405399
 30
0.0
 40
3.0
  1
４２５
 41
0.8
100
AcDbText
  0
LINE
  5
877
330
A
100
AcDbEntity
  8
LEVEL001
  6
Continuous
 62
     6
370
    15
100
AcDbLine
 10
82.57300373531499
 20
122.9489902405399
 30
0.0
 11
127.57300373532
 21
122.9489902405399
 31
0.0
  0
LINE
  5
878
330
A
100
AcDbEntity
  8
LEVEL001
  6
Continuous
 62
     6
370
    15
100
AcDbLine
 10
84.573003735315
 20
131.3050460430399
 30
0.0
 11
84.573003735315
 21
121.9489902405399
 31
0.0
  0
CIRCLE
  5
879
330
A
100
AcDbEntity
  8
LEVEL001
  6
Continuous
 62
     6
370
    15
100
AcDbCircle
 10
84.573003735315
 20
122.9489902405399
 30
0.0
 40
0.2
  0
TEXT
  5
87A
330
A
100
AcDbEntity
  8
LEVEL001
 62
     6
370
    15
100
AcDbText
 10
102.9680147439562
 20
123.9489902405399
 30
0.0
 40
3.0
  1
４２５
 41
0.8
100
AcDbText
  0
LINE
  5
87B
330
A
100
AcDbEntity
  8
LEVEL001
  6
Continuous
 62
     6
370
    15
100
AcDbLine
 10
127.57300373532
 20
122.9489902405399
 30
0.0
 11
132.57300373532
 21
122.9489902405399
 31
0.0
  0
LINE
  5
87C
330
A
100
AcDbEntity
  8
LEVEL001
  6
Continuous
 62
     6
370
    15
100
AcDbLine
 10
127.073003735315
 20
131.3050460430399
 30
0.0
 11
127.073003735315
 21
121.9489902405399
 31
0.0
  0
LINE
  5
87D
330
A
100
AcDbEntity
  8
LEVEL001
  6
Continuous
 62
     6
370
    15
100
AcDbLine
 10
132.57300373532
 20
131.3050460430399
 30
0.0
 11
132.57300373532
 21
121.9489902405399
 31
0.0
  0
CIRCLE
  5
87E
330
A
100
AcDbEntity
  8
LEVEL001
  6
Continuous
 62
     6
370
    15
100
AcDbCircle
 10
127.073003735315
 20
122.9489902405399
 30
0.0
 40
0.2
  0
CIRCLE
  5
87F
330
A
100
AcDbEntity
  8
LEVEL001
  6
Continuous
 62
     6
370
    15
100
AcDbCircle
 10
132.57300373532
 20
122.9489902405399
 30
0.0
 40
0.2
  0
TEXT
  5
880
330
A
100
AcDbEntity
  8
LEVEL001
 62
     6
370
    15
100
AcDbText
 10
127.32300373532
 20
123.9489902405399
 30
0.0
 40
3.0
  1
５０
 41
0.8
100
AcDbText
  0
LINE
  5
881
330
A
100
AcDbEntity
  8
LEVEL001
  6
Continuous
 62
     6
370
    15
100
AcDbLine
 10
32.573003735315
 20
151.9675996846799
 30
0.0
 11
47.57300373531499
 21
151.9675996846799
 31
0.0
  0
LINE
  5
882
330
A
100
AcDbEntity
  8
LEVEL001
  6
Continuous
 62
     6
370
    15
100
AcDbLine
 10
32.573003735315
 20
143.6489060610399
 30
0.0
 11
32.573003735315
 21
152.9675996846799
 31
0.0
  0
CIRCLE
  5
883
330
A
100
AcDbEntity
  8
LEVEL001
  6
Continuous
 62
     6
370
    15
100
AcDbCircle
 10
32.573003735315
 20
151.9675996846799
 30
0.0
 40
0.2
  0
TEXT
  5
884
330
A
100
AcDbEntity
  8
LEVEL001
 62
     6
370
    15
100
AcDbText
 10
32.573003735315
 20
152.9675996846799
 30
0.0
 40
3.0
  1
５０
 41
0.8
100
AcDbText
  0
LINE
  5
885
330
A
100
AcDbEntity
  8
LEVEL001
  6
Continuous
 62
     6
370
    15
100
AcDbLine
 10
47.57300373531499
 20
151.9675996846799
 30
0.0
 11
92.57300373531499
 21
151.9675996846799
 31
0.0
  0
LINE
  5
886
330
A
100
AcDbEntity
  8
LEVEL001
  6
Continuous
 62
     6
370
    15
100
AcDbLine
 10
37.573003735315
 20
143.6489060610399
 30
0.0
 11
37.573003735315
 21
152.9675996846799
 31
0.0
  0
CIRCLE
  5
887
330
A
100
AcDbEntity
  8
LEVEL001
  6
Continuous
 62
     6
370
    15
100
AcDbCircle
 10
37.573003735315
 20
151.9675996846799
 30
0.0
 40
0.2
  0
TEXT
  5
888
330
A
100
AcDbEntity
  8
LEVEL001
 62
     6
370
    15
100
AcDbText
 10
54.00264826181865
 20
152.9675996846799
 30
0.0
 40
3.0
  1
４２５
 41
0.8
100
AcDbText
  0
LINE
  5
889
330
A
100
AcDbEntity
  8
LEVEL001
  6
Continuous
 62
     6
370
    15
100
AcDbLine
 10
92.57300373531499
 20
151.9675996846799
 30
0.0
 11
132.57300373532
 21
151.9675996846799
 31
0.0
  0
LINE
  5
88A
330
A
100
AcDbEntity
  8
LEVEL001
  6
Continuous
 62
     6
370
    15
100
AcDbLine
 10
80.07300373531499
 20
143.6489060610399
 30
0.0
 11
80.07300373531499
 21
152.9675996846799
 31
0.0
  0
LINE
  5
88B
330
A
100
AcDbEntity
  8
LEVEL001
  6
Continuous
 62
     6
370
    15
100
AcDbLine
 10
132.57300373532
 20
143.6489060610399
 30
0.0
 11
132.57300373532
 21
152.9675996846799
 31
0.0
  0
CIRCLE
  5
88C
330
A
100
AcDbEntity
  8
LEVEL001
  6
Continuous
 62
     6
370
    15
100
AcDbCircle
 10
80.07300373531499
 20
151.9675996846799
 30
0.0
 40
0.2
  0
CIRCLE
  5
88D
330
A
100
AcDbEntity
  8
LEVEL001
  6
Continuous
 62
     6
370
    15
100
AcDbCircle
 10
132.57300373532
 20
151.9675996846799
 30
0.0
 40
0.2
  0
TEXT
  5
88E
330
A
100
AcDbEntity
  8
LEVEL001
 62
     6
370
    15
100
AcDbText
 10
97.05477504555938
 20
152.9675996846799
 30
0.0
 40
3.0
  1
４２５
 41
0.8
100
AcDbText
  0
LINE
  5
88F
330
A
100
AcDbEntity
  8
LEVEL001
  6
Continuous
 62
     6
370
    15
100
AcDbLine
 10
32.573003735315
 20
161.35597332837
 30
0.0
 11
132.57300373532
 21
161.35597332837
 31
0.0
  0
LINE
  5
890
330
A
100
AcDbEntity
  8
LEVEL001
  6
Continuous
 62
     6
370
    15
100
AcDbLine
 10
32.573003735315
 20
152.9675996846799
 30
0.0
 11
32.573003735315
 21
162.35597332837
 31
0.0
  0
LINE
  5
891
330
A
100
AcDbEntity
  8
LEVEL001
  6
Continuous
 62
     6
370
    15
100
AcDbLine
 10
132.57300373532
 20
152.9675996846799
 30
0.0
 11
132.57300373532
 21
162.35597332837
 31
0.0
  0
CIRCLE
  5
892
330
A
100
AcDbEntity
  8
LEVEL001
  6
Continuous
 62
     8
100
AcDbCircle
 10
32.573003735315
 20
161.35597332837
 30
0.0
 40
0.2
  0
CIRCLE
  5
893
330
A
100
AcDbEntity
  8
LEVEL001
  6
Continuous
 62
     6
370
    15
100
AcDbCircle
 10
132.57300373532
 20
161.35597332837
 30
0.0
 40
0.2
  0
TEXT
  5
894
330
A
100
AcDbEntity
  8
LEVEL001
 62
     6
370
    15
100
AcDbText
 10
77.323003735315
 20
162.35597332837
 30
0.0
 40
3.0
  1
９９５
 41
0.8
100
AcDbText
  0
LINE
  5
895
330
A
100
AcDbEntity
  8
LEVEL001
  6
Continuous
 62
     6
370
    15
100
AcDbLine
 10
130.2108819995
 20
230.7175082582101
 30
0.0
 11
98.391076846105
 21
262.5373134116001
 31
0.0
  0
LINE
  5
896
330
A
100
AcDbEntity
  8
LEVEL001
  6
Continuous
 62
     6
370
    15
100
AcDbLine
 10
124.99803941643
 20
225.50466567514
 30
0.0
 11
130.91798878069
 21
231.4246150394
 31
0.0
  0
LINE
  5
897
330
A
100
AcDbEntity
  8
LEVEL001
  6
Continuous
 62
     6
370
    15
100
AcDbLine
 10
93.17823426303901
 20
257.32447082854
 30
0.0
 11
99.098183627292
 21
263.24442019279
 31
0.0
  0
CIRCLE
  5
898
330
A
100
AcDbEntity
  8
LEVEL001
  6
Continuous
 62
     6
370
    15
100
AcDbCircle
 10
130.2108819995
 20
230.7175082582101
 30
0.0
 40
0.2
  0
CIRCLE
  5
899
330
A
100
AcDbEntity
  8
LEVEL001
  6
Continuous
 62
     6
370
    15
100
AcDbCircle
 10
98.391076846105
 20
262.5373134116001
 30
0.0
 40
0.2
  0
TEXT
  5
89A
330
A
100
AcDbEntity
  8
LEVEL001
 62
     6
370
    15
100
AcDbText
 10
113.08879636934
 20
249.65786846856
 30
0.0
 40
3.0
  1
９０
 50
315.0
 41
0.8
100
AcDbText
  0
LINE
  5
89B
330
A
100
AcDbEntity
  8
LEVEL001
  6
Continuous
 62
     6
370
    15
100
AcDbLine
 10
54.731372964204
 20
230.7175082582101
 30
0.0
 11
86.55117811759899
 21
262.5373134116001
 31
0.0
  0
LINE
  5
89C
330
A
100
AcDbEntity
  8
LEVEL001
  6
Continuous
 62
     6
370
    15
100
AcDbLine
 10
59.944215547271
 20
225.50466567514
 30
0.0
 11
54.024266183018
 21
231.4246150394
 31
0.0
  0
LINE
  5
89D
330
A
100
AcDbEntity
  8
LEVEL001
  6
Continuous
 62
     6
370
    15
100
AcDbLine
 10
91.76402070066599
 20
257.32447082854
 30
0.0
 11
85.844071336412
 21
263.24442019279
 31
0.0
  0
CIRCLE
  5
89E
330
A
100
AcDbEntity
  8
LEVEL001
  6
Continuous
 62
     6
370
    15
100
AcDbCircle
 10
54.731372964204
 20
230.7175082582101
 30
0.0
 40
0.2
  0
CIRCLE
  5
89F
330
A
100
AcDbEntity
  8
LEVEL001
  6
Continuous
 62
     6
370
    15
100
AcDbCircle
 10
86.55117811759899
 20
262.5373134116001
 30
0.0
 40
0.2
  0
TEXT
  5
8A0
330
A
100
AcDbEntity
  8
LEVEL001
 62
     6
370
    15
100
AcDbText
 10
67.610817907245
 20
245.41522778144
 30
0.0
 40
3.0
  1
９０
 50
45.0
 41
0.8
100
AcDbText
  0
LINE
  5
8A1
330
A
100
AcDbEntity
  8
LEVEL001
  6
Continuous
 62
     6
370
    15
100
AcDbLine
 10
126.31522914691
 20
211.4595538833
 30
0.0
 11
131.97208339641
 21
217.11640813279
 31
0.0
  0
LINE
  5
8A2
330
A
100
AcDbEntity
  8
LEVEL001
  6
Continuous
 62
     6
370
    15
100
AcDbLine
 10
119.34118516694
 20
218.43359786328
 30
0.0
 11
127.0223359281
 21
210.75244710211
 31
0.0
  0
LINE
  5
8A3
330
A
100
AcDbEntity
  8
LEVEL001
  6
Continuous
 62
     6
370
    15
100
AcDbLine
 10
124.99803941643
 20
224.09045211277
 30
0.0
 11
132.67919017759
 21
216.40930135161
 31
0.0
  0
CIRCLE
  5
8A4
330
A
100
AcDbEntity
  8
LEVEL001
  6
Continuous
 62
     6
370
    15
100
AcDbCircle
 10
126.31522914691
 20
211.4595538833
 30
0.0
 40
0.2
  0
CIRCLE
  5
8A5
330
A
100
AcDbEntity
  8
LEVEL001
  6
Continuous
 62
     6
370
    15
100
AcDbCircle
 10
131.97208339641
 20
217.11640813279
 30
0.0
 40
0.2
  0
TEXT
  5
8A6
330
A
100
AcDbEntity
  8
LEVEL001
 62
     6
370
    15
100
AcDbText
 10
126.113198638
 20
213.07579795458
 30
0.0
 40
3.0
  1
１６
 50
45.000000000001
 41
0.8
100
AcDbText
  0
LINE
  5
8A7
330
A
100
AcDbEntity
  8
LEVEL001
  6
Continuous
 62
     6
370
    15
100
AcDbLine
 10
227.80107852706
 20
205.29943629998
 30
0.0
 11
236.80107852717
 21
205.29943629993
 31
0.0
  0
LINE
  5
8A8
330
A
100
AcDbEntity
  8
LEVEL001
  6
Continuous
 62
     6
370
    15
100
AcDbLine
 10
227.80107852711
 20
213.46693209175
 30
0.0
 11
227.80107852705
 21
204.29943629998
 31
0.0
  0
LINE
  5
8A9
330
A
100
AcDbEntity
  8
LEVEL001
  6
Continuous
 62
     6
370
    15
100
AcDbLine
 10
236.80107852722
 20
213.4669320917
 30
0.0
 11
236.80107852716
 21
204.29943629993
 31
0.0
  0
CIRCLE
  5
8AA
330
A
100
AcDbEntity
  8
LEVEL001
  6
Continuous
 62
     6
370
    15
100
AcDbCircle
 10
227.80107852706
 20
205.29943629998
 30
0.0
 40
0.2
  0
CIRCLE
  5
8AB
330
A
100
AcDbEntity
  8
LEVEL001
  6
Continuous
 62
     6
370
    15
100
AcDbCircle
 10
236.80107852717
 20
205.29943629993
 30
0.0
 40
0.2
  0
TEXT
  5
8AC
330
A
100
AcDbEntity
  8
LEVEL001
 62
     6
370
    15
100
AcDbText
 10
229.30107852712
 20
206.58515058569
 30
0.0
 40
3.0
  1
１８
 41
0.8
100
AcDbText
  0
LINE
  5
8AD
330
A
100
AcDbEntity
  8
LEVEL001
  6
Continuous
 62
     6
370
    15
100
AcDbLine
 10
245.29015592163
 20
261.88283654012
 30
0.0
 11
244.79015592163
 21
214.38283654018
 31
0.0
  0
LINE
  5
8AE
330
A
100
AcDbEntity
  8
LEVEL001
  6
Continuous
 62
     6
370
    15
100
AcDbLine
 10
238.30102313017
 20
261.95640635898
 30
0.0
 11
246.29010052457
 21
261.87231080746
 31
0.0
  0
LINE
  5
8AF
330
A
100
AcDbEntity
  8
LEVEL001
  6
Continuous
 62
     6
370
    15
100
AcDbLine
 10
237.80102313017
 20
214.45640635903
 30
0.0
 11
245.79010052457
 21
214.3723108075199
 31
0.0
  0
CIRCLE
  5
8B0
330
A
100
AcDbEntity
  8
LEVEL001
  6
Continuous
 62
     6
370
    15
100
AcDbCircle
 10
245.29015592163
 20
261.88283654012
 30
0.0
 40
0.2
  0
CIRCLE
  5
8B1
330
A
100
AcDbEntity
  8
LEVEL001
  6
Continuous
 62
     6
370
    15
100
AcDbCircle
 10
244.79015592163
 20
214.38283654018
 30
0.0
 40
0.2
  0
TEXT
  5
8B2
330
A
100
AcDbEntity
  8
LEVEL001
 62
     6
370
    15
100
AcDbText
 10
243.72293566272
 20
235.1465358161799
 30
0.0
 40
3.0
  1
９５
 50
89.396908805623
 41
0.8
100
AcDbText
  0
LINE
  5
8B3
330
A
100
AcDbEntity
  8
LEVEL001
  6
Continuous
 62
     6
370
    15
100
AcDbLine
 10
236.58122967051
 20
269.8711914738
 30
0.0
 11
189.08122967057
 21
269.37119147381
 31
0.0
  0
LINE
  5
8B4
330
A
100
AcDbEntity
  8
LEVEL001
  6
Continuous
 62
     6
370
    15
100
AcDbLine
 10
236.64713383705
 20
263.61029565209
 30
0.0
 11
236.57070393785
 21
270.87113607674
 31
0.0
  0
LINE
  5
8B5
330
A
100
AcDbEntity
  8
LEVEL001
  6
Continuous
 62
     6
370
    15
100
AcDbLine
 10
189.14713383711
 20
263.11029565209
 30
0.0
 11
189.0707039379
 21
270.3711360767599
 31
0.0
  0
CIRCLE
  5
8B6
330
A
100
AcDbEntity
  8
LEVEL001
  6
Continuous
 62
     6
370
    15
100
AcDbCircle
 10
236.58122967051
 20
269.8711914738
 30
0.0
 40
0.2
  0
CIRCLE
  5
8B7
330
A
100
AcDbEntity
  8
LEVEL001
  6
Continuous
 62
     6
370
    15
100
AcDbCircle
 10
189.08122967057
 20
269.37119147381
 30
0.0
 40
0.2
  0
TEXT
  5
8B8
330
A
100
AcDbEntity
  8
LEVEL001
 62
     6
370
    15
100
AcDbText
 10
209.81786277686
 20
270.87525733675
 30
0.0
 40
3.0
  1
９５
 50
0.6030911943634401
 41
0.8
100
AcDbText
  0
HATCH
  5
A4E
330
A
100
AcDbEntity
  8
0
  6
Continuous
100
AcDbHatch
 10
0.0
 20
0.0
 30
0.0
210
0.0
220
0.0
230
1.0
  2
SOLID
 70
     1
 71
     0
 91
        9
 92
        7
 72
     0
 73
     1
 93
        6
 10
324.45000000004
 20
280.475
 10
319.05000000004
 20
280.475
 10
312.65000000004
 20
270.875
 10
319.05000000004
 20
261.275
 10
324.45000000004
 20
261.275
 10
318.05000000004
 20
270.875
 97
        0
 92
        7
 72
     0
 73
     1
 93
        6
 10
332.55000000004
 20
280.475
 10
327.15000000004
 20
280.475
 10
320.75000000004
 20
270.875
 10
327.15000000004
 20
261.275
 10
332.55000000004
 20
261.275
 10
326.15000000004
 20
270.875
 97
        0
 92
        7
 72
     0
 73
     1
 93
        3
 10
333.35000000004
 20
270.875
 10
328.85000000004
 20
270.875
 10
333.35000000004
 20
263.675
 97
        0
 92
        7
 72
     1
 73
     1
 93
        6
 10
344.15000000004
 20
272.0750000000001
 42
0.0
 10
336.95000000004
 20
272.0750000000001
 42
0.0
 10
336.95000000004
 20
261.275
 42
0.0
 10
340.55000000004
 20
261.275
 42
0.0
 10
340.55000000004
 20
263.075
 42
0.0
 10
344.15000000004
 20
263.075
 42
1.0
 97
        0
 92
       22
 72
     1
 73
     1
 93
        4
 10
340.55000000004
 20
268.475
 42
0.0
 10
344.15000000004
 20
268.4749999999999
 42
-1.0
 10
344.15000000004
 20
266.6749999999999
 42
0.0
 10
340.55000000004
 20
266.6749999999999
 42
0.0
 97
        0
 92
        7
 72
     0
 73
     1
 93
        4
 10
358.55000000004
 20
272.0750000000001
 10
353.15000000004
 20
272.0750000000001
 10
345.95000000004
 20
261.275
 10
351.35000000004
 20
261.275
 97
        0
 92
       23
 72
     0
 73
     1
 93
        3
 10
357.35000000004
 20
268.11166923472
 10
352.79222051023
 20
261.275
 10
357.35000000004
 20
261.275
 97
        0
 92
        7
 72
     0
 73
     1
 93
       22
 10
371.15000000004
 20
268.475
 10
374.75000000004
 20
268.475
 10
374.75000000004
 20
261.275
 10
385.55000000004
 20
261.275
 10
385.55000000004
 20
264.875
 10
378.35000000004
 20
264.875
 10
378.35000000004
 20
265.775
 10
384.65000000004
 20
265.775
 10
384.65000000004
 20
267.575
 10
378.35000000004
 20
267.575
 10
378.35000000004
 20
268.475
 10
385.55000000004
 20
268.475
 10
385.55000000004
 20
272.0750000000001
 10
363.95000000004
 20
272.0750000000001
 10
363.95000000004
 20
268.475
 10
367.55000000004
 20
268.475
 10
367.55000000004
 20
264.875
 10
362.15000000004
 20
264.875
 10
362.15000000004
 20
272.0750000000001
 10
358.55000000004
 20
272.0750000000001
 10
358.55000000004
 20
261.275
 10
371.15000000004
 20
261.275
 97
        0
 92
        7
 72
     1
 73
     1
 93
        8
 10
396.35000000004
 20
264.875
 42
0.0
 10
390.95000000004
 20
264.875
 42
-1.0
 10
390.95000000004
 20
268.475
 42
0.0
 10
396.35000000004
 20
268.475
 42
0.0
 10
396.35000000004
 20
272.0750000000001
 42
0.0
 10
390.95000000004
 20
272.0750000000001
 42
1.0
 10
390.95000000004
 20
261.2750000000001
 42
0.0
 10
396.35000000004
 20
261.275
 42
0.0
 97
        0
 75
     1
 76
     1
 47
0.1180688714556397
 98
        9
 10
318.6882549024695
 20
274.8453077936651
 10
323.6507959620758
 20
272.9562075117278
 10
332.9851059702451
 20
269.0599329308184
 10
340.0744542930288
 20
269.8864153540485
 10
340.0744542930288
 20
269.8864153540485
 10
351.4174131902501
 20
265.5178678024204
 10
356.3799542498564
 20
262.8022829974871
 10
365.9505770543601
 20
263.2745580679716
 10
390.910566356717
 20
262.8006115841003
1001
GradientColor1ACI
1070
     5
1001
GradientColor2ACI
1070
     2
1001
ACAD
1010
0.0
1020
0.0
1030
0.0
  0
LWPOLYLINE
  5
A4F
330
A
100
AcDbEntity
  8
LEVEL001
  6
Continuous
 62
     3
100
AcDbPolyline
 90
        6
 70
     0
 43
0.0
 10
344.15000000004
 20
272.0750000000001
 10
336.95000000004
 20
272.0750000000001
 10
336.95000000004
 20
261.275
 10
340.55000000004
 20
261.275
 10
340.55000000004
 20
263.075
 10
344.15000000004
 20
263.075
  0
ARC
  5
A50
330
A
100
AcDbEntity
  8
LEVEL001
  6
Continuous
 62
     3
100
AcDbCircle
 10
344.15000000004
 20
267.575
 30
0.0
 40
4.5
100
AcDbArc
 50
270.0
 51
90.0
  0
LINE
  5
A51
330
A
100
AcDbEntity
  8
LEVEL001
  6
Continuous
 62
     3
100
AcDbLine
 10
340.55000000004
 20
266.6749999999999
 30
0.0
 11
344.15000000004
 21
266.6749999999999
 31
0.0
  0
ARC
  5
A52
330
A
100
AcDbEntity
  8
LEVEL001
  6
Continuous
 62
     3
100
AcDbCircle
 10
344.15000000004
 20
267.575
 30
0.0
 40
0.9
100
AcDbArc
 50
270.0
 51
90.0
  0
LINE
  5
A53
330
A
100
AcDbEntity
  8
LEVEL001
  6
Continuous
 62
     3
100
AcDbLine
 10
344.15000000004
 20
268.475
 30
0.0
 11
340.55000000004
 21
268.475
 31
0.0
  0
LINE
  5
A54
330
A
100
AcDbEntity
  8
LEVEL001
  6
Continuous
 62
     3
100
AcDbLine
 10
340.55000000004
 20
268.475
 30
0.0
 11
340.55000000004
 21
266.6749999999999
 31
0.0
  0
LWPOLYLINE
  5
A55
330
A
100
AcDbEntity
  8
LEVEL001
  6
Continuous
 62
     3
100
AcDbPolyline
 90
       26
 70
     0
 43
0.0
 10
345.95000000004
 20
261.275
 10
353.15000000004
 20
272.0750000000001
 10
362.15000000004
 20
272.0750000000001
 10
362.15000000004
 20
264.875
 10
367.55000000004
 20
264.875
 10
367.55000000004
 20
268.475
 10
363.95000000004
 20
268.475
 10
363.95000000004
 20
272.0750000000001
 10
385.55000000004
 20
272.0750000000001
 10
385.55000000004
 20
268.475
 10
378.35000000004
 20
268.475
 10
378.35000000004
 20
267.575
 10
384.65000000004
 20
267.575
 10
384.65000000004
 20
265.775
 10
378.35000000004
 20
265.775
 10
378.35000000004
 20
264.875
 10
385.55000000004
 20
264.875
 10
385.55000000004
 20
261.275
 10
374.75000000004
 20
261.275
 10
374.75000000004
 20
268.475
 10
371.15000000004
 20
268.475
 10
371.15000000004
 20
261.275
 10
358.55000000004
 20
261.275
 10
358.55000000004
 20
272.0750000000001
 10
351.35000000004
 20
261.275
 10
345.95000000004
 20
261.275
  0
LWPOLYLINE
  5
A56
330
A
100
AcDbEntity
  8
LEVEL001
  6
Continuous
 62
     3
100
AcDbPolyline
 90
        4
 70
     0
 43
0.0
 10
357.35000000004
 20
268.11166923472
 10
352.79222051023
 20
261.275
 10
357.35000000004
 20
261.275
 10
357.35000000004
 20
268.11166923472
  0
ARC
  5
A57
330
A
100
AcDbEntity
  8
LEVEL001
  6
Continuous
 62
     3
100
AcDbCircle
 10
390.95000000004
 20
266.6749999999999
 30
0.0
 40
5.4
100
AcDbArc
 50
90.0
 51
270.0
  0
ARC
  5
A58
330
A
100
AcDbEntity
  8
LEVEL001
  6
Continuous
 62
     3
100
AcDbCircle
 10
390.95000000004
 20
266.6749999999999
 30
0.0
 40
1.8
100
AcDbArc
 50
90.0
 51
270.0
  0
LWPOLYLINE
  5
A59
330
A
100
AcDbEntity
  8
LEVEL001
  6
Continuous
 62
     3
100
AcDbPolyline
 90
        4
 70
     0
 43
0.0
 10
390.95000000004
 20
272.0750000000001
 10
396.35000000004
 20
272.0750000000001
 10
396.35000000004
 20
268.475
 10
390.95000000004
 20
268.475
  0
LINE
  5
A5A
330
A
100
AcDbEntity
  8
LEVEL001
  6
Continuous
 62
     3
100
AcDbLine
 10
336.95000000004
 20
272.0750000000001
 30
0.0
 11
336.95000000004
 21
261.275
 31
0.0
  0
LINE
  5
A5B
330
A
100
AcDbEntity
  8
LEVEL001
  6
Continuous
 62
     3
100
AcDbLine
 10
336.95000000004
 20
261.275
 30
0.0
 11
340.55000000004
 21
261.275
 31
0.0
  0
LINE
  5
A5C
330
A
100
AcDbEntity
  8
LEVEL001
  6
Continuous
 62
     3
100
AcDbLine
 10
340.55000000004
 20
261.275
 30
0.0
 11
340.55000000004
 21
263.075
 31
0.0
  0
LINE
  5
A5D
330
A
100
AcDbEntity
  8
LEVEL001
  6
Continuous
 62
     3
100
AcDbLine
 10
340.55000000004
 20
263.075
 30
0.0
 11
344.15000000004
 21
263.075
 31
0.0
  0
ARC
  5
A5E
330
A
100
AcDbEntity
  8
LEVEL001
  6
Continuous
 62
     3
100
AcDbCircle
 10
344.15000000004
 20
267.575
 30
0.0
 40
4.5
100
AcDbArc
 50
270.0
 51
90.0
  0
LINE
  5
A5F
330
A
100
AcDbEntity
  8
LEVEL001
  6
Continuous
 62
     3
100
AcDbLine
 10
344.15000000004
 20
272.0750000000001
 30
0.0
 11
336.95000000004
 21
272.0750000000001
 31
0.0
  0
LINE
  5
A60
330
A
100
AcDbEntity
  8
LEVEL001
  6
Continuous
 62
     3
100
AcDbLine
 10
340.55000000004
 20
268.475
 30
0.0
 11
340.55000000004
 21
266.6749999999999
 31
0.0
  0
LINE
  5
A61
330
A
100
AcDbEntity
  8
LEVEL001
  6
Continuous
 62
     3
100
AcDbLine
 10
340.55000000004
 20
266.6749999999999
 30
0.0
 11
344.15000000004
 21
266.6749999999999
 31
0.0
  0
ARC
  5
A62
330
A
100
AcDbEntity
  8
LEVEL001
  6
Continuous
 62
     3
100
AcDbCircle
 10
344.15000000004
 20
267.575
 30
0.0
 40
0.9
100
AcDbArc
 50
270.0
 51
90.0
  0
LINE
  5
A63
330
A
100
AcDbEntity
  8
LEVEL001
  6
Continuous
 62
     3
100
AcDbLine
 10
344.15000000004
 20
268.475
 30
0.0
 11
340.55000000004
 21
268.475
 31
0.0
  0
LINE
  5
A64
330
A
100
AcDbEntity
  8
LEVEL001
  6
Continuous
 62
     3
100
AcDbLine
 10
353.15000000004
 20
272.0750000000001
 30
0.0
 11
345.95000000004
 21
261.275
 31
0.0
  0
LINE
  5
A65
330
A
100
AcDbEntity
  8
LEVEL001
  6
Continuous
 62
     3
100
AcDbLine
 10
345.95000000004
 20
261.275
 30
0.0
 11
351.35000000004
 21
261.275
 31
0.0
  0
LINE
  5
A66
330
A
100
AcDbEntity
  8
LEVEL001
  6
Continuous
 62
     3
100
AcDbLine
 10
351.35000000004
 20
261.275
 30
0.0
 11
358.55000000004
 21
272.0750000000001
 31
0.0
  0
LINE
  5
A67
330
A
100
AcDbEntity
  8
LEVEL001
  6
Continuous
 62
     3
100
AcDbLine
 10
358.55000000004
 20
272.0750000000001
 30
0.0
 11
353.15000000004
 21
272.0750000000001
 31
0.0
  0
LINE
  5
A68
330
A
100
AcDbEntity
  8
LEVEL001
  6
Continuous
 62
     3
100
AcDbLine
 10
357.35000000004
 20
261.275
 30
0.0
 11
357.35000000004
 21
268.11166923472
 31
0.0
  0
LINE
  5
A69
330
A
100
AcDbEntity
  8
LEVEL001
  6
Continuous
 62
     3
100
AcDbLine
 10
357.35000000004
 20
268.11166923472
 30
0.0
 11
352.79222051023
 21
261.275
 31
0.0
  0
LINE
  5
A6A
330
A
100
AcDbEntity
  8
LEVEL001
  6
Continuous
 62
     3
100
AcDbLine
 10
352.79222051023
 20
261.275
 30
0.0
 11
357.35000000004
 21
261.275
 31
0.0
  0
LINE
  5
A6B
330
A
100
AcDbEntity
  8
LEVEL001
  6
Continuous
 62
     3
100
AcDbLine
 10
358.55000000004
 20
261.275
 30
0.0
 11
371.15000000004
 21
261.275
 31
0.0
  0
LINE
  5
A6C
330
A
100
AcDbEntity
  8
LEVEL001
  6
Continuous
 62
     3
100
AcDbLine
 10
371.15000000004
 20
261.275
 30
0.0
 11
371.15000000004
 21
268.475
 31
0.0
  0
LINE
  5
A6D
330
A
100
AcDbEntity
  8
LEVEL001
  6
Continuous
 62
     3
100
AcDbLine
 10
371.15000000004
 20
268.475
 30
0.0
 11
374.75000000004
 21
268.475
 31
0.0
  0
LINE
  5
A6E
330
A
100
AcDbEntity
  8
LEVEL001
  6
Continuous
 62
     3
100
AcDbLine
 10
374.75000000004
 20
268.475
 30
0.0
 11
374.75000000004
 21
261.275
 31
0.0
  0
LINE
  5
A6F
330
A
100
AcDbEntity
  8
LEVEL001
  6
Continuous
 62
     3
100
AcDbLine
 10
374.75000000004
 20
261.275
 30
0.0
 11
385.55000000004
 21
261.275
 31
0.0
  0
LINE
  5
A70
330
A
100
AcDbEntity
  8
LEVEL001
  6
Continuous
 62
     3
100
AcDbLine
 10
385.55000000004
 20
261.275
 30
0.0
 11
385.55000000004
 21
264.875
 31
0.0
  0
LINE
  5
A71
330
A
100
AcDbEntity
  8
LEVEL001
  6
Continuous
 62
     3
100
AcDbLine
 10
385.55000000004
 20
264.875
 30
0.0
 11
378.35000000004
 21
264.875
 31
0.0
  0
LINE
  5
A72
330
A
100
AcDbEntity
  8
LEVEL001
  6
Continuous
 62
     3
100
AcDbLine
 10
378.35000000004
 20
264.875
 30
0.0
 11
378.35000000004
 21
265.775
 31
0.0
  0
LINE
  5
A73
330
A
100
AcDbEntity
  8
LEVEL001
  6
Continuous
 62
     3
100
AcDbLine
 10
378.35000000004
 20
265.775
 30
0.0
 11
384.65000000004
 21
265.775
 31
0.0
  0
LINE
  5
A74
330
A
100
AcDbEntity
  8
LEVEL001
  6
Continuous
 62
     3
100
AcDbLine
 10
384.65000000004
 20
265.775
 30
0.0
 11
384.65000000004
 21
267.575
 31
0.0
  0
LINE
  5
A75
330
A
100
AcDbEntity
  8
LEVEL001
  6
Continuous
 62
     3
100
AcDbLine
 10
384.65000000004
 20
267.575
 30
0.0
 11
378.35000000004
 21
267.575
 31
0.0
  0
LINE
  5
A76
330
A
100
AcDbEntity
  8
LEVEL001
  6
Continuous
 62
     3
100
AcDbLine
 10
378.35000000004
 20
267.575
 30
0.0
 11
378.35000000004
 21
268.475
 31
0.0
  0
LINE
  5
A77
330
A
100
AcDbEntity
  8
LEVEL001
  6
Continuous
 62
     3
100
AcDbLine
 10
378.35000000004
 20
268.475
 30
0.0
 11
385.55000000004
 21
268.475
 31
0.0
  0
LINE
  5
A78
330
A
100
AcDbEntity
  8
LEVEL001
  6
Continuous
 62
     3
100
AcDbLine
 10
385.55000000004
 20
268.475
 30
0.0
 11
385.55000000004
 21
272.0750000000001
 31
0.0
  0
LINE
  5
A79
330
A
100
AcDbEntity
  8
LEVEL001
  6
Continuous
 62
     3
100
AcDbLine
 10
385.55000000004
 20
272.0750000000001
 30
0.0
 11
363.95000000004
 21
272.0750000000001
 31
0.0
  0
LINE
  5
A7A
330
A
100
AcDbEntity
  8
LEVEL001
  6
Continuous
 62
     3
100
AcDbLine
 10
363.95000000004
 20
272.0750000000001
 30
0.0
 11
363.95000000004
 21
268.475
 31
0.0
  0
LINE
  5
A7B
330
A
100
AcDbEntity
  8
LEVEL001
  6
Continuous
 62
     3
100
AcDbLine
 10
363.95000000004
 20
268.475
 30
0.0
 11
367.55000000004
 21
268.475
 31
0.0
  0
LINE
  5
A7C
330
A
100
AcDbEntity
  8
LEVEL001
  6
Continuous
 62
     3
100
AcDbLine
 10
367.55000000004
 20
268.475
 30
0.0
 11
367.55000000004
 21
264.875
 31
0.0
  0
LINE
  5
A7D
330
A
100
AcDbEntity
  8
LEVEL001
  6
Continuous
 62
     3
100
AcDbLine
 10
367.55000000004
 20
264.875
 30
0.0
 11
362.15000000004
 21
264.875
 31
0.0
  0
LINE
  5
A7E
330
A
100
AcDbEntity
  8
LEVEL001
  6
Continuous
 62
     3
100
AcDbLine
 10
362.15000000004
 20
264.875
 30
0.0
 11
362.15000000004
 21
272.0750000000001
 31
0.0
  0
LINE
  5
A7F
330
A
100
AcDbEntity
  8
LEVEL001
  6
Continuous
 62
     3
100
AcDbLine
 10
362.15000000004
 20
272.0750000000001
 30
0.0
 11
358.55000000004
 21
272.0750000000001
 31
0.0
  0
LINE
  5
A80
330
A
100
AcDbEntity
  8
LEVEL001
  6
Continuous
 62
     3
100
AcDbLine
 10
358.55000000004
 20
272.0750000000001
 30
0.0
 11
358.55000000004
 21
261.275
 31
0.0
  0
LINE
  5
A81
330
A
100
AcDbEntity
  8
LEVEL001
  6
Continuous
 62
     3
100
AcDbLine
 10
390.95000000004
 20
261.275
 30
0.0
 11
396.35000000004
 21
261.275
 31
0.0
  0
LINE
  5
A82
330
A
100
AcDbEntity
  8
LEVEL001
  6
Continuous
 62
     3
100
AcDbLine
 10
396.35000000004
 20
261.275
 30
0.0
 11
396.35000000004
 21
264.875
 31
0.0
  0
LINE
  5
A83
330
A
100
AcDbEntity
  8
LEVEL001
  6
Continuous
 62
     3
100
AcDbLine
 10
396.35000000004
 20
264.875
 30
0.0
 11
390.95000000004
 21
264.875
 31
0.0
  0
ARC
  5
A84
330
A
100
AcDbEntity
  8
LEVEL001
  6
Continuous
 62
     3
100
AcDbCircle
 10
390.95000000004
 20
266.6749999999999
 30
0.0
 40
1.8
100
AcDbArc
 50
90.0
 51
270.0
  0
LINE
  5
A85
330
A
100
AcDbEntity
  8
LEVEL001
  6
Continuous
 62
     3
100
AcDbLine
 10
390.95000000004
 20
268.475
 30
0.0
 11
396.35000000004
 21
268.475
 31
0.0
  0
LINE
  5
A86
330
A
100
AcDbEntity
  8
LEVEL001
  6
Continuous
 62
     3
100
AcDbLine
 10
396.35000000004
 20
268.475
 30
0.0
 11
396.35000000004
 21
272.0750000000001
 31
0.0
  0
LINE
  5
A87
330
A
100
AcDbEntity
  8
LEVEL001
  6
Continuous
 62
     3
100
AcDbLine
 10
396.35000000004
 20
272.0750000000001
 30
0.0
 11
390.95000000004
 21
272.0750000000001
 31
0.0
  0
ARC
  5
A88
330
A
100
AcDbEntity
  8
LEVEL001
  6
Continuous
 62
     3
100
AcDbCircle
 10
390.95000000004
 20
266.6749999999999
 30
0.0
 40
5.4
100
AcDbArc
 50
90.0
 51
270.0
  0
TEXT
  5
A89
330
A
100
AcDbEntity
  8
LEVEL001
 62
     3
100
AcDbText
 10
336.95000000004
 20
273.875
 30
0.0
 40
3.75
  1
ケージーパルテック株式会社
 41
0.8
100
AcDbText
  0
LWPOLYLINE
  5
A8A
330
A
100
AcDbEntity
  8
LEVEL001
  6
Continuous
 62
     3
100
AcDbPolyline
 90
        4
 70
     0
 43
0.0
 10
333.35000000004
 20
263.675
 10
328.85000000004
 20
270.875
 10
333.35000000004
 20
270.875
 10
333.35000000004
 20
263.675
  0
LINE
  5
A8B
330
A
100
AcDbEntity
  8
LEVEL001
  6
Continuous
 62
     3
100
AcDbLine
 10
328.85000000004
 20
270.875
 30
0.0
 11
333.35000000004
 21
263.675
 31
0.0
  0
LINE
  5
A8C
330
A
100
AcDbEntity
  8
LEVEL001
  6
Continuous
 62
     3
100
AcDbLine
 10
333.35000000004
 20
263.675
 30
0.0
 11
333.35000000004
 21
270.875
 31
0.0
  0
LINE
  5
A8D
330
A
100
AcDbEntity
  8
LEVEL001
  6
Continuous
 62
     3
100
AcDbLine
 10
333.35000000004
 20
270.875
 30
0.0
 11
328.85000000004
 21
270.875
 31
0.0
  0
LWPOLYLINE
  5
A8E
330
A
100
AcDbEntity
  8
LEVEL001
  6
Continuous
 62
     3
100
AcDbPolyline
 90
        3
 70
     0
 43
0.0
 10
319.05000000004
 20
280.475
 10
312.65000000004
 20
270.875
 10
319.05000000004
 20
261.275
  0
LWPOLYLINE
  5
A8F
330
A
100
AcDbEntity
  8
LEVEL001
  6
Continuous
 62
     3
100
AcDbPolyline
 90
        3
 70
     0
 43
0.0
 10
324.45000000004
 20
261.275
 10
318.05000000004
 20
270.875
 10
324.45000000004
 20
280.475
  0
LWPOLYLINE
  5
A90
330
A
100
AcDbEntity
  8
LEVEL001
  6
Continuous
 62
     3
100
AcDbPolyline
 90
        3
 70
     0
 43
0.0
 10
327.15000000004
 20
280.475
 10
320.75000000004
 20
270.875
 10
327.15000000004
 20
261.275
  0
LWPOLYLINE
  5
A91
330
A
100
AcDbEntity
  8
LEVEL001
  6
Continuous
 62
     3
100
AcDbPolyline
 90
        3
 70
     0
 43
0.0
 10
332.55000000004
 20
261.275
 10
326.15000000004
 20
270.875
 10
332.55000000004
 20
280.475
  0
LWPOLYLINE
  5
A92
330
A
100
AcDbEntity
  8
LEVEL001
  6
Continuous
 62
     3
100
AcDbPolyline
 90
        3
 70
     0
 43
0.0
 10
319.05000000004
 20
261.275
 10
312.65000000004
 20
270.875
 10
319.05000000004
 20
280.475
  0
LINE
  5
A93
330
A
100
AcDbEntity
  8
LEVEL001
  6
Continuous
 62
     3
100
AcDbLine
 10
319.05000000004
 20
280.475
 30
0.0
 11
324.45000000004
 21
280.475
 31
0.0
  0
LWPOLYLINE
  5
A94
330
A
100
AcDbEntity
  8
LEVEL001
  6
Continuous
 62
     3
100
AcDbPolyline
 90
        3
 70
     0
 43
0.0
 10
324.45000000004
 20
280.475
 10
318.05000000004
 20
270.875
 10
324.45000000004
 20
261.275
  0
LINE
  5
A95
330
A
100
AcDbEntity
  8
LEVEL001
  6
Continuous
 62
     3
100
AcDbLine
 10
324.45000000004
 20
261.275
 30
0.0
 11
319.05000000004
 21
261.275
 31
0.0
  0
LWPOLYLINE
  5
A96
330
A
100
AcDbEntity
  8
LEVEL001
  6
Continuous
 62
     3
100
AcDbPolyline
 90
        3
 70
     0
 43
0.0
 10
327.15000000004
 20
261.275
 10
320.75000000004
 20
270.875
 10
327.15000000004
 20
280.475
  0
LINE
  5
A97
330
A
100
AcDbEntity
  8
LEVEL001
  6
Continuous
 62
     3
100
AcDbLine
 10
327.15000000004
 20
280.475
 30
0.0
 11
332.55000000004
 21
280.475
 31
0.0
  0
LWPOLYLINE
  5
A98
330
A
100
AcDbEntity
  8
LEVEL001
  6
Continuous
 62
     3
100
AcDbPolyline
 90
        3
 70
     0
 43
0.0
 10
332.55000000004
 20
280.475
 10
326.15000000004
 20
270.875
 10
332.55000000004
 20
261.275
  0
LINE
  5
A99
330
A
100
AcDbEntity
  8
LEVEL001
  6
Continuous
 62
     3
100
AcDbLine
 10
332.55000000004
 20
261.275
 30
0.0
 11
327.15000000004
 21
261.275
 31
0.0
  0
LINE
  5
AC8
330
A
100
AcDbEntity
  8
LEVEL001
  6
Continuous
 62
     6
370
    15
100
AcDbLine
 10
122.573003735315
 20
143.6489060610399
 30
0.0
 11
122.573003735315
 21
152.9675996846799
 31
0.0
  0
CIRCLE
  5
AC9
330
A
100
AcDbEntity
  8
LEVEL001
  6
Continuous
 62
     6
370
    15
100
AcDbCircle
 10
122.573003735315
 20
151.9675996846799
 30
0.0
 40
0.2
  0
TEXT
  5
ACA
330
A
100
AcDbEntity
  8
LEVEL001
 62
     6
370
    15
100
AcDbText
 10
124.9763857402553
 20
152.9675996846799
 30
0.0
 40
3.0
  1
９５
 41
0.8
100
AcDbText
  0
LINE
  5
ACB
330
A
100
AcDbEntity
  8
LEVEL001
  6
Continuous
 62
     2
100
AcDbLine
 10
37.141201785315
 20
140.41146919395
 30
0.0
 11
38.004805685315
 21
140.41146919395
 31
0.0
  0
LINE
  5
ACC
330
A
100
AcDbEntity
  8
LEVEL001
  6
Continuous
 62
     2
100
AcDbLine
 10
37.141201785315
 20
139.77507309395
 30
0.0
 11
38.004805685315
 21
139.77507309395
 31
0.0
  0
ARC
  5
ACD
330
A
100
AcDbEntity
  8
LEVEL001
  6
Continuous
 62
     2
100
AcDbCircle
 10
37.141201785315
 20
140.09327114242
 30
0.0
 40
0.3181980515338
100
AcDbArc
 50
90.0
 51
270.0
  0
ARC
  5
ACE
330
A
100
AcDbEntity
  8
LEVEL001
  6
Continuous
 62
     2
100
AcDbCircle
 10
38.004805685315
 20
140.09327114242
 30
0.0
 40
0.3181980515338
100
AcDbArc
 50
270.0
 51
90.0
  0
ENDSEC
  0
SECTION
  2
OBJECTS
  0
DICTIONARY
  5
3D
330
0
100
AcDbDictionary
281
     1
  3
ACAD_CIP_PREVIOUS_PRODUCT_INFO
350
980
  3
ACAD_COLOR
350
912
  3
ACAD_GROUP
350
3E
  3
ACAD_LAYOUT
350
915
  3
ACAD_MATERIAL
350
911
  3
ACAD_MLEADERSTYLE
350
97B
  3
ACAD_MLINESTYLE
350
3F
  3
ACAD_PLOTSETTINGS
350
916
  3
ACAD_PLOTSTYLENAME
350
90F
  3
ACAD_SCALELIST
350
969
  3
ACAD_TABLESTYLE
350
913
  3
ACAD_VISUALSTYLE
350
950
  3
ACDB_RECOMPOSE_DATA
350
AF1
  3
AcDbVariableDictionary
350
933
  3
DWGPROPS
350
AF2
  0
DICTIONARY
  5
98E
330
68
100
AcDbDictionary
280
     1
281
     1
  3
ACAD_LAYERSTATES
360
98F
  0
DICTIONARY
  5
983
330
38
100
AcDbDictionary
280
     1
281
     1
  3
ADSK_XREC_LAYER_RECONCILED
360
984
  0
DICTIONARY
  5
985
330
39
100
AcDbDictionary
280
     1
281
     1
  3
ADSK_XREC_LAYER_RECONCILED
360
986
  0
DICTIONARY
  5
987
330
3A
100
AcDbDictionary
280
     1
281
     1
  3
ADSK_XREC_LAYER_RECONCILED
360
988
  0
DICTIONARY
  5
989
330
3B
100
AcDbDictionary
280
     1
281
     1
  3
ADSK_XREC_LAYER_RECONCILED
360
98A
  0
DICTIONARY
  5
9B7
330
A
100
AcDbDictionary
280
     1
281
     1
  3
ACAD_SORTENTS
360
9B8
  0
XRECORD
  5
980
102
{ACAD_REACTORS
330
3D
102
}
330
3D
100
AcDbXrecord
280
     1
300
ACDLT
300
2012
300
ACDLT_F_S
  0
DICTIONARY
  5
912
102
{ACAD_REACTORS
330
3D
102
}
330
3D
100
AcDbDictionary
281
     1
  0
DICTIONARY
  5
3E
102
{ACAD_REACTORS
330
3D
102
}
330
0
100
AcDbDictionary
281
     1
  0
DICTIONARY
  5
915
102
{ACAD_REACTORS
330
3D
102
}
330
3D
100
AcDbDictionary
281
     1
  3
Model
350
917
  3
レイアウト1
350
918
  0
DICTIONARY
  5
911
102
{ACAD_REACTORS
330
3D
102
}
330
3D
100
AcDbDictionary
281
     1
  3
ByBlock
350
940
  3
ByLayer
350
938
  3
Global
350
948
  0
DICTIONARY
  5
97B
102
{ACAD_REACTORS
330
3D
102
}
330
3D
100
AcDbDictionary
281
     1
  3
Standard
350
97C
  0
DICTIONARY
  5
3F
102
{ACAD_REACTORS
330
3D
102
}
330
0
100
AcDbDictionary
281
     1
  3
STANDARD
350
40
  0
DICTIONARY
  5
916
102
{ACAD_REACTORS
330
3D
102
}
330
3D
100
AcDbDictionary
281
     1
  0
ACDBDICTIONARYWDFLT
  5
90F
102
{ACAD_REACTORS
330
3D
102
}
330
3D
100
AcDbDictionary
281
     1
  3
Normal
350
910
100
AcDbDictionaryWithDefault
340
910
  0
DICTIONARY
  5
969
102
{ACAD_REACTORS
330
3D
102
}
330
3D
100
AcDbDictionary
281
     1
  3
A0
350
96A
  3
A1
350
96B
  3
A2
350
96C
  3
A3
350
96D
  3
A4
350
96E
  3
A5
350
96F
  3
A6
350
970
  3
A7
350
971
  3
A8
350
972
  3
A9
350
973
  3
B0
350
974
  3
B1
350
975
  3
B2
350
976
  3
B3
350
977
  3
B4
350
978
  3
B5
350
979
  3
B6
350
97A
  0
DICTIONARY
  5
913
102
{ACAD_REACTORS
330
3D
102
}
330
3D
100
AcDbDictionary
281
     1
  3
Standard
350
914
  0
DICTIONARY
  5
950
102
{ACAD_REACTORS
330
3D
102
}
330
3D
100
AcDbDictionary
281
     1
  3
2dWireframe
350
956
  3
Basic
350
955
  3
Brighten
350
95C
  3
ColorChange
350
960
  3
Conceptual
350
959
  3
Dim
350
95B
  3
EdgeColorOff
350
968
  3
Facepattern
350
95F
  3
Flat
350
951
  3
FlatWithEdges
350
952
  3
Gouraud
350
953
  3
GouraudWithEdges
350
954
  3
Hidden
350
958
  3
JitterOff
350
966
  3
Linepattern
350
95E
  3
OverhangOff
350
967
  3
Realistic
350
95A
  3
Shaded
350
965
  3
Shaded with edges
350
964
  3
Shades of Gray
350
961
  3
Sketchy
350
962
  3
Thicken
350
95D
  3
Wireframe
350
957
  3
X-Ray
350
963
  0
XRECORD
  5
AF1
102
{ACAD_REACTORS
330
3D
102
}
330
3D
100
AcDbXrecord
280
     1
 90
        1
330
914
  0
DICTIONARY
  5
933
102
{ACAD_REACTORS
330
3D
102
}
330
3D
100
AcDbDictionary
281
     1
  3
CANNOSCALE
350
9AD
  3
CMLEADERSTYLE
350
9AB
  3
CTABLESTYLE
350
934
  3
DIMASSOC
350
935
  3
INDEXCTL
350
AEB
  3
LAYEREVAL
350
9AF
  3
LAYERNOTIFY
350
9B0
  3
LIGHTINGUNITS
350
9AE
  3
MSLTSCALE
350
9AC
  3
PROJECTNAME
350
936
  3
SORTENTS
350
AEA
  3
XCLIPFRAME
350
AEC
  0
XRECORD
  5
AF2
102
{ACAD_REACTORS
330
3D
102
}
330
3D
100
AcDbXrecord
280
     1
  1
DWGPROPS COOKIE
  2

  3

  4

  6

  7

  8
kg-paltec
  9

300
=
301
=
302
=
303
=
304
=
305
=
306
=
307
=
308
=
309
=
 40
0.0201770138888889
 41
2451212.682759178
 42
2458689.358174294
  1

 90
        0
  0
DICTIONARY
  5
98F
102
{ACAD_REACTORS
330
98E
102
}
330
98E
100
AcDbDictionary
281
     1
  0
XRECORD
  5
984
102
{ACAD_REACTORS
330
983
102
}
330
983
100
AcDbXrecord
280
     1
290
     1
  0
XRECORD
  5
986
102
{ACAD_REACTORS
330
985
102
}
330
985
100
AcDbXrecord
280
     1
290
     1
  0
XRECORD
  5
988
102
{ACAD_REACTORS
330
987
102
}
330
987
100
AcDbXrecord
280
     1
290
     1
  0
XRECORD
  5
98A
102
{ACAD_REACTORS
330
989
102
}
330
989
100
AcDbXrecord
280
     1
290
     1
  0
SORTENTSTABLE
  5
9B8
102
{ACAD_REACTORS
330
9B7
102
}
330
9B7
100
AcDbSortentsTable
330
A
331
510
  5
51F
331
485
  5
48E
331
466
  5
46F
331
4F9
  5
502
331
A66
  5
A66
331
A85
  5
A85
331
530
  5
539
331
4FA
  5
503
331
467
  5
470
331
486
  5
48F
331
511
  5
520
331
A67
  5
A67
331
A86
  5
A86
331
512
  5
521
331
487
  5
490
331
468
  5
471
331
4FB
  5
504
331
531
  5
53A
331
A68
  5
A68
331
A87
  5
A87
331
532
  5
53B
331
4FC
  5
505
331
469
  5
472
331
488
  5
491
331
513
  5
522
331
570
  5
583
331
A69
  5
A69
331
571
  5
584
331
489
  5
492
331
46A
  5
473
331
3BB
  5
3CA
331
4FD
  5
506
331
533
  5
53C
331
A6A
  5
A6A
331
4FE
  5
507
331
46B
  5
474
331
48A
  5
493
331
534
  5
53D
331
A6B
  5
A6B
331
48B
  5
494
331
46C
  5
475
331
4FF
  5
508
331
535
  5
53E
331
A6C
  5
A6C
331
500
  5
509
331
48C
  5
49B
331
46D
  5
476
331
536
  5
53F
331
A4E
  5
A4E
331
A6D
  5
A6D
331
556
  5
55F
331
501
  5
510
331
48D
  5
49C
331
46E
  5
477
331
3BF
  5
3D5
331
537
  5
540
331
A4F
  5
A4F
331
A6E
  5
A6E
331
502
  5
511
331
48E
  5
4A3
331
3C0
  5
3D6
331
46F
  5
478
331
538
  5
541
331
557
  5
560
331
620
  5
629
331
A6F
  5
A6F
331
558
  5
568
331
51A
  5
523
331
503
  5
512
331
470
  5
479
331
3C1
  5
3D7
331
3A2
  5
3AB
331
48F
  5
4AA
331
539
  5
542
331
621
  5
62A
331
640
  5
653
331
578
  5
585
331
53A
  5
543
331
51B
  5
524
331
490
  5
4AB
331
3C2
  5
3F3
331
471
  5
480
331
504
  5
513
331
559
  5
570
331
622
  5
62B
331
623
  5
62C
331
604
  5
615
331
55A
  5
571
331
51C
  5
525
331
505
  5
51A
331
472
  5
481
331
3A4
  5
3AD
331
491
  5
4AC
331
53B
  5
544
331
579
  5
586
331
605
  5
616
331
57A
  5
587
331
53C
  5
545
331
51D
  5
526
331
492
  5
4AD
331
473
  5
482
331
506
  5
51B
331
55B
  5
578
331
5EE
  5
5FD
331
624
  5
62D
331
625
  5
62E
331
5EF
  5
604
331
55C
  5
579
331
53D
  5
546
331
507
  5
51C
331
474
  5
483
331
493
  5
4AE
331
51E
  5
527
331
606
  5
617
331
5F0
  5
605
331
53E
  5
54E
331
51F
  5
528
331
475
  5
484
331
508
  5
51D
331
55D
  5
57A
331
626
  5
62F
331
5F1
  5
606
331
55E
  5
57F
331
53F
  5
556
331
509
  5
51E
331
476
  5
485
331
520
  5
529
331
627
  5
630
331
5F2
  5
60B
331
55F
  5
580
331
4EB
  5
4F4
331
477
  5
486
331
521
  5
52A
331
540
  5
557
331
628
  5
631
331
629
  5
632
331
560
  5
581
331
541
  5
558
331
478
  5
487
331
3C9
  5
3F9
331
4EC
  5
4F5
331
522
  5
52B
331
57F
  5
588
331
5F3
  5
60C
331
60B
  5
618
331
5F4
  5
60D
331
580
  5
589
331
4ED
  5
4F6
331
479
  5
488
331
523
  5
52C
331
542
  5
559
331
62A
  5
633
331
62B
  5
634
331
60C
  5
619
331
581
  5
58A
331
543
  5
55A
331
3AC
  5
3B5
331
4EE
  5
4F7
331
524
  5
52D
331
5F5
  5
60E
331
62C
  5
63A
331
582
  5
58B
331
4EF
  5
4F8
331
525
  5
52E
331
544
  5
55B
331
60D
  5
61A
331
62D
  5
640
331
545
  5
55C
331
4F0
  5
4F9
331
526
  5
52F
331
60E
  5
61B
331
62E
  5
647
331
59B
  5
5A4
331
527
  5
530
331
546
  5
55D
331
59C
  5
5A5
331
528
  5
531
331
62F
  5
648
331
630
  5
649
331
59D
  5
5A6
331
529
  5
532
331
4F3
  5
4FC
331
4F4
  5
4FD
331
52A
  5
533
331
568
  5
582
331
631
  5
64A
331
840
  5
849
331
632
  5
64B
331
613
  5
61C
331
52B
  5
534
331
4F5
  5
4FE
331
5FC
  5
613
331
858
  5
861
331
614
  5
61D
331
4F6
  5
4FF
331
52C
  5
535
331
5FD
  5
614
331
633
  5
650
331
841
  5
84A
331
859
  5
862
331
842
  5
84B
331
634
  5
651
331
52D
  5
536
331
4F7
  5
500
331
615
  5
61E
331
878
  5
881
331
879
  5
882
331
85A
  5
863
331
52E
  5
537
331
616
  5
61F
331
843
  5
84C
331
898
  5
8A1
331
899
  5
8A2
331
85B
  5
864
331
844
  5
84D
331
54E
  5
55E
331
52F
  5
538
331
617
  5
620
331
87A
  5
883
331
8B8
  5
8C1
331
87B
  5
884
331
85C
  5
865
331
618
  5
621
331
845
  5
84E
331
89A
  5
8A3
331
89B
  5
8A4
331
85D
  5
866
331
846
  5
84F
331
619
  5
622
331
87C
  5
885
331
87D
  5
886
331
85E
  5
867
331
61A
  5
623
331
847
  5
850
331
89C
  5
8A5
331
89D
  5
8A6
331
85F
  5
868
331
848
  5
851
331
63A
  5
652
331
61B
  5
624
331
87E
  5
887
331
87F
  5
888
331
860
  5
869
331
61C
  5
625
331
849
  5
852
331
89E
  5
8A7
331
89F
  5
8A8
331
861
  5
86A
331
84A
  5
853
331
61D
  5
626
331
880
  5
889
331
881
  5
88A
331
862
  5
86B
331
84B
  5
854
331
61E
  5
627
331
8A0
  5
8A9
331
8A1
  5
8AA
331
882
  5
88B
331
84C
  5
855
331
61F
  5
628
331
863
  5
86C
331
883
  5
88C
331
864
  5
86D
331
84D
  5
856
331
8A2
  5
8AB
331
8A3
  5
8AC
331
884
  5
88D
331
865
  5
86E
331
84E
  5
857
331
8A4
  5
8AD
331
866
  5
86F
331
84F
  5
858
331
885
  5
88E
331
A50
  5
A50
331
8A5
  5
8AE
331
886
  5
88F
331
850
  5
859
331
867
  5
870
331
A51
  5
A51
331
A70
  5
A70
331
8A6
  5
8AF
331
868
  5
871
331
851
  5
85A
331
887
  5
890
331
A52
  5
A52
331
A71
  5
A71
331
A88
  5
A88
331
888
  5
891
331
869
  5
872
331
852
  5
85B
331
8A7
  5
8B0
331
A53
  5
A53
331
A72
  5
A72
331
A89
  5
A89
331
8A8
  5
8B1
331
86A
  5
873
331
853
  5
85C
331
889
  5
892
331
A54
  5
A54
331
A73
  5
A73
331
A8A
  5
A8A
331
88A
  5
893
331
86B
  5
874
331
835
  5
83E
331
854
  5
85D
331
8A9
  5
8B2
331
A55
  5
A55
331
A74
  5
A74
331
A8B
  5
A8B
331
8AA
  5
8B3
331
86C
  5
875
331
855
  5
85E
331
836
  5
83F
331
88B
  5
894
331
A56
  5
A56
331
A75
  5
A75
331
A8C
  5
A8C
331
88C
  5
895
331
86D
  5
876
331
837
  5
840
331
856
  5
85F
331
8AB
  5
8B4
331
A57
  5
A57
331
A76
  5
A76
331
A8D
  5
A8D
331
8AC
  5
8B5
331
86E
  5
877
331
857
  5
860
331
838
  5
841
331
88D
  5
896
331
A58
  5
A58
331
A77
  5
A77
331
A8E
  5
A8E
331
88E
  5
897
331
839
  5
842
331
86F
  5
878
331
8AD
  5
8B6
331
A59
  5
A59
331
A78
  5
A78
331
A8F
  5
A8F
331
8AE
  5
8B7
331
870
  5
879
331
83A
  5
843
331
88F
  5
898
331
A5A
  5
A5A
331
A79
  5
A79
331
A90
  5
A90
331
890
  5
899
331
83B
  5
844
331
871
  5
87A
331
8AF
  5
8B8
331
A5B
  5
A5B
331
A7A
  5
A7A
331
A91
  5
A91
331
8B0
  5
8B9
331
872
  5
87B
331
83C
  5
845
331
891
  5
89A
331
A5C
  5
A5C
331
A7B
  5
A7B
331
A92
  5
A92
331
892
  5
89B
331
873
  5
87C
331
83D
  5
846
331
8B1
  5
8BA
331
A5D
  5
A5D
331
A7C
  5
A7C
331
A93
  5
A93
331
8B2
  5
8BB
331
893
  5
89C
331
83E
  5
847
331
874
  5
87D
331
A5E
  5
A5E
331
A7D
  5
A7D
331
A94
  5
A94
331
894
  5
89D
331
875
  5
87E
331
83F
  5
848
331
8B3
  5
8BC
331
A5F
  5
A5F
331
A7E
  5
A7E
331
A95
  5
A95
331
8B4
  5
8BD
331
895
  5
89E
331
876
  5
87F
331
A60
  5
A60
331
A7F
  5
A7F
331
A96
  5
A96
331
480
  5
489
331
8B5
  5
8BE
331
877
  5
880
331
896
  5
89F
331
A61
  5
A61
331
A80
  5
A80
331
A97
  5
A97
331
481
  5
48A
331
3B3
  5
3BC
331
8B6
  5
8BF
331
897
  5
8A0
331
A62
  5
A62
331
A81
  5
A81
331
A98
  5
A98
331
482
  5
48B
331
8B7
  5
8C0
331
A63
  5
A63
331
A82
  5
A82
331
A99
  5
A99
331
483
  5
48C
331
3B5
  5
3BE
331
A64
  5
A64
331
A83
  5
A83
331
4F8
  5
501
331
484
  5
48D
331
A65
  5
A65
331
A84
  5
A84
  0
LAYOUT
  5
917
102
{ACAD_XDICTIONARY
360
994
102
}
102
{ACAD_REACTORS
330
915
102
}
330
915
100
AcDbPlotSettings
  1

  2
クセロPDF2
  4

  6

 40
0.0
 41
0.0
 42
0.0
 43
0.0
 44
0.0
 45
0.0
 46
0.0
 47
0.0
 48
0.0
 49
0.0
140
0.0
141
0.0
142
1.0
143
1.0
 70
  1712
 72
     0
 73
     0
 74
     0
  7

 75
     0
147
1.0
148
0.0
149
0.0
100
AcDbLayout
  1
Model
 70
     1
 71
     0
 10
0.0
 20
0.0
 11
12.0
 21
9.0
 12
0.0
 22
0.0
 32
0.0
 14
0.0
 24
0.0
 34
0.0
 15
0.0
 25
0.0
 35
0.0
146
0.0
 13
0.0
 23
0.0
 33
0.0
 16
1.0
 26
0.0
 36
0.0
 17
0.0
 27
1.0
 37
0.0
 76
     0
330
A
331
92D
  0
LAYOUT
  5
918
102
{ACAD_XDICTIONARY
360
AF5
102
}
102
{ACAD_REACTORS
330
915
102
}
330
915
100
AcDbPlotSettings
  1

  2
クセロPDF2
  4

  6

 40
0.0
 41
0.0
 42
0.0
 43
0.0
 44
0.0
 45
0.0
 46
0.0
 47
0.0
 48
0.0
 49
0.0
140
0.0
141
0.0
142
1.0
143
1.0
 70
   688
 72
     0
 73
     0
 74
     5
  7

 75
    16
147
1.0
148
0.0
149
0.0
100
AcDbLayout
  1
レイアウト1
 70
     1
 71
     1
 10
0.0
 20
0.0
 11
12.0
 21
9.0
 12
0.0
 22
0.0
 32
0.0
 14
1.000000000000000E+20
 24
1.000000000000000E+20
 34
1.000000000000000E+20
 15
-1.000000000000000E+20
 25
-1.000000000000000E+20
 35
-1.000000000000000E+20
146
0.0
 13
0.0
 23
0.0
 33
0.0
 16
1.0
 26
0.0
 36
0.0
 17
0.0
 27
1.0
 37
0.0
 76
     0
330
B
  0
MATERIAL
  5
940
102
{ACAD_XDICTIONARY
360
941
102
}
102
{ACAD_REACTORS
330
911
102
}
330
911
100
AcDbMaterial
  1
ByBlock
 72
     0
 43
0.0208333333333333
 43
0.0
 43
0.0
 43
0.0
 43
0.0
 43
0.0208333333333333
 43
0.0
 43
0.0
 43
0.0
 43
0.0
 43
1.0
 43
0.0
 43
0.0
 43
0.0
 43
0.0
 43
1.0
 77
     0
 47
0.0208333333333333
 47
0.0
 47
0.0
 47
0.0
 47
0.0
 47
0.0208333333333333
 47
0.0
 47
0.0
 47
0.0
 47
0.0
 47
1.0
 47
0.0
 47
0.0
 47
0.0
 47
0.0
 47
1.0
171
     0
 49
0.0208333333333333
 49
0.0
 49
0.0
 49
0.0
 49
0.0
 49
0.0208333333333333
 49
0.0
 49
0.0
 49
0.0
 49
0.0
 49
1.0
 49
0.0
 49
0.0
 49
0.0
 49
0.0
 49
1.0
175
     0
142
0.0208333333333333
142
0.0
142
0.0
142
0.0
142
0.0
142
0.0208333333333333
142
0.0
142
0.0
142
0.0
142
0.0
142
1.0
142
0.0
142
0.0
142
0.0
142
0.0
142
1.0
179
     0
144
0.0208333333333333
144
0.0
144
0.0
144
0.0
144
0.0
144
0.0208333333333333
144
0.0
144
0.0
144
0.0
144
0.0
144
1.0
144
0.0
144
0.0
144
0.0
144
0.0
144
1.0
147
0.0208333333333333
147
0.0
147
0.0
147
0.0
147
0.0
147
0.0208333333333333
147
0.0
147
0.0
147
0.0
147
0.0
147
1.0
147
0.0
147
0.0
147
0.0
147
0.0
147
1.0
  0
MATERIAL
  5
938
102
{ACAD_XDICTIONARY
360
939
102
}
102
{ACAD_REACTORS
330
911
102
}
330
911
100
AcDbMaterial
  1
ByLayer
 72
     0
 43
0.0208333333333333
 43
0.0
 43
0.0
 43
0.0
 43
0.0
 43
0.0208333333333333
 43
0.0
 43
0.0
 43
0.0
 43
0.0
 43
1.0
 43
0.0
 43
0.0
 43
0.0
 43
0.0
 43
1.0
 77
     0
 47
0.0208333333333333
 47
0.0
 47
0.0
 47
0.0
 47
0.0
 47
0.0208333333333333
 47
0.0
 47
0.0
 47
0.0
 47
0.0
 47
1.0
 47
0.0
 47
0.0
 47
0.0
 47
0.0
 47
1.0
171
     0
 49
0.0208333333333333
 49
0.0
 49
0.0
 49
0.0
 49
0.0
 49
0.0208333333333333
 49
0.0
 49
0.0
 49
0.0
 49
0.0
 49
1.0
 49
0.0
 49
0.0
 49
0.0
 49
0.0
 49
1.0
175
     0
142
0.0208333333333333
142
0.0
142
0.0
142
0.0
142
0.0
142
0.0208333333333333
142
0.0
142
0.0
142
0.0
142
0.0
142
1.0
142
0.0
142
0.0
142
0.0
142
0.0
142
1.0
179
     0
144
0.0208333333333333
144
0.0
144
0.0
144
0.0
144
0.0
144
0.0208333333333333
144
0.0
144
0.0
144
0.0
144
0.0
144
1.0
144
0.0
144
0.0
144
0.0
144
0.0
144
1.0
147
0.0208333333333333
147
0.0
147
0.0
147
0.0
147
0.0
147
0.0208333333333333
147
0.0
147
0.0
147
0.0
147
0.0
147
1.0
147
0.0
147
0.0
147
0.0
147
0.0
147
1.0
  0
MATERIAL
  5
948
102
{ACAD_XDICTIONARY
360
949
102
}
102
{ACAD_REACTORS
330
911
102
}
330
911
100
AcDbMaterial
  1
Global
 72
     0
 43
0.0208333333333333
 43
0.0
 43
0.0
 43
0.0
 43
0.0
 43
0.0208333333333333
 43
0.0
 43
0.0
 43
0.0
 43
0.0
 43
1.0
 43
0.0
 43
0.0
 43
0.0
 43
0.0
 43
1.0
 77
     0
 47
0.0208333333333333
 47
0.0
 47
0.0
 47
0.0
 47
0.0
 47
0.0208333333333333
 47
0.0
 47
0.0
 47
0.0
 47
0.0
 47
1.0
 47
0.0
 47
0.0
 47
0.0
 47
0.0
 47
1.0
171
     0
 49
0.0208333333333333
 49
0.0
 49
0.0
 49
0.0
 49
0.0
 49
0.0208333333333333
 49
0.0
 49
0.0
 49
0.0
 49
0.0
 49
1.0
 49
0.0
 49
0.0
 49
0.0
 49
0.0
 49
1.0
175
     0
142
0.0208333333333333
142
0.0
142
0.0
142
0.0
142
0.0
142
0.0208333333333333
142
0.0
142
0.0
142
0.0
142
0.0
142
1.0
142
0.0
142
0.0
142
0.0
142
0.0
142
1.0
179
     0
144
0.0208333333333333
144
0.0
144
0.0
144
0.0
144
0.0
144
0.0208333333333333
144
0.0
144
0.0
144
0.0
144
0.0
144
1.0
144
0.0
144
0.0
144
0.0
144
0.0
144
1.0
147
0.0208333333333333
147
0.0
147
0.0
147
0.0
147
0.0
147
0.0208333333333333
147
0.0
147
0.0
147
0.0
147
0.0
147
1.0
147
0.0
147
0.0
147
0.0
147
0.0
147
1.0
  0
MLEADERSTYLE
  5
97C
102
{ACAD_XDICTIONARY
360
AEF
102
}
102
{ACAD_REACTORS
330
97B
102
}
330
97B
100
AcDbMLeaderStyle
170
     2
171
     1
172
     0
 90
        2
 40
0.0
 41
0.0
173
     1
 91
-1056964608
340
1D
 92
       -2
290
     1
 42
0.09
291
     1
 43
0.36
  3
Standard
 44
0.18
300

342
7
174
     1
178
     6
175
     1
176
     0
 93
-1056964608
 45
0.18
292
     0
297
     0
 46
0.18
 94
-1056964608
 47
1.0
 49
1.0
140
1.0
293
     1
141
0.0
294
     1
177
     0
142
1.0
295
     0
296
     0
143
0.125
1001
ACAD_MLEADERVER
1070
     2
  0
MLINESTYLE
  5
40
102
{ACAD_REACTORS
330
3F
102
}
330
0
100
AcDbMlineStyle
  2
STANDARD
 70
     0
  3

 62
   256
 51
90.0
 52
90.0
 71
     2
 49
0.5
 62
   256
  6
BYLAYER
 49
-0.5
 62
   256
  6
BYLAYER
  0
ACDBPLACEHOLDER
  5
910
102
{ACAD_REACTORS
330
90F
102
}
330
90F
  0
SCALE
  5
96A
102
{ACAD_REACTORS
330
969
102
}
330
969
100
AcDbScale
 70
     0
300
1:1
140
1.0
141
1.0
290
     1
  0
SCALE
  5
96B
102
{ACAD_REACTORS
330
969
102
}
330
969
100
AcDbScale
 70
     0
300
1/128" = 1'-0"
140
0.0078125
141
12.0
290
     0
  0
SCALE
  5
96C
102
{ACAD_REACTORS
330
969
102
}
330
969
100
AcDbScale
 70
     0
300
1/64" = 1'-0"
140
0.015625
141
12.0
290
     0
  0
SCALE
  5
96D
102
{ACAD_REACTORS
330
969
102
}
330
969
100
AcDbScale
 70
     0
300
1/32" = 1'-0"
140
0.03125
141
12.0
290
     0
  0
SCALE
  5
96E
102
{ACAD_REACTORS
330
969
102
}
330
969
100
AcDbScale
 70
     0
300
1/16" = 1'-0"
140
0.0625
141
12.0
290
     0
  0
SCALE
  5
96F
102
{ACAD_REACTORS
330
969
102
}
330
969
100
AcDbScale
 70
     0
300
3/32" = 1'-0"
140
0.09375
141
12.0
290
     0
  0
SCALE
  5
970
102
{ACAD_REACTORS
330
969
102
}
330
969
100
AcDbScale
 70
     0
300
1/8" = 1'-0"
140
0.125
141
12.0
290
     0
  0
SCALE
  5
971
102
{ACAD_REACTORS
330
969
102
}
330
969
100
AcDbScale
 70
     0
300
3/16" = 1'-0"
140
0.1875
141
12.0
290
     0
  0
SCALE
  5
972
102
{ACAD_REACTORS
330
969
102
}
330
969
100
AcDbScale
 70
     0
300
1/4" = 1'-0"
140
0.25
141
12.0
290
     0
  0
SCALE
  5
973
102
{ACAD_REACTORS
330
969
102
}
330
969
100
AcDbScale
 70
     0
300
3/8" = 1'-0"
140
0.375
141
12.0
290
     0
  0
SCALE
  5
974
102
{ACAD_REACTORS
330
969
102
}
330
969
100
AcDbScale
 70
     0
300
1/2" = 1'-0"
140
0.5
141
12.0
290
     0
  0
SCALE
  5
975
102
{ACAD_REACTORS
330
969
102
}
330
969
100
AcDbScale
 70
     0
300
3/4" = 1'-0"
140
0.75
141
12.0
290
     0
  0
SCALE
  5
976
102
{ACAD_REACTORS
330
969
102
}
330
969
100
AcDbScale
 70
     0
300
1" = 1'-0"
140
1.0
141
12.0
290
     0
  0
SCALE
  5
977
102
{ACAD_REACTORS
330
969
102
}
330
969
100
AcDbScale
 70
     0
300
1-1/2" = 1'-0"
140
1.5
141
12.0
290
     0
  0
SCALE
  5
978
102
{ACAD_REACTORS
330
969
102
}
330
969
100
AcDbScale
 70
     0
300
3" = 1'-0"
140
3.0
141
12.0
290
     0
  0
SCALE
  5
979
102
{ACAD_REACTORS
330
969
102
}
330
969
100
AcDbScale
 70
     0
300
6" = 1'-0"
140
6.0
141
12.0
290
     0
  0
SCALE
  5
97A
102
{ACAD_REACTORS
330
969
102
}
330
969
100
AcDbScale
 70
     0
300
1'-0" = 1'-0"
140
12.0
141
12.0
290
     0
  0
TABLESTYLE
  5
914
102
{ACAD_XDICTIONARY
360
AED
102
}
102
{ACAD_REACTORS
330
913
102
}
330
913
100
AcDbTableStyle
  3
Standard
 70
     0
 71
     0
 40
0.06
 41
0.06
280
     0
281
     0
  7
STANDARD
140
0.18
170
     2
 62
     0
 63
     7
283
     0
274
    -2
284
     1
 64
     0
275
    -2
285
     1
 65
     0
276
    -2
286
     1
 66
     0
277
    -2
287
     1
 67
     0
278
    -2
288
     1
 68
     0
279
    -2
289
     1
 69
     0
  7
STANDARD
140
0.25
170
     5
 62
     0
 63
     7
283
     0
274
    -2
284
     1
 64
     0
275
    -2
285
     1
 65
     0
276
    -2
286
     1
 66
     0
277
    -2
287
     1
 67
     0
278
    -2
288
     1
 68
     0
279
    -2
289
     1
 69
     0
  7
STANDARD
140
0.18
170
     5
 62
     0
 63
     7
283
     0
274
    -2
284
     1
 64
     0
275
    -2
285
     1
 65
     0
276
    -2
286
     1
 66
     0
277
    -2
287
     1
 67
     0
278
    -2
288
     1
 68
     0
279
    -2
289
     1
 69
     0
  0
VISUALSTYLE
  5
956
102
{ACAD_XDICTIONARY
360
B04
102
}
102
{ACAD_REACTORS
330
950
102
}
330
950
100
AcDbVisualStyle
  2
2dWireframe
 70
     4
 71
     0
 72
     2
 73
     0
 90
        0
 40
-0.6
 41
-30.0
 62
     5
 63
     7
 74
     1
 91
        4
 64
     7
 65
   257
 75
     1
175
     1
 42
1.0
 92
        0
 66
   257
 43
1.0
 76
     1
 77
     6
 78
     2
 67
     7
 79
     5
170
     0
171
     0
290
     0
174
     0
 93
        1
 44
0.0
173
     0
291
     0
 45
0.0
1001
ACAD
1000
AcDbSavedByObjectVersion
1070
     0
  0
VISUALSTYLE
  5
955
102
{ACAD_XDICTIONARY
360
B02
102
}
102
{ACAD_REACTORS
330
950
102
}
330
950
100
AcDbVisualStyle
  2
Basic
 70
     7
 71
     1
 72
     0
 73
     1
 90
        0
 40
-0.6
 41
-30.0
 62
     5
 63
     7
 74
     0
 91
        4
 64
     7
 65
   257
 75
     1
175
     1
 42
1.0
 92
        8
 66
     7
 43
1.0
 76
     1
 77
     6
 78
     2
 67
     7
 79
     5
170
     0
171
     0
290
     0
174
     0
 93
        1
 44
0.0
173
     0
291
     1
 45
0.0
1001
ACAD
1000
AcDbSavedByObjectVersion
1070
     0
  0
VISUALSTYLE
  5
95C
102
{ACAD_XDICTIONARY
360
B10
102
}
102
{ACAD_REACTORS
330
950
102
}
330
950
100
AcDbVisualStyle
  2
Brighten
 70
    12
 71
     2
 72
     2
 73
     0
 90
        0
 40
-0.6
 41
-30.0
 62
     5
 63
     7
 74
     1
 91
        4
 64
     7
 65
   257
 75
     1
175
     1
 42
1.0
 92
        8
 66
     7
 43
1.0
 76
     1
 77
     6
 78
     2
 67
     7
 79
     5
170
     0
171
     0
290
     0
174
     0
 93
        1
 44
50.0
173
     0
291
     1
 45
0.0
1001
ACAD
1000
AcDbSavedByObjectVersion
1070
     0
  0
VISUALSTYLE
  5
960
102
{ACAD_XDICTIONARY
360
B18
102
}
102
{ACAD_REACTORS
330
950
102
}
330
950
100
AcDbVisualStyle
  2
ColorChange
 70
    16
 71
     2
 72
     2
 73
     3
 90
        0
 40
-0.6
 41
-30.0
 62
     5
 63
     8
 74
     1
 91
        4
 64
     7
 65
   257
 75
     1
175
     1
 42
1.0
 92
        8
 66
     8
 43
1.0
 76
     1
 77
     6
 78
     2
 67
     7
 79
     5
170
     0
171
     0
290
     0
174
     0
 93
        1
 44
0.0
173
     0
291
     1
 45
0.0
1001
ACAD
1000
AcDbSavedByObjectVersion
1070
     0
  0
VISUALSTYLE
  5
959
102
{ACAD_XDICTIONARY
360
B0A
102
}
102
{ACAD_REACTORS
330
950
102
}
330
950
100
AcDbVisualStyle
  2
Conceptual
 70
     9
 71
     3
 72
     2
 73
     0
 90
        0
 40
-0.6
 41
-30.0
 62
     5
 63
     7
 74
     2
 91
        2
 64
     7
 65
   257
 75
     1
175
     1
 42
179.0
 92
        8
 66
     7
 43
1.0
 76
     1
 77
     6
 78
     2
 67
     7
 79
     3
170
     0
171
     0
290
     0
174
     0
 93
        1
 44
0.0
173
     0
291
     0
 45
0.0
1001
ACAD
1000
AcDbSavedByObjectVersion
1070
     0
  0
VISUALSTYLE
  5
95B
102
{ACAD_XDICTIONARY
360
B0E
102
}
102
{ACAD_REACTORS
330
950
102
}
330
950
100
AcDbVisualStyle
  2
Dim
 70
    11
 71
     2
 72
     2
 73
     0
 90
        0
 40
-0.6
 41
-30.0
 62
     5
 63
     7
 74
     1
 91
        4
 64
     7
 65
   257
 75
     1
175
     1
 42
1.0
 92
        8
 66
     7
 43
1.0
 76
     1
 77
     6
 78
     2
 67
     7
 79
     5
170
     0
171
     0
290
     0
174
     0
 93
        1
 44
-50.0
173
     0
291
     1
 45
0.0
1001
ACAD
1000
AcDbSavedByObjectVersion
1070
     0
  0
VISUALSTYLE
  5
968
102
{ACAD_XDICTIONARY
360
B28
102
}
102
{ACAD_REACTORS
330
950
102
}
330
950
100
AcDbVisualStyle
  2
EdgeColorOff
 70
    22
 71
     2
 72
     2
 73
     0
 90
        0
 40
-0.6
 41
-30.0
 62
     5
 63
     7
 74
     1
 91
        4
 64
     7
 65
   257
 75
     1
175
     1
 42
1.0
 92
        8
 66
     7
 43
1.0
 76
     1
 77
     6
 78
     2
 67
     7
 79
     5
170
     0
171
     0
290
     0
174
     0
 93
        1
 44
0.0
173
     0
291
     1
 45
0.0
1001
ACAD
1000
AcDbSavedByObjectVersion
1070
     0
  0
VISUALSTYLE
  5
95F
102
{ACAD_XDICTIONARY
360
B16
102
}
102
{ACAD_REACTORS
330
950
102
}
330
950
100
AcDbVisualStyle
  2
Facepattern
 70
    15
 71
     2
 72
     2
 73
     0
 90
        0
 40
-0.6
 41
-30.0
 62
     5
 63
     7
 74
     1
 91
        4
 64
     7
 65
   257
 75
     1
175
     1
 42
1.0
 92
        8
 66
     7
 43
1.0
 76
     1
 77
     6
 78
     2
 67
     7
 79
     5
170
     0
171
     0
290
     0
174
     0
 93
        1
 44
0.0
173
     0
291
     1
 45
0.0
1001
ACAD
1000
AcDbSavedByObjectVersion
1070
     0
  0
VISUALSTYLE
  5
951
102
{ACAD_XDICTIONARY
360
AFA
102
}
102
{ACAD_REACTORS
330
950
102
}
330
950
100
AcDbVisualStyle
  2
Flat
 70
     0
 71
     2
 72
     1
 73
     1
 90
        2
 40
-0.6
 41
30.0
 62
     5
 63
     7
 74
     0
 91
        0
 64
     7
 65
   257
 75
     1
175
     1
 42
1.0
 92
        8
 66
     7
 43
1.0
 76
     1
 77
     6
 78
     2
 67
     7
 79
     5
170
     0
171
     0
290
     0
174
     0
 93
       13
 44
0.0
173
     0
291
     1
 45
0.0
1001
ACAD
1000
AcDbSavedByObjectVersion
1070
     0
  0
VISUALSTYLE
  5
952
102
{ACAD_XDICTIONARY
360
AFC
102
}
102
{ACAD_REACTORS
330
950
102
}
330
950
100
AcDbVisualStyle
  2
FlatWithEdges
 70
     1
 71
     2
 72
     1
 73
     1
 90
        2
 40
-0.6
 41
30.0
 62
     5
 63
     7
 74
     1
 91
        0
 64
     7
 65
   257
 75
     1
175
     1
 42
1.0
 92
        0
 66
   257
 43
1.0
 76
     1
 77
     6
 78
     2
 67
     7
 79
     5
170
     0
171
     0
290
     0
174
     0
 93
       13
 44
0.0
173
     0
291
     1
 45
0.0
1001
ACAD
1000
AcDbSavedByObjectVersion
1070
     0
  0
VISUALSTYLE
  5
953
102
{ACAD_XDICTIONARY
360
AFE
102
}
102
{ACAD_REACTORS
330
950
102
}
330
950
100
AcDbVisualStyle
  2
Gouraud
 70
     2
 71
     2
 72
     2
 73
     1
 90
        2
 40
-0.6
 41
30.0
 62
     5
 63
     7
 74
     0
 91
        0
 64
     7
 65
   257
 75
     1
175
     1
 42
1.0
 92
        0
 66
     7
 43
1.0
 76
     1
 77
     6
 78
     2
 67
     7
 79
     5
170
     0
171
     0
290
     0
174
     0
 93
       13
 44
0.0
173
     0
291
     1
 45
0.0
1001
ACAD
1000
AcDbSavedByObjectVersion
1070
     0
  0
VISUALSTYLE
  5
954
102
{ACAD_XDICTIONARY
360
B00
102
}
102
{ACAD_REACTORS
330
950
102
}
330
950
100
AcDbVisualStyle
  2
GouraudWithEdges
 70
     3
 71
     2
 72
     2
 73
     1
 90
        2
 40
-0.6
 41
30.0
 62
     5
 63
     7
 74
     1
 91
        0
 64
     7
 65
   257
 75
     1
175
     1
 42
1.0
 92
        0
 66
   257
 43
1.0
 76
     1
 77
     6
 78
     2
 67
     7
 79
     5
170
     0
171
     0
290
     0
174
     0
 93
       13
 44
0.0
173
     0
291
     1
 45
0.0
1001
ACAD
1000
AcDbSavedByObjectVersion
1070
     0
  0
VISUALSTYLE
  5
958
102
{ACAD_XDICTIONARY
360
B08
102
}
102
{ACAD_REACTORS
330
950
102
}
330
950
100
AcDbVisualStyle
  2
Hidden
 70
     6
 71
     1
 72
     2
 73
     2
 90
        0
 40
-0.6
 41
-30.0
 62
     5
 63
     7
 74
     2
 91
        2
 64
     7
 65
   257
 75
     2
175
     1
 42
40.0
 92
        0
 66
   257
 43
1.0
 76
     1
 77
     6
 78
     2
 67
     7
 79
     3
170
     0
171
     0
290
     0
174
     0
 93
        1
 44
0.0
173
     0
291
     0
 45
0.0
1001
ACAD
1000
AcDbSavedByObjectVersion
1070
     0
  0
VISUALSTYLE
  5
966
102
{ACAD_XDICTIONARY
360
B24
102
}
102
{ACAD_REACTORS
330
950
102
}
330
950
100
AcDbVisualStyle
  2
JitterOff
 70
    20
 71
     2
 72
     2
 73
     0
 90
        0
 40
-0.6
 41
-30.0
 62
     5
 63
     7
 74
     1
 91
        4
 64
     7
 65
   257
 75
     1
175
     1
 42
1.0
 92
       10
 66
     7
 43
1.0
 76
     1
 77
     6
 78
     2
 67
     7
 79
     5
170
     0
171
     0
290
     0
174
     0
 93
        1
 44
0.0
173
     0
291
     1
 45
0.0
1001
ACAD
1000
AcDbSavedByObjectVersion
1070
     0
  0
VISUALSTYLE
  5
95E
102
{ACAD_XDICTIONARY
360
B14
102
}
102
{ACAD_REACTORS
330
950
102
}
330
950
100
AcDbVisualStyle
  2
Linepattern
 70
    14
 71
     2
 72
     2
 73
     0
 90
        0
 40
-0.6
 41
-30.0
 62
     5
 63
     7
 74
     1
 91
        4
 64
     7
 65
   257
 75
     7
175
     7
 42
1.0
 92
        8
 66
     7
 43
1.0
 76
     1
 77
     6
 78
     2
 67
     7
 79
     5
170
     0
171
     0
290
     0
174
     0
 93
        1
 44
0.0
173
     0
291
     1
 45
0.0
1001
ACAD
1000
AcDbSavedByObjectVersion
1070
     0
  0
VISUALSTYLE
  5
967
102
{ACAD_XDICTIONARY
360
B26
102
}
102
{ACAD_REACTORS
330
950
102
}
330
950
100
AcDbVisualStyle
  2
OverhangOff
 70
    21
 71
     2
 72
     2
 73
     0
 90
        0
 40
-0.6
 41
-30.0
 62
     5
 63
     7
 74
     1
 91
        4
 64
     7
 65
   257
 75
     1
175
     1
 42
1.0
 92
        9
 66
     7
 43
1.0
 76
     1
 77
     6
 78
     2
 67
     7
 79
     5
170
     0
171
     0
290
     0
174
     0
 93
        1
 44
0.0
173
     0
291
     1
 45
0.0
1001
ACAD
1000
AcDbSavedByObjectVersion
1070
     0
  0
VISUALSTYLE
  5
95A
102
{ACAD_XDICTIONARY
360
B0C
102
}
102
{ACAD_REACTORS
330
950
102
}
330
950
100
AcDbVisualStyle
  2
Realistic
 70
     8
 71
     2
 72
     3
 73
     0
 90
        2
 40
-0.6
 41
30.0
 62
     5
 63
     7
 74
     0
 91
        0
 64
     7
 65
   257
 75
     1
175
     1
 42
1.0
 92
        8
 66
   257
 43
1.0
 76
     1
 77
     6
 78
     2
 67
     7
 79
     3
170
     0
171
     0
290
     0
174
     0
 93
       13
 44
0.0
173
     0
291
     0
 45
0.0
1001
ACAD
1000
AcDbSavedByObjectVersion
1070
     0
  0
VISUALSTYLE
  5
965
102
{ACAD_XDICTIONARY
360
B22
102
}
102
{ACAD_REACTORS
330
950
102
}
330
950
100
AcDbVisualStyle
  2
Shaded
 70
    27
 71
     2
 72
     2
 73
     1
 90
        2
 40
-0.6
 41
30.0
 62
     5
 63
     7
 74
     0
 91
        4
 64
     7
 65
   257
 75
     1
175
     1
 42
1.0
 92
        8
 66
   257
 43
1.0
 76
     1
 77
     6
 78
     2
 67
     8
 79
     3
170
     0
171
     0
290
     0
174
     0
 93
        5
 44
0.0
173
     0
291
     0
 45
0.0
1001
ACAD
1000
AcDbSavedByObjectVersion
1070
     0
  0
VISUALSTYLE
  5
964
102
{ACAD_XDICTIONARY
360
B20
102
}
102
{ACAD_REACTORS
330
950
102
}
330
950
100
AcDbVisualStyle
  2
Shaded with edges
 70
    26
 71
     2
 72
     2
 73
     1
 90
        2
 40
-0.6
 41
30.0
 62
     5
 63
     7
 74
     1
 91
       10
 64
     7
 65
   257
 75
     2
175
     1
 42
1.0
 92
        8
 66
   257
 43
1.0
 76
     1
 77
     6
 78
     2
 67
     7
 79
     3
170
     0
171
     0
290
     0
174
     0
 93
        5
 44
0.0
173
     0
291
     0
 45
0.0
1001
ACAD
1000
AcDbSavedByObjectVersion
1070
     0
  0
VISUALSTYLE
  5
961
102
{ACAD_XDICTIONARY
360
B1A
102
}
102
{ACAD_REACTORS
330
950
102
}
330
950
100
AcDbVisualStyle
  2
Shades of Gray
 70
    23
 71
     2
 72
     2
 73
     3
 90
        0
 40
-0.6
 41
-30.0
 62
     5
 63
     7
 74
     2
 91
        2
 64
     7
 65
     7
 75
     1
175
     1
 42
40.0
 92
        8
 66
     7
 43
1.0
 76
     1
 77
     6
 78
     2
 67
     7
 79
     3
170
     0
171
     0
290
     0
174
     0
 93
        1
 44
0.0
173
     0
291
     0
 45
0.0
1001
ACAD
1000
AcDbSavedByObjectVersion
1070
     0
  0
VISUALSTYLE
  5
962
102
{ACAD_XDICTIONARY
360
B1C
102
}
102
{ACAD_REACTORS
330
950
102
}
330
950
100
AcDbVisualStyle
  2
Sketchy
 70
    24
 71
     1
 72
     2
 73
     2
 90
        0
 40
-0.6
 41
-30.0
 62
     5
 63
     7
 74
     2
 91
        2
 64
     7
 65
     7
 75
     1
175
     1
 42
40.0
 92
       11
 66
     7
 43
1.0
 76
     1
 77
     6
 78
     2
 67
     7
 79
     6
170
     0
171
     0
290
     0
174
     0
 93
        1
 44
0.0
173
     0
291
     0
 45
0.0
1001
ACAD
1000
AcDbSavedByObjectVersion
1070
     0
  0
VISUALSTYLE
  5
95D
102
{ACAD_XDICTIONARY
360
B12
102
}
102
{ACAD_REACTORS
330
950
102
}
330
950
100
AcDbVisualStyle
  2
Thicken
 70
    13
 71
     2
 72
     2
 73
     0
 90
        0
 40
-0.6
 41
-30.0
 62
     5
 63
     7
 74
     1
 91
        4
 64
     7
 65
   257
 75
     1
175
     1
 42
1.0
 92
       12
 66
     7
 43
1.0
 76
     1
 77
     6
 78
     2
 67
     7
 79
     5
170
     0
171
     0
290
     0
174
     0
 93
        1
 44
0.0
173
     0
291
     1
 45
0.0
1001
ACAD
1000
AcDbSavedByObjectVersion
1070
     0
  0
VISUALSTYLE
  5
957
102
{ACAD_XDICTIONARY
360
B06
102
}
102
{ACAD_REACTORS
330
950
102
}
330
950
100
AcDbVisualStyle
  2
Wireframe
 70
     5
 71
     0
 72
     2
 73
     0
 90
        0
 40
-0.6
 41
-30.0
 62
     5
 63
     7
 74
     1
 91
        4
 64
     7
 65
   257
 75
     1
175
     1
 42
1.0
 92
        0
 66
   257
 43
1.0
 76
     1
 77
     6
 78
     2
 67
     7
 79
     3
170
     0
171
     0
290
     0
174
     0
 93
        1
 44
0.0
173
     0
291
     0
 45
0.0
1001
ACAD
1000
AcDbSavedByObjectVersion
1070
     0
  0
VISUALSTYLE
  5
963
102
{ACAD_XDICTIONARY
360
B1E
102
}
102
{ACAD_REACTORS
330
950
102
}
330
950
100
AcDbVisualStyle
  2
X-Ray
 70
    25
 71
     2
 72
     2
 73
     1
 90
        1
 40
0.5
 41
-30.0
 62
     5
 63
     7
 74
     1
 91
        0
 64
     7
 65
   257
 75
     1
175
     1
 42
1.0
 92
        8
 66
     7
 43
1.0
 76
     1
 77
     6
 78
     2
 67
     7
 79
     3
170
     0
171
     0
290
     0
174
     0
 93
       13
 44
0.0
173
     0
291
     0
 45
0.0
1001
ACAD
1000
AcDbSavedByObjectVersion
1070
     0
  0
DICTIONARYVAR
  5
9AD
102
{ACAD_REACTORS
330
933
102
}
330
933
100
DictionaryVariables
280
     0
  1
1:1
  0
DICTIONARYVAR
  5
9AB
102
{ACAD_REACTORS
330
933
102
}
330
933
100
DictionaryVariables
280
     0
  1
STANDARD
  0
DICTIONARYVAR
  5
934
102
{ACAD_REACTORS
330
933
102
}
330
933
100
DictionaryVariables
280
     0
  1
STANDARD
  0
DICTIONARYVAR
  5
935
102
{ACAD_REACTORS
330
933
102
}
330
933
100
DictionaryVariables
280
     0
  1
1
  0
DICTIONARYVAR
  5
AEB
102
{ACAD_REACTORS
330
933
102
}
330
933
100
DictionaryVariables
280
     0
  1
0
  0
DICTIONARYVAR
  5
9AF
102
{ACAD_REACTORS
330
933
102
}
330
933
100
DictionaryVariables
280
     0
  1
1
  0
DICTIONARYVAR
  5
9B0
102
{ACAD_REACTORS
330
933
102
}
330
933
100
DictionaryVariables
280
     0
  1
15
  0
DICTIONARYVAR
  5
9AE
102
{ACAD_REACTORS
330
933
102
}
330
933
100
DictionaryVariables
280
     0
  1
0
  0
DICTIONARYVAR
  5
9AC
102
{ACAD_REACTORS
330
933
102
}
330
933
100
DictionaryVariables
280
     0
  1
0
  0
DICTIONARYVAR
  5
936
102
{ACAD_REACTORS
330
933
102
}
330
933
100
DictionaryVariables
280
     0
  1

  0
DICTIONARYVAR
  5
AEA
102
{ACAD_REACTORS
330
933
102
}
330
933
100
DictionaryVariables
280
     0
  1
127
  0
DICTIONARYVAR
  5
AEC
102
{ACAD_REACTORS
330
933
102
}
330
933
100
DictionaryVariables
280
     0
  1
2
  0
DICTIONARY
  5
994
330
917
100
AcDbDictionary
280
     1
281
     1
  3
ACAD_XREC_ROUNDTRIP
360
AF4
  3
ADSK_XREC_LAYOUTTHUMBNAIL
360
995
  0
DICTIONARY
  5
AF5
330
918
100
AcDbDictionary
280
     1
281
     1
  3
ACAD_XREC_ROUNDTRIP
360
AF6
  0
DICTIONARY
  5
941
330
940
100
AcDbDictionary
280
     1
281
     1
  3
ACAD_XREC_ROUNDTRIP
360
AF8
  3
BUMPTILE
360
943
  3
DIFFUSETILE
360
942
  3
OPACITYTILE
360
946
  3
REFLECTIONTILE
360
945
  3
REFRACTIONTILE
360
947
  3
SPECULARTILE
360
944
  0
DICTIONARY
  5
939
330
938
100
AcDbDictionary
280
     1
281
     1
  3
ACAD_XREC_ROUNDTRIP
360
AF7
  3
BUMPTILE
360
93B
  3
DIFFUSETILE
360
93A
  3
OPACITYTILE
360
93E
  3
REFLECTIONTILE
360
93D
  3
REFRACTIONTILE
360
93F
  3
SPECULARTILE
360
93C
  0
DICTIONARY
  5
949
330
948
100
AcDbDictionary
280
     1
281
     1
  3
ACAD_XREC_ROUNDTRIP
360
AF9
  3
BUMPTILE
360
94B
  3
DIFFUSETILE
360
94A
  3
OPACITYTILE
360
94E
  3
REFLECTIONTILE
360
94D
  3
REFRACTIONTILE
360
94F
  3
SPECULARTILE
360
94C
  0
DICTIONARY
  5
AEF
330
97C
100
AcDbDictionary
280
     1
281
     1
  3
ACAD_XREC_ROUNDTRIP
360
AF0
  0
DICTIONARY
  5
AED
330
914
100
AcDbDictionary
280
     1
281
     1
  3
ACAD_ROUNDTRIP_2008_TABLESTYLE_CELLSTYLEMAP
360
AEE
  3
ACAD_XREC_ROUNDTRIP
360
AF3
  0
DICTIONARY
  5
B04
330
956
100
AcDbDictionary
280
     1
281
     1
  3
ACAD_XREC_ROUNDTRIP
360
B05
  0
DICTIONARY
  5
B02
330
955
100
AcDbDictionary
280
     1
281
     1
  3
ACAD_XREC_ROUNDTRIP
360
B03
  0
DICTIONARY
  5
B10
330
95C
100
AcDbDictionary
280
     1
281
     1
  3
ACAD_XREC_ROUNDTRIP
360
B11
  0
DICTIONARY
  5
B18
330
960
100
AcDbDictionary
280
     1
281
     1
  3
ACAD_XREC_ROUNDTRIP
360
B19
  0
DICTIONARY
  5
B0A
330
959
100
AcDbDictionary
280
     1
281
     1
  3
ACAD_XREC_ROUNDTRIP
360
B0B
  0
DICTIONARY
  5
B0E
330
95B
100
AcDbDictionary
280
     1
281
     1
  3
ACAD_XREC_ROUNDTRIP
360
B0F
  0
DICTIONARY
  5
B28
330
968
100
AcDbDictionary
280
     1
281
     1
  3
ACAD_XREC_ROUNDTRIP
360
B29
  0
DICTIONARY
  5
B16
330
95F
100
AcDbDictionary
280
     1
281
     1
  3
ACAD_XREC_ROUNDTRIP
360
B17
  0
DICTIONARY
  5
AFA
330
951
100
AcDbDictionary
280
     1
281
     1
  3
ACAD_XREC_ROUNDTRIP
360
AFB
  0
DICTIONARY
  5
AFC
330
952
100
AcDbDictionary
280
     1
281
     1
  3
ACAD_XREC_ROUNDTRIP
360
AFD
  0
DICTIONARY
  5
AFE
330
953
100
AcDbDictionary
280
     1
281
     1
  3
ACAD_XREC_ROUNDTRIP
360
AFF
  0
DICTIONARY
  5
B00
330
954
100
AcDbDictionary
280
     1
281
     1
  3
ACAD_XREC_ROUNDTRIP
360
B01
  0
DICTIONARY
  5
B08
330
958
100
AcDbDictionary
280
     1
281
     1
  3
ACAD_XREC_ROUNDTRIP
360
B09
  0
DICTIONARY
  5
B24
330
966
100
AcDbDictionary
280
     1
281
     1
  3
ACAD_XREC_ROUNDTRIP
360
B25
  0
DICTIONARY
  5
B14
330
95E
100
AcDbDictionary
280
     1
281
     1
  3
ACAD_XREC_ROUNDTRIP
360
B15
  0
DICTIONARY
  5
B26
330
967
100
AcDbDictionary
280
     1
281
     1
  3
ACAD_XREC_ROUNDTRIP
360
B27
  0
DICTIONARY
  5
B0C
330
95A
100
AcDbDictionary
280
     1
281
     1
  3
ACAD_XREC_ROUNDTRIP
360
B0D
  0
DICTIONARY
  5
B22
330
965
100
AcDbDictionary
280
     1
281
     1
  3
ACAD_XREC_ROUNDTRIP
360
B23
  0
DICTIONARY
  5
B20
330
964
100
AcDbDictionary
280
     1
281
     1
  3
ACAD_XREC_ROUNDTRIP
360
B21
  0
DICTIONARY
  5
B1A
330
961
100
AcDbDictionary
280
     1
281
     1
  3
ACAD_XREC_ROUNDTRIP
360
B1B
  0
DICTIONARY
  5
B1C
330
962
100
AcDbDictionary
280
     1
281
     1
  3
ACAD_XREC_ROUNDTRIP
360
B1D
  0
DICTIONARY
  5
B12
330
95D
100
AcDbDictionary
280
     1
281
     1
  3
ACAD_XREC_ROUNDTRIP
360
B13
  0
DICTIONARY
  5
B06
330
957
100
AcDbDictionary
280
     1
281
     1
  3
ACAD_XREC_ROUNDTRIP
360
B07
  0
DICTIONARY
  5
B1E
330
963
100
AcDbDictionary
280
     1
281
     1
  3
ACAD_XREC_ROUNDTRIP
360
B1F
  0
XRECORD
  5
AF4
102
{ACAD_REACTORS
330
994
102
}
330
994
100
AcDbXrecord
280
     1
102
SHADEPLOT
 70
     0
102
SHADEPLOTRESLEVEL
 70
     2
102
SHADEPLOTCUSTOMDPI
 70
   300
  0
XRECORD
  5
995
102
{ACAD_REACTORS
330
994
102
}
330
994
100
AcDbXrecord
280
     1
310
2800000000010000A6000000010008000000000000A60000000000000000000000010000000000000000000000000000C8C8C8000000000000000000000000000000000000000000000000000000000000000000330000006600000099000000CC000000FF00000000330000333300006633000099330000CC330000FF3300
310
0000660000336600006666000099660000CC660000FF66000000990000339900006699000099990000CC990000FF99000000CC000033CC000066CC000099CC0000CCCC0000FFCC000000FF000033FF000066FF000099FF0000CCFF0000FFFF000000003300330033006600330099003300CC003300FF003300003333003333
310
33006633330099333300CC333300FF33330000663300336633006666330099663300CC663300FF66330000993300339933006699330099993300CC993300FF99330000CC330033CC330066CC330099CC3300CCCC3300FFCC330000FF330033FF330066FF330099FF3300CCFF3300FFFF330000006600330066006600660099
310
006600CC006600FF00660000336600333366006633660099336600CC336600FF33660000666600336666006666660099666600CC666600FF66660000996600339966006699660099996600CC996600FF99660000CC660033CC660066CC660099CC6600CCCC6600FFCC660000FF660033FF660066FF660099FF6600CCFF6600
310
FFFF660000009900330099006600990099009900CC009900FF00990000339900333399006633990099339900CC339900FF33990000669900336699006666990099669900CC669900FF66990000999900339999006699990099999900CC999900FF99990000CC990033CC990066CC990099CC9900CCCC9900FFCC990000FF99
310
0033FF990066FF990099FF9900CCFF9900FFFF99000000CC003300CC006600CC009900CC00CC00CC00FF00CC000033CC003333CC006633CC009933CC00CC33CC00FF33CC000066CC003366CC006666CC009966CC00CC66CC00FF66CC000099CC003399CC006699CC009999CC00CC99CC00FF99CC0000CCCC0033CCCC0066CC
310
CC0099CCCC00CCCCCC00FFCCCC0000FFCC0033FFCC0066FFCC0099FFCC00CCFFCC00FFFFCC000000FF003300FF006600FF009900FF00CC00FF00FF00FF000033FF003333FF006633FF009933FF00CC33FF00FF33FF000066FF003366FF006666FF009966FF00CC66FF00FF66FF000099FF003399FF006699FF009999FF00CC
310
99FF00FF99FF0000CCFF0033CCFF0066CCFF0099CCFF00CCCCFF00FFCCFF0000FFFF0033FFFF0066FFFF0099FFFF00CCFFFF00FFFFFF00000000000D0D0D001A1A1A00282828003535350043434300505050005D5D5D006B6B6B00787878008686860093939300A1A1A100AEAEAE00BBBBBB00C9C9C900D6D6D600E4E4E400
310
F1F1F100FFFFFF0000000000000000000000000000000000000000000000000000000000000000000000000000000000000000000000000000000000000000000000000000000000000000000000000000000000000000000000002800002800DCDCDCF5C3DCDCDCDCC3DCDCDCF5C3DCDCDCDCC3DCDCDCF5C3DCDCDCC3F5DC
310
DCDCC3F5DCDCDCC3DCDCDCDCC3DCDCDCDCDC0000000000000000000000000000000028282800000000000000000028282828F5F5F5F5F5F5F5F5280000280000000000000000000000000000000000000000000000000000000000000000000000000000000000000000000000000000000000000000000000000000000000
310
00000000000000000000000000000000000000000000000000000000000000000000000000000000000000000000000000000000000000000000000000000000000000000000000000000000000000000000000000000000000000000028000028DCDCC3DCDCC3DCDCDCDCC3DCDCDCDCC3DCDCDCDCC3DCDCDCDCC3DCDCDCC3
310
DCDCDCDCC3DCDCDCDCC3DCDCDCDCC3DCDCDCDCC30000000000000000000000000000000028282800000000000000000028282828F5F5F5F5F5F5F5F528000028000000000000000000000000000000000000000000000000000000000000000000000000000000000000000000000000000000000000000000000000000000
310
0000000000000000000000000000000000000000000000000000000000000000000000000000000000000000000000000000000000000000000000000000000000000000000000000000000000000000000000000000000000000000000000280000280000C3C3C3C3C3C3C3C3C3C3C3C3C3C3C3C3C3C3C3C3C3C3C3C3C3C3
310
C3C3C3C3C3C3C3C3C3C3C3C3C3C3C3C3C3C3C3C3C3C3000000000000000000000000000000002828282828282828282828282828282828282828282828282800002800000000000000000000000000000000000000000000000000000000000000000000000000000000000000000000000000000000000000000000000000
310
00000000000000000000000000000000000000000000000000000000000000000000000000000000000000000000000000000000000000000000000000000000000000000000000000000000000000000000000000000000000000000000000000280000280000C3C3C3000000C3C3C300000000000000C3C3C30000000000
310
0000C3C30000000000000000C3C3000000000000C3C300C300000000000000000000000000000000280000000000000000F5F5F5F5F5F5F50000000000000000280000280000000000000000000000000000000000000000000000000000000000000000000000000000000000000000000000000000000000000000000000
310
000000000000000000000000000000000000000000000000000000000000000000000000000000000000000000000000000000000000000000000000000000000000000000000000000000000000000000000000000000000000000000000000000000280000280000C3C3C3C3C3C3C3C3C3C3C3C3C3C3C3C3C3C3C3C3C3C3
310
C3C3C3C3C3C3C3C3C3C3C3C3C3C3C3C3C3C3C3C3C3C3C3C3C3C30000000000000000000000000000000028000000000000000000000000000000000000000000000028000028000000000000000000000000000000000000000000000000000000000000000000000000000000000000000000000000000000000000000000
310
0000000000000000000000000000000000000000000000000000000000000000000000000000000000000000000000000000000000000000000000000000000000000000000000000000000000000000000000000000000000000000000000000000000000280000280000C3C3C3C3C3C3C3C3C3C3C3C3C3C3C3C3C3C3C3C3
310
C3C3C3C3C3C3C3C3C3C3C3C3C3C3C3C3C3C3C3C3C3C3C3C3C3C3C3C3000000000000000000000000000000002828282828000000000000000000000000000000000000002800002800000000000000000000000000000000000000000000000000000000000000000000000000000000000000000000000000000000000000
310
0000000000000000000000000000000000000000000000000000000000000000000000000000000000000000000000000000000000000000000000000000000000000000000000000000000000000000000000000000000000000000000000000000000000000028000028ECECECECECECECECEC0000000000000000000000
310
0000000000C3C3C30000000000000000000000000000000000000000000000000000000000000000000000000000282828282828282828282828282828282828282828282828280000280000000000000000000000000000000000000000000000000000000000000000000000000000000000000000000000000000000000
310
00000000000000000000000000000000000000000000000000000000000000000000000000000000000000000000000000000000000000000000000000000000000000000000000000000000000000000000000000000000000000000000000000000000000000000028000028ECECECECECECECECEC000000000000000000
310
0000000000000000000000000000000000000000000000000000000000000000000000000000000000000000000000002800ECECECECECECECECECECECECECECECECECECEC00000028000028000000000000000000000000000000000000000000000000000000000000000000000000000000000000000000000000000000
310
0000000000000000000000000000000000000000000000000000000000000000000000000000000000000000000000000000000000000000000000000000000000000000000000000000000000000000000000000000000000000000000000000000000000000000000000280000280000C3C3C3C3C3C3C3C3C3C3C3C3C3C3
310
C3C3C3C3C3C3C3C3C3C3C3C3C3C3C3C3C3C3C3C3C3C300000000000000000000000000000000000000000000000000000000280000ECEC0000ECEC0000EC000000ECEC000000000000002800002800000000000000000000000000000000000000000000000000000000000000000000000000000000000000000000000000
310
00000000000000000000000000000000000000000000000000000000000000000000000000000000000000000000000000000000000000000000000000000000000000000000000000000000000000000000000000000000000000000000000000000000000000000000000000280000280000C3000000C3C3C3000000C300
310
0000C3C3000000C3000000C3C3000000C30000C3C3C300C300000000000000000000000000000000000000000000000000000000280000000000000000000000000000000000000000000000280000280000000000000000000000000000000000000000000000000000000000000000000000000000000000000000000000
310
000000000000000000000000000000000000000000000000000000000000000000000000000000000000000000000000000000000000000000000000000000000000000000000000000000000000000000000000000000000000000000000000000000000000000000000000000000280000280000C3C3C3C3C3C3C3C3C3C3
310
C3C3C3C3C3C3C3C3C3C3C3C3C3C3C3C3C3C3C3C3C3C3C3C3C3C30000000000000000000000000000000000000000000000000000000028000000000000000000000000000000000000000000000028000028000000000000000000000000000000000000000000000000000000000000000000000000000000000000000000
310
000000000000000000000000000000000000000000000000000000000000000000000000000000000000000000000000000000000000000000000000000000000000000000000000000000000000000000000000000000000000000000000000000000000000000000000000000000000028000028DC00C3DCDCDCDCC3DCDC
310
DCDCC3DCDCDCC3DCDCDCDCC3DCDCDCDCC3DCDCDCC3DCDCDCDCC3DCC3000000000000000000000000000000000000000000000000000000002800000000000000000000000000000000000000000000002800002800000000000000000000000000000000000000000000000000000000000000000000000000000000000000
310
000000000000000000000000000000000000000000000000000000000000000000000000000000000000000000000000000000000000000000000000000000000000000000000000000000000000000000000000000000000000000000000000000000000000000000000000000000000000002800002800ECDC00000000C3
310
F5000000C3000000C3F5000000C3000000F5C3000000C300000000C300DC00000000000000000000000000000000000000000000000000000000280000000000000000000000000000000000000000000000280000280000000000000000000000000000000000000000000000000000000000000000000000000000000000
310
0000000000000000000000000000000000000000000000000000000000000000000000000000000000000000000000000000000000000000000000000000000000000000000000000000000000000000000000000000000000000000000000000000000000000000000000000000000000000000002800002800DCDCDCF5F5
310
DCDCDCF5DCDCDCF5F5DCDCDCDCF5DCDCDCF5F5DCDCDCF5DCDCDCF5F5DCDCDCDC0000000000000000000000000000000000000000000000000000000028000000000000000000000000000000000000000000000028000028000000000000000000000000000000000000000000000000000000000000000000000000000000
310
000000000000000000000000000000000000000000000000000000000000000000000000000000000000000000000000000000000000000000000000000000000000000000000000000000000000000000000000000000000000000000000000000000000000000000000000000000000000000000000028000028DCDCDCDC
310
DCC3DCDCDCC3DCDCDCDCC3DCDCDCDCC3DCDCDCC3DCDCDCDCC3DCDCDCDCC3DCDCDCDC000000000000000000000000000000000000000000000000000000002800000000000000000000000000000000000000000000002800002800000000000000000000000000000000000000000000000000000000000000000000000000
310
00000000000000000000000000000000000000000000000000000000000000000000000000000000000000000000000000000000000000000000000000000000000000000000000000000000000000000000000000000000000000000000000000000000000000000000000000000000000000000000000000280000280000
310
C3C3C3C3C3C3C3C3C3C3C3C3C3C3C3C3C3C3C3C3C3C3C3C3C3C3C3C3C3C3C3C3C3C3C3C300000000000000000000000000000000000000000000000000000000280000000000000000000000000000000000000000000000280000280000000000000000000000000000000000000000000000000000000000000000000000
310
00000000000000000000000000000000000000000000000000000000000000000000000000000000000000000000000000000000000000000000000000000000000000000000000000000000000000000000000000000000000000000000000000000000000000000000000000000000000000000000000000000028000028
310
0000C3C3C3C30000C3C300000000C30000C3C3C3000000C30000C3C3C300000000C3C3C3C3C30000000000000000000000000000000000000000000000000000000028000000000000000000000000000000000000000000000028000028000000000000000000000000000000000000000000000000000000000000000000
310
00000000000000000000000000000000000000000000000000000000000000000000000000000000000000000000000000000000000000000000000000000000000000000000000000000000000000000000000000000000000000000000000000000000000000000000000000000000000000000000000000000000002800
310
00280000C3C3C3C3C3C3C3C3C3C3C3C3C3C3C3C3C3C3C3C3C3C3C3C3C3C3C3C3C3C3C3C3C3C3C3C3000000000000000000000000000000000000000000000000000000002800000000000000000000000000000000000000000000002800002800000000000000000000000000000000000000000000000000000000000000
310
00000000000000000000000000000000000000000000000000000000000000000000000000000000000000000000000000000000000000000000000000000000000000000000000000000000000000000000000000000000000000000000000000000000000000000000000000000000000000000000000000000000000000
310
280000280000C3C3C3C3C3C3C3C3C3C3C3C3C3C3C3C3C3C3C3C3C3C3C3C3C3C3C3C3C3C3C3C3C3C3C3C300000000000000000000000000000000000000000000000000000000280000000000000000000000000000000000000000000000280000280000000000000000000000000000000000000000000000000000000000
310
00000000000000000000000000000000000000000000000000000000000000000000000000000000000000000000000000000000000000000000000000000000000000000000000000000000000000000000000000000000000000000000000000000000000000000000000000000000000000000000000000000000000000
310
000028000028ECECECECECECECECEC00000000000000000000C3C3C3000000000000000000000000000000000000000000000000000000000000000000000000000000000000000028000000000000000000000000000000000000000000000028000028000000000000000000000000000000000000000000000000000000
310
00000000000000000000000000000000000000000000000000000000000000000000000000000000000000000000000000000000000000000000000000000000000000000000000000000000000000000000000000000000000000000000000000000000000000000000000000000000000000000000000000000000000000
310
0000000028000028ECECECECECECECECEC0000000000000000000000000000000000000000000000000000000000000000000000000000000000000000000000000000000000000000002800000000000000000000000000000000000000000000002800002800000000000000000000000000000000000000000000000000
310
00000000000000000000000000000000000000000000000000000000000000000000000000000000000000000000000000000000000000000000000000000000000000000000000000000000000000000000000000000000000000000000000000000000000000000000000000000000000000000000000000000000000000
310
000000000000280000280000C3C3C3C3C3C3C3C3C3C3C3C3C3C3C3C3C3C3C3C3C3C3C3C3C3000000000000000000000000000000000000000000000000000000000000000000000000000000280000ECECECECECECEC0000000000000000000000000000280000280000000000000000000000000000000000000000000000
310
00000000000000000000000000000000000000000000000000000000000000000000000000000000000000000000000000000000000000000000000000000000000000000000000000000000000000000000000000000000000000000000000000000000000000000000000000000000000000000000000000000000000000
310
0000000000000000280000280000C30000C3C3C3C300C3000000C3C3000000C300C3C3C30000C300ECECECECECECECECECECEC000000000000000000000000000000000000000000000000000000280000ECECECECECECEC000000000000000000000000000028000028000000000000000000000000000000000000000000
310
00000000000000000000000000000000000000000000000000000000000000000000000000000000000000000000000000000000000000000000000000000000000000000000000000000000000000000000000000000000000000000000000000000000000000000000000000000000000000000000000000000000000000
310
00000000000000000000280000280000C3C3C3C3C3C3C3C3C3C3C3C3C3C3C3C3C3C3C3C3C3C3C3C3C300ECECECECECECECECECECEC000000000000000000000000000000000000000000000000000000280000ECECECECECECEC00000000000000000000000000002800002800000000000000000000000000000000000000
310
00000000000000000000000000000000000000000000000000000000000000000000000000000000000000000000000000000000000000000000000000000000000000000000000000000000000000000000000000000000000000000000000000000000000000000000000000000000000000000000000000000000000000
310
000000000000000000000000280000280000C3C3C3C3C3000000C3C3C30000C3000000C3C30000C3C3C3C3000000000000000000000000000000000000000000000000000000000000000000000000000000280000ECECECECECECEC0000000000000000000000000000280000280000000000000000000000000000000000
310
00000000000000000000000000000000000000000000000000000000000000000000000000000000000000000000000000000000000000000000000000000000000000000000000000000000000000000000000000000000000000000000000000000000000000000000000000000000000000000000000000000000000000
310
000000000000000000000000000028000028EC00DCDCDCDCC3DCDCDCC3DCDCDCF5C3DCDCDCC3DCDCDCC3F5DCDC0000000000000000000000000000000000000000000000000000000000000000000000000000002800000000ECECECECECECEC000000ECECECECEC0000000028000028000000000000000000000000000000
310
00000000000000000000000000000000000000000000000000000000000000000000000000000000000000000000000000000000000000000000000000000000000000000000000000000000000000000000000000000000000000000000000000000000000000000000000000000000000000000000000000000000000000
310
0000000000000000000000000000000028000028ECDCDCDCDCDCF5DCDCDCF5DCDCDCF5F5DCDCDCF5DCDCDCF5F5DCDC0000000000000000000000000000000000000000000000000000000000000000000000000000002800000000ECECECECECECECECEC00ECECECECECEC0000002800002800000000000000000000000000
310
00000000000000000000000000000000000000000000000000000000000000000000000000000000000000000000000000000000000000000000000000000000000000000000000000000000000000000000000000000000000000000000000000000000000000000000000000000000000000000000000000000000000000
310
00000000000000000000000000000000000028000028DC00DCDCF5C3DCDCDCC3DCDCDCC3F5DCDCDCC3DCDCDCC3DCDCDCDC0000000000000000000000000000000000000000000000000000000000000000000000000000002800000000ECECECECECECECECEC00ECECECECECEC000000280000280000000000000000000000
310
00000000000000000000000000000000000000000000000000000000000000000000000000000000000000000000000000000000000000000000000000000000000000000000000000000000000000000000000000000000000000000000000000000000000000000000000000000000000000000000000000000000000000
310
000000000000000000000000000000000000000028000028DC00C3DCDCC3DCDCDCC3DCDCDCC3DCDCDCDCC3DCDCDCC3DCDCDCC30000000000000000000000000000000000000000000000000000000000000000000000000000002800000000ECECECECECECECECECECECECECECEC0000000028000028000000000000000000
310
00000000000000000000000000000000000000000000000000000000000000000000000000000000000000000000000000000000000000000000000000000000000000000000000000000000000000000000000000000000000000000000000000000000000000000000000000000000000000000000000000000000000000
310
00000000000000000000000000000000000000000000280000280000C3C3C3C3C3C3C3C3C3C3C3C3C3C3C3C3C3C3C3C3C3C3C3C3C30000000000000000000000000000000000000000000000000000000000000000000000000000002800000000ECECECECECEC00000000ECECECECEC000000002800002800000000000000
310
00000000000000000000000000000000000000000000000000000000000000000000000000000000000000000000000000000000000000000000000000000000000000000000000000000000000000000000000000000000000000000000000000000000000000000000000000000000000000000000000000000000000000
310
000000000000000000000000000000000000000000000000280000280000C3C3C3000000C3C3000000000000C3C3C300000000C3C3C3C3000000000000000000000000000000000000000000000000000000000000000000000000000000280000ECECECECECECECECECEC0000ECECECECEC00000000280000280000000000
310
00000000000000000000000000000000000000000000000000000000000000000000000000000000000000000000000000000000000000000000000000000000000000000000000000000000000000000000000000000000000000000000000000000000000000000000000000000000000000000000000000000000000000
310
0000000000000000000000000000000000000000000000000000280000280000C3C3C3C3C3C3C3C3C3C3C3C3C3C3C3C3C3C3C3C3C3C3C3C3C3000000000000000000000000000000000000000000000000000000000000000000000000000000280000ECECECECECECEC000000000000000000000000000028000028000000
310
00000000000000000000000000000000000000000000000000000000000000000000000000000000000000000000000000000000000000000000000000000000000000000000000000000000000000000000000000000000000000000000000000000000000000000000000000000000000000000000000000000000000000
310
00000000000000000000000000000000000000000000000000000000280000280000C3C3C3C3C3C3C3C3C3C3C3C3C3C3C3C3C3C3C3C3C3C3C3C3C3000000000000000000000000000000000000000000000000000000000000000000000000000000280000ECECECECECECECECECECECECECECECECEC000000002800002800
310
00000000000000000000000000000000000000000000000000000000000000000000000000000000000000000000000000000000000000000000000000000000000000000000000000000000000000000000000000000000000000000000000000000000000000000000000000000000000000000000000000000000000000
310
00000000000000000000000000000000000000000000000000000000000028000028ECECECECECECECECEC000000000000000000000000000000000000000000000000000000000000000000000000000000000000000000000000000000000000000000280000ECECECECECECECECECECECECECECECECEC00000000280000
310
28000000000000000000000000000000000000000000000000000000000000000000000000000000000000000000000000000000000000000000000000000000000000000000000000000000000000000000000000000000000000000000000000000000000000000000000000000000000000000000000000000000000000
310
00000000000000000000000000000000000000000000000000000000000000002800002800000000000000000000000000000000000000000000000000000000000000000000000000000000000000000000000000000000000000000000000000000000000028000000000000ECECECECECECECECECECECEC000000000028
310
00002800000000000000000000000000000000000000000000000000000000000000000000000000000000000000000000000000000000000000000000000000000000000000000000000000000000000000000000000000000000000000000000000000000000000000000000000000000000000000000000000000000000
310
0000000000000000000000000000000000000000000000000000000000000000000028000028000000000000000000ECECECECECECECECEC00ECECEC00000000000000000000000000000000000000000000ECECECECECECECECECECECECECEC00000000000000002800000000ECECECECECECECECECECECECECEC00000000
310
00280000280000000000000000000000000000000000000000000000000000000000000000000000000000000000000000000000000000000000000000000000000000000000000000000000000000000000000000000000000000000000000000000000000000000000000000000000000000000000000000000000000000
310
00000000000000000000000000000000000000000000000000000000000000000000000028000028000000000000000000ECECECECECECECECECECECECEC0000000000000000000000C3000000C3000000000000ECECECECECECECECECECECECECEC000000C300000000280000ECECECECECECECEC00000000000000000000
310
00000028000028000000000000000000000000000000000000000000000000000000000000000000000000000000000000000000000000000000000000000000000000000000000000000000000000000000000000000000000000000000000000000000000000000000000000000000000000000000000000000000000000
310
00000000000000000000000000000000000000000000000000000000000000000000000000002800002800000000000000000000000000000000C3000000000000000000C3000000000000C3C3C3C3C3000000000000000000000000C3000000000000000000C3C300000000280000ECECECECECECECEC0000000000000000
310
00000000002800002800000000000000000000000000000000000000000000000000000000000000000000000000000000000000000000000000000000000000000000000000000000000000000000000000000000000000000000000000000000000000000000000000000000000000000000000000000000000000000000
310
000000000000000000000000000000000000000000000000000000000000000000000000000000002800002800000000000000000000000000000000C30000000000000000C300C30000000000C3C3C300C3000000000000000000000000C3000000000000000000C3C3C3C300002828280000000000000000000000000000
310
00000000000000280000280000000000000000000000000000000000000000000000000000000000000000000000000000000000000000000000000000000000000000000000000000000000000000000000000000000000000000000000000000000000000000000000000000000000000000000000000000000000000000
310
0000000000000000000000000000000000000000000000000000000000000000000000000000000000002800002800000000000000000000000000000000C30000000000000000C3C3C3C300000000C3282828C3000000002828000000000000C30000000000000028C30000C300C300282828000000000000000000000000
310
00000000000000000028000028000000000000000000000000000000000000000000000000000000000000000000000000000000000000000000000000000000000000000000000000000000000000000000000000000000000000000000000000000000000000000000000000000000000000000000000000000000000000
310
00000000000000000000000000000000000000000000000000000000000000000000000000000000000000002800002800000000000000282800000000000000C300000000000000C300000000C30000002800000028000000282828000000000000C3000000000000002828280000C3000028282828282828282828282828
310
28282828282828282828282800002800000000000000000000000000000000000000000000000000000000000000000000000000000000000000000000000000000000000000000000000000000000000000000000000000000000000000000000000000000000000000000000000000000000000000000000000000000000
310
000000000000000000000000000000000000000000000000000000000000000000000000000000000000000000002800002800000000000028000028000000000000C300000000000028002800C3C3000000002800000028000000280000280000000000C3000000000000280000282800C30000280000000000000000ECEC
310
ECECECECEC0000000000000000280000280000000000000000000000000000000000000000000000000000000000000000000000000000000000000000000000000000000000000000000000000000000000000000000000000000000000000000000000000000000000000000000000000000000000000000000000000000
310
000000000000000000000000000000000000000000000000000000000000000000000000000000000000000000000000280000280000000000C328002828BE0000000000C30000000000BE282800C3000000000000280000002800C328280000282800000000C300000000002828000028C3C3000000280000000000000000
310
ECECECECECECEC000000000000000028000028000000000000000000000000000000000000000000000000000000000000000000000000000000000000000000000000000000000000000000000000000000000000000000000000000000000000000000000000000000000000000000000000000000000000000000000000
310
00000000000000000000000000000000000000000000000000000000000000000000000000000000000000000000000000002800002800000000C3002800002800BE00000000C300000000BE0028002800C3C3000000002800000028C30000280000280028000000C30000002828002800002800C3C3000028282800000000
310
00000000000000000000000000000000002800002800000000000000000000000000000000000000000000000000000000000000000000000000000000000000000000000000000000000000000000000000000000000000000000000000000000000000000000000000000000000000000000000000000000000000000000
310
0000000000000000000000000000000000000000000000000000000000000000000000000000000000000000000000000000000028000028000000C30000002800002800BE000000C3000000BE00280028000000C3C3000000280000002800C300002800280000280000C30000280000002800280000C30000002828282828
310
28282828282828282828282828282828282828280000280000000000000000000000000000000000000000000000000000000000000000000000000000000000000000000000000000000000000000000000000000000000000000000000000000000000000000000000000000000000000000000000000000000000000000
310
0000000000000000000000000000000000000000000000000000000000000000000000000000000000000000000000000000000000002800002800000000C30000002800280000BEBE00C300BEBE00002828000000C3000000000028000000280000C3000028002800002800C300282800002800280000C300000000280000
310
00ECECEC00ECECECECECECECECECECECECEC00000028000028000000000000000000000000000000000000000000000000000000000000000000000000000000000000000000000000000000000000000000000000000000000000000000000000000000000000000000000000000000000000000000000000000000000000
310
0000000000000000000000000000000000000000000000000000000000000000000000000000000000000000000000000000000000000000280000280000000000C3000000282828000028BEC328BE00002828000000C30000000000002800000028000000C30000280028280028C3280028282828280000C3000000000028
310
000000ECECECECECECECECECECECECECECECECEC0000002800002800000000000000000000000000000000000000000000000000000000000000000000000000000000000000000000000000000000000000000000000000000000000000000000000000000000000000000000000000000000000000000000000000000000
310
0000000000000000000000000000000000000000000000000000000000000000000000000000000000000000000000000000000000000000000028000028000000000000C300000000282800282828BE28002828000000C300000000000000280000002800000000C300002800000000280000000028280000C30000000000
310
00280000000000000000000000000000000000000000000000280000280000000000000000000000000000000000000000000000000000000000000000000000000000000000000000000000000000000000000000000000000000000000000000000000000000000000000000000000000000000000000000000000000000
310
0000000000000000000000000000000000000000000000000000000000000000000000000000000000000000000000000000000000000000000000002800002800000000000000C30000000028282800C328282828000000C30000000000000000280000002800000000C3C3000028000000C300000028280000C300000000
310
00000028282828000000000000000000000000000000000000000028000028000000000000000000000000000000000000000000000000000000000000000000000000000000000000000000000000000000000000000000000000000000000000000000000000000000000000000000000000000000000000000000000000
310
0000000000000000000000000000000000000000000000000000000000000000000000000000000000000000000000000000000000000000000000000000280000280000000000000000C3C3000000282800C30028F5000000C3C30000000000000000280000002800000000C3C3C30000280000C3000028280000C3C3C300
310
00000000002828282828282828282828282828282828282828282828282800002800000000000000000000000000000000000000000000000000000000000000000000000000000000000000000000000000000000000000000000000000000000000000000000000000000000000000000000000000000000000000000000
310
00000000000000000000000000000000000000000000000000000000000000000000000000000000000000000000000000000000000000000000000000000000280000280000000000000000C3C3C30000002828282828F50000C3C3C3000000000000000028000000280000000000C3C3C300002828282828280000C3C3C3
310
00000000000000280000002828282828282828282828282828282828282800280000280000000000000000000000000000000000000000000000000000000000000000000000000000000000000000000000000000000000000000000000000000000000000000000000000000000000000000000000000000000000000000
310
000000000000000000000000000000000000000000000000000000000000000000000000000000000000000000000000000000000000000000000000000000000000280000280000000000000000000000C3000000002800000000C3000000000000000000000028282828280000000000000000C30000282828280000C300
310
00000000000000000028000028F52828282828282828282828282828282828280028000028000000000000000000000000000000000000000000000000000000000000000000000000000000000000000000000000000000000000000000000000000000000000000000000000000000000000000000000000000000000000
310
000000000000000000000000000000000000000000000000000000000000000000000000000000000000000000000000000000000000000000000000000000000000000028000028000000000000000000000000C3000000C3000000C30000000000000000000000000000000000000000000000000000C30000C3C30000C3
310
0000000000000000000000280028F528282828282828F52828282828282828282828002800002800000000000000000000000000000000000000000000000000000000000000000000000000000000000000000000000000000000000000000000000000000000000000000000000000000000000000000000000000000000
310
000000000000000000000000000000000000000000000000000000000000000000000000000000000000000000000000000000000000000000000000000000000000000000002800002800000000000000000000000000C30000C30000C300000000000000000000000000000000000000000000000000000000C300C3C300
310
C300000000000000000000000028000028F528280028282828282828282828282800000000280000280000000000000000000000000000000000000000000000000000000000000000000000000000000000000000000000000000000000000000000000000000000000000000000000000000000000000000000000000000
310
000000000000000000000000000000000000000000000000000000000000000000000000000000000000000000000000000000000000000000000000000000000000000000000000280000280000000000000000000000000000C3C3C3C3C3000000000000000000000000000000000000000000000000000000000000C3C3
310
00C30000000000000000000000000028000000282828282800282828280028282828000000000028000028000000000000000000000000000000000000000000000000000000000000000000000000000000000000000000000000000000000000000000000000000000000000000000000000000000000000000000000000
310
0000000000000000000000000000000000000000000000000000000000000000000000000000000000000000000000000000000000000000000000000000000000000000000000000000280000282828282828282828282828282828C3282828C3282828282828282828282828282828282828282828282828282828282828
310
28282828282828282828282828282828282828282828282828282828282828282828282828282828282800002800000000000000000000000000000000000000000000000000000000000000000000000000000000000000000000000000000000000000000000000000000000000000000000000000000000000000000000
310
00000000000000000000000000000000000000000000000000000000000000000000000000000000000000000000000000000000000000000000000000000000000000000000000000000000280000000000000000000000000000000000000000000000000000000000000000000000000000000000000000000000000000
310
00000000000000000000000000000000000000000000000000000000000000000000000000000000000000000000280000000000000000000000000000000000000000000000000000000000000000000000000000000000000000000000000000000000000000000000000000000000000000000000000000000000000000
310
00000000000000000000000000000000000000000000000000000000000000000000000000000000000000000000000000000000000000000000000000000000000000000000000000000000000028000000000000000000000000000000000000000000000000000000000000000000000000000000000000000000000000
310
00000000000000000000000000000000000000000000000000000000000000000000000000000000000000000000000028000000000000000000000000000000000000000000000000000000000000000000000000000000000000000000000000000000000000000000000000000000000000000000000000000000000000
310
00000000000000000000000000000000000000000000000000000000000000000000000000000000000000000000000000000000000000000000000000000000000000000000000000000000000000002828282828282828282828282828282828282828282828282828282828282828282828282828282828282828282828
310
28282828282828282828282828282828282828282828282828282828282828282828282828282828282828282828282828282800000000000000000000000000000000000000000000000000000000000000000000000000000000000000000000000000000000000000000000000000000000000000000000000000000000
310
00000000000000000000000000000000000000000000000000000000000000000000000000000000000000000000000000000000000000000000000000000000000000000000000000000000000000000000280000000000000000000000000000000000000000000000000000000000000000000000000000000000000000
310
00000000000000000000000000000000000000000000000000000000000000000000000000000000000000000000000000000000280000000000000000000000000000000000000000000000000000000000000000000000000000000000000000000000000000000000000000000000000000000000000000000000000000
310
00000000000000000000000000000000000000000000000000000000000000000000000000000000000000000000000000000000000000000000000000000000000000000000000000000000000000000000000028000000000000000000000000000000000000000000000000000000000000000000000000000000000000
310
00000000000000000000000000000000000000000000000000000000000000000000000000000000000000000000000000000000000028000000000000000000000000000000000000000000000000000000000000000000000000000000000000000000000000000000000000000000000000000000000000000000000000
310
00000000000000000000000000000000000000000000000000000000000000000000000000000000000000000000000000000000000000000000000000000000000000000000000000000000000000000000000000002800002828282828282828282828282828282828282828282828282828282828282828282828282828
310
28282828282828282828282828282828282828282828282828282828282828282828282828282828282828282828282828282828282800002800000000000000000000000000000000000000000000000000000000000000000000000000000000000000000000000000000000000000000000000000000000000000000000
310
00000000000000000000000000000000000000000000000000000000000000000000000000000000000000000000000000000000000000000000000000000000000000000000000000000000000000000000000000000000280000280000000000000000000000000000000000000000000000000000000000000000000000
310
00000000000000000000000000000000000000000000000000000000000000280000000000F5F50000000028000000F5F5F5F5F5000000280000280000000000000000000000000000000000000000000000000000000000000000000000000000000000000000000000000000000000000000000000000000000000000000
310
00000000000000000000000000000000000000000000000000000000000000000000000000000000000000000000000000000000000000000000000000000000000000000000000000000000000000000000000000000000000028000028000000000000000000000000000000000000000000000000000000000000000000
310
000000000000000000000000000000000000000000000000000000000000000000280000000000F5F50000000028000000F5F5F5F5F500000028000028000000000000000000000000000000000000000000000000000000000000000000000000000000000000000000000000000000000000000000000000000000000000
310
00000000000000000000000000000000000000000000000000000000000000000000000000000000000000000000000000000000000000000000000000000000000000000000000000000000000000000000000000000000000000002800002800000000000000000000000000000000000000000000000000000000000000
310
00000000000000000000000000000000000000000000000000000000000000000000002828282828000000000000002828282828000000000000002800002800000000000000000000000000000000000000000000000000000000000000000000000000000000000000000000000000000000000000000000000000000000
310
00000000000000000000000000000000000000000000000000000000000000000000000000000000000000000000000000000000000000000000000000000000000000000000000000000000000000000000000000000000000000000000280000280000000000000000000000000000000000000000000000000000000000
310
00000000000000000000000000000000000000000000000000000000000000000000000000282828282800000000000000282828282800000000000000280000280000000000000000000000000000000000000000000000000000000000000000000000000000000000000000000000000000000000000000000000000000
310
00000000000000000000000000000000000000000000000000000000000000000000000000000000000000000000000000000000000000000000000000000000000000000000000000000000000000000000000000000000000000000000000028000028000000000000000000000000000000000000000000000000000000
310
00000000000000000000000000000000000000000000000000000000000000000000000000000028282828282828282828282828282828282828282828282828000028000000000000000000000000000000000000000000000000000000000000000000000000000000000000000000000000000000000000000000000000
310
00000000000000000000000000000000000000000000000000000000000000000000000000000000000000000000000000000000000000000000000000000000000000000000000000000000000000000000000000000000000000000000000000002800002800000000000000000000000000000000000000000000000000
310
000000000000000000000000000000000000000000000000000000000000000000000000000000000028000000F5F5F5F5F50000002828282828282828282828282800002800000000000000000000000000000000000000000000000000000000000000000000000000000000000000000000000000000000000000000000
310
0000000000000000000000000000000000000000000000000000000000000000000000000000000000000000000000000000000000000000000000000000000000000000000000000000000000000000000000000000000000000000000000000000000028000028000000000000000000000000000000000000000000ECEC
310
ECECEC00ECECECEC00EC00ECEC00000000000000000000000000000000000000000000000000000000000028000000000000000000000028282828F5F5F5F5F5F5F5F5280000280000000000000000000000000000000000000000000000000000000000000000000000000000000000000000000000000000000000000000
310
0000000000000000000000000000000000000000000000000000000000000000000000000000000000000000000000000000000000000000000000000000000000000000000000000000000000000000000000000000000000000000000000000000000000002800002800000000000000000000000000000000000000ECEC
310
ECECECECECECECECECECECECECECEC00000000000000000000000000000000000000000000000000000000000028282800000000000000000028282828F5F5F5F5F5F5F5F528000028000000000000000000000000000000000000000000000000000000000000000000000000000000000000000000000000000000000000
310
00000000000000000000000000000000000000000000000000000000000000000000000000000000000000000000000000000000000000000000000000000000000000000000000000000000000000000000000000000000000000000000000000000000000000002800002800000000000000000000000000000000000000
310
000000000000000000000000000000000000000000000000000000000000000000000000000000000000000000000028282828282828282828282828282828F5F5F5F5F5F5F5F52800002800000000000000000000000000000000000000000000000000000000000000000000000000000000000000000000000000000000
310
00000000000000000000000000000000000000000000000000000000000000000000000000000000000000000000000000000000000000000000000000000000000000000000000000000000000000000000000000000000000000000000000000000000000000000000280000280000000000000000000000000000000000
310
0000000000000000000000000000000000000000000000000000000000000000000000000000000000000000000000000028000000000000000000F5F5F5F5F5F50000000000000000280000280000000000000000000000000000000000000000000000000000000000000000000000000000000000000000000000000000
310
00000000000000000000000000000000000000000000000000000000000000000000000000000000000000000000000000000000000000000000000000000000000000000000000000000000000000000000000000000000000000000000000000000000000000000000000028000028000000C3C3C3C3C3C3C3C3C3C3C3C3
310
C3C3C3C3C3C3C3C3C3C3C3C3C3C3C3C3C3C3C3C3C3C3C3C3C3C3C3C3C3C3C3C3C3C3C3C3000000000000000000000000000000280000000000000000F5F5F5F5F5F5F5000000000000000028000028000000000000000000000000000000000000000000000000000000000000000000000000000000000000000000000000
310
000000000000000000000000000000000000000000000000000000000000000000000000000000000000000000000000000000000000000000000000000000000000000000000000000000000000000000000000000000000000000000000000000000000000000000000000000028000028000000C3C3C3C3C3000000C3C3
310
C3000000C300000000C3C300000000C3000000C3C3C3000000C300000000C3C3000000C3C3C30000000000000000000000000000002800000000000000000000000000000000000000000000002800002800000000000000000000000000000000000000000000000000000000000000000000000000000000000000000000
310
0000000000000000000000000000000000000000000000000000000000000000000000000000000000000000000000000000000000000000000000000000000000000000000000000000000000000000000000000000000000000000000000000000000000000000000000000000000028000028DCDC00C3DCDCDCC3DCDCDC
310
DCDCDCDCDCDCC3DCDCDCDCDCDCDCDCDCDCC3DCDCDCDCDCDCDCDCDCC3DCDCDCDCDCDCDCDCDCC3DCC3000000000000000000000000000000282828282800000000000000000000000000000000000000280000280000000000000000000000000000000000000000000000000000000000000000000000000000000000000000
310
0000000000000000000000000000000000000000000000000000000000000000000000000000000000000000000000000000000000000000000000000000000000000000000000000000000000000000000000000000000000000000000000000000000000000000000000000000000000002800002800DC00DCDCDCDCDCDC
310
DCDCDCDCDCDCDCDCDCDCDCDCDCDCDCDCDCDCDCDCDCDCDCDCDCDCDCDCDCDCDCDCDCDCDCDCDCDCDCDCDCDC0000000000000000000000000000002828ECECECECECECECECECECECECECECECECECECEC28282828000028000000000000000000000000000000000000000000000000000000000000000000000000000000000000
310
000000000000000000000000000000000000000000000000000000000000000000000000000000000000000000000000000000000000000000000000000000000000000000000000000000000000000000000000000000000000000000000000000000000000000000000000000000000000000028000028DCDC00C3C3DCDC
310
DCDCDCDCDCDCDCDCC3DCDCDCDCDCDCDCDCDCC3DCDCDCDCDCDCDCDCDCDCC3DCDCDCDCDCDCDCDCDCC3DCDCDCC30000000000000000000000000000002800ECECECECECECECECECECECECECECECECECEC000000002800002800000000000000000000000000000000000000000000000000000000000000000000000000000000
310
0000000000000000000000000000000000000000000000000000000000000000000000000000000000000000000000000000000000000000000000000000000000000000000000000000000000000000000000000000000000000000000000000000000000000000000000000000000000000000000028000028000000C3C3
310
00000000000000000000C3000000000000000000C300000000000000000000C3000000000000000000C3000000C3000000000000000000000000000000280000000000000000000000000000000000000000000000280000280000000000000000000000000000000000000000000000000000000000000000000000000000
310
00000000000000000000000000000000000000000000000000000000000000000000000000000000000000000000000000000000000000000000000000000000000000000000000000000000000000000000000000000000000000000000000000000000000000000000000000000000000000000000000028000028000000
310
C3C3C3C3C3C3C3C3C3C3C3C3C3C3C3C3C3C3C3C3C3C3C3C3C3C3C3C3C3C3C3C3C3C3C3C3C3C3C3C3C3C3C3C3C3C3C3C300000000000000000000000000000028000000000000000000000000000000000000000000000028000028000000000000000000000000000000000000000000000000000000000000000000000000
310
00000000000000000000000000000000000000000000000000000000000000000000000000000000000000000000000000000000000000000000000000000000000000000000000000000000000000000000000000000000000000000000000000000000000000000000000000000000000000000000000000002800002800
310
0000C3C300000000C3C30000000000000000C3C3C30000000000000000C3C30000000000000000C3C3C300000000C3C3C3C30000000000000000000000000000002800000000000000000000000000000000000000000000002800002800000000000000000000000000000000000000000000000000000000000000000000
310
00000000000000000000000000000000000000000000000000000000000000000000000000000000000000000000000000000000000000000000000000000000000000000000000000000000000000000000000000000000000000000000000000000000000000000000000000000000000000000000000000000000280000
310
28000000C3C3C3C3C3C3C3C3C3C3C3C3C3C3C3C3C3C3C3C3C3C3C3C3C3C3C3C3C3C3C3C3C3C3C3C3C3C3C3C3C3C3C3C3C3C3C3C3000000000000000000000000000000280000000000000000000000000000000000000000000000280000280000000000000000000000000000000000000000000000000000000000000000
310
00000000000000000000000000000000000000000000000000000000000000000000000000000000000000000000000000000000000000000000000000000000000000000000000000000000000000000000000000000000000000000000000000000000000000000000000000000000000000000000000000000000000028
310
000028ECECECECECECECECEC00000000000000000000000000000000C3C3C3C30000000000000000000000000000000000000000000000000000000000000000000000000028000000000000000000000000000000000000000000000028000028000000000000000000000000000000000000000000000000000000000000
310
00000000000000000000000000000000000000000000000000000000000000000000000000000000000000000000000000000000000000000000000000000000000000000000000000000000000000000000000000000000000000000000000000000000000000000000000000000000000000000000000000000000000000
310
0028000028ECECECECECECECECEC0000000000000000000000000000000000000000000000000000000000000000000000000000000000000000000000000000000000000000002800000000000000000000000000000000000000000000002800002800000000000000000000000000000000000000000000000000000000
310
00000000000000000000000000000000000000000000000000000000000000000000000000000000000000000000000000000000000000000000000000000000000000000000000000000000000000000000000000000000000000000000000000000000000000000000000000000000000000000000000000000000000000
310
00000028000028000000000000000000000000000000000000000000000000000000000000000000000000000000000000000000000000000000000000000000000000000000000000280000000000000000000000000000000000000000000000280000280000000000000000000000000000000000000000000000000000
310
00000000000000000000000000000000000000000000000000000000000000000000000000000000000000000000000000000000000000000000000000000000000000000000000000000000000000000000000000000000000000000000000000000000000000000000000000000000000000000000000000000000000000
310
00000000002800002800000000000000000000000000000000000000000000000000000000000000000000000000000000000000000000000000000000000000000000000000000000000028000000000000000000000000000000000000000000000028000028000000000000000000000000000000000000000000000000
310
00000000000000000000000000000000000000000000000000000000000000000000000000000000000000000000000000000000000000000000000000000000000000000000000000000000000000000000000000000000000000000000000000000000000000000000000000000000000000000000000000000000000000
310
00000000000000280000280000000000000000000000000000000000000000000000000000000000000000000000000000000000000000000000000000000000000000000000000000000000002800000000000000000000000000000000000000000000002800002800000000000000000000000000000000000000000000
310
00000000000000000000000000000000000000000000000000000000000000000000000000000000000000000000000000000000000000000000000000000000000000000000000000000000000000000000000000000000000000000000000000000000000000000000000000000000000000000000000000000000000000
310
00000000000000000028000028000000C300C3000000000000000000C3000000000000000000C3C3000000000000000000000000000000000000000000000000000000000000000000000000000000280000000000000000000000000000000000000000000000280000280000000000000000000000000000000000000000
310
00000000000000000000000000000000000000000000000000000000000000000000000000000000000000000000000000000000000000000000000000000000000000000000000000000000000000000000000000000000000000000000000000000000000000000000000000000000000000000000000000000000000000
310
000000000000000000000028000028000000C3C3C3C3C3C3C3C3C3C3C3C3C3C3C3C3C3C3C3C3C3C3C3C300000000000000000000000000000000000000000000000000000000000000000000000000000028000000000000000000000000000000000000000000000028000028000000000000000000000000000000000000
310
00000000000000000000000000000000000000000000000000000000000000000000000000000000000000000000000000000000000000000000000000000000000000000000000000000000000000000000000000000000000000000000000000000000000000000000000000000000000000000000000000000000000000
310
0000000000000000000000000028000028000000C300C3000000000000000000C3000000000000000000C3C30000000000000000000000000000000000000000000000000000000000000000000000000000002800000000000000000000000000000000000000000000002800002800000000000000000000000000000000
310
00000000000000000000000000000000000000000000000000000000000000000000000000000000000000000000000000000000000000000000000000000000000000000000000000000000000000000000000000000000000000000000000000000000000000000000000000000000000000000000000000000000000000
310
00000000000000000000000000000028000028DCDC00DCDCDCDCDCDCDCDCDCDCDCDCDCDCDCDCDCDCDCDCDCDCDCDC000000000000000000000000000000000000000000000000000000000000000000000000000000280000000000000000000000000000000000000000000000280000280000000000000000000000000000
310
00000000000000000000000000000000000000000000000000000000000000000000000000000000000000000000000000000000000000000000000000000000000000000000000000000000000000000000000000000000000000000000000000000000000000000000000000000000000000000000000000000000000000
310
00000000000000000000000000000000002800002800DC00DCDCDCDCDCDCDCDCDCDCDCDCDCDCDCDCDCDCDCDCDCDCDCDC00000000000000000000000000000000000000000000000000000000000000000000000000000028000000000000000000000000000000000000000000000028000028000000000000000000000000
310
00000000000000000000000000000000000000000000000000000000000000000000000000000000000000000000000000000000000000000000000000000000000000000000000000000000000000000000000000000000000000000000000000000000000000000000000000000000000000000000000000000000000000
310
0000000000000000000000000000000000000028000028DCDC00C3DCDCDCDCDCDCDCDCDCDCC3DCDCDCDCDCDCDCDCDCC3DCC30000000000000000000000000000000000000000000000000000000000000000000000000000002800000000000000000000000000000000000000000000002800002800000000000000000000
310
00000000000000000000000000000000000000000000000000000000000000000000000000000000000000000000000000000000000000000000000000000000000000000000000000000000000000000000000000000000000000000000000000000000000000000000000000000000000000000000000000000000000000
310
00000000000000000000000000000000000000000028000028000000C3C3000000000000000000C3000000000000000000C300C3000000000000000000000000000000000000000000000000000000000000000000000000000000280000000000000000000000000000000000000000000000280000280000000000000000
310
00000000000000000000000000000000000000000000000000000000000000000000000000000000000000000000000000000000000000000000000000000000000000000000000000000000000000000000000000000000000000000000000000000000000000000000000000000000000000000000000000000000000000
310
000000000000000000000000000000000000000000000028000028000000C3C3C3C3C3C3C3C3C3C3C3C3C3C3C3C3C3C3C3C3C3C3C3C3000000000000000000000000000000000000000000000000000000000000000000000000000000280000ECEC000000ECEC000000000000000000000000000028000028000000000000
310
00000000000000000000000000000000000000000000000000000000000000000000000000000000000000000000000000000000000000000000000000000000000000000000000000000000000000000000000000000000000000000000000000000000000000000000000000000000000000000000000000000000000000
310
0000000000000000000000000000000000000000000000000028000028000000C3C3000000C3C3C300000000000000C3C3C300000000C3C3000000000000000000000000000000000000000000000000000000000000000000000000000000280000ECECECECECECEC00000000000000000000000000002800002800000000
310
00000000000000000000000000000000000000000000000000000000000000000000000000000000000000000000000000000000000000000000000000000000000000000000000000000000000000000000000000000000000000000000000000000000000000000000000000000000000000000000000000000000000000
310
00000000000000000000000000000000000000000000000000000028000028000000ECC3C3C3C3C3C3C3C3C3C3C3C3C3C3C3C3C3C3C3C3C3C3C3000000000000000000000000000000000000000000000000000000000000000000000000000000280000ECECECECECECEC0000000000000000000000000000280000280000
310
00000000000000000000000000000000000000000000000000000000000000000000000000000000000000000000000000000000000000000000000000000000000000000000000000000000000000000000000000000000000000000000000000000000000000000000000000000000000000000000000000000000000000
310
000000000000000000000000000000000000000000000000000000000028000028000000C3ECECECECEC0000000000C3C300000000000000000000C3000000000000000000000000000000000000000000000000000000000000000000000000000000280000ECECECECECECEC000000000000000000000000000028000028
310
00000000000000000000000000000000000000000000000000000000000000000000000000000000000000000000000000000000000000000000000000000000000000000000000000000000000000000000000000000000000000000000000000000000000000000000000000000000000000000000000000000000000000
310
0000000000000000000000000000000000000000000000000000000000000028000028ECECECECECECECECEC0000000000000000000000000000000000000000000000000000000000000000000000000000000000000000000000000000000000000000002800000000ECECECECECEC00000000ECECECECEC000000002800
310
00280000000000000000000000000000000000000000000000000000000000000000000000000000000000000000000000000000000000000000000000000000000000000000000000000000000000000000000000000000000000000000000000000000000000000000000000000000000000000000000000000000000000
310
000000000000000000000000000000000000000000000000000000000000000000280000280000000000000000000000000000000000000000000000000000000000000000000000000000000000000000000000000000000000000000000000000000000000002800000000ECECECECECECECECEC00ECECECECECEC000000
310
28000028000000000000000000000000000000000000000000000000000000000000000000000000000000000000000000000000000000000000000000000000000000000000000000000000000000000000000000000000000000000000000000000000000000000000000000000000000000000000000000000000000000
310
0000000000000000000000000000000000000000000000000000000000000000000000280000280000000000000000000000000000000000000000000000000000000000000000000000000000000000000000000000000000000000000000000000000000000000002800000000ECECECECECECECECECECECECECECECEC00
310
00002800002800000000000000000000000000000000000000000000000000000000000000000000000000000000000000000000000000000000000000000000000000000000000000000000000000000000000000000000000000000000000000000000000000000000000000000000000000000000000000000000000000
310
0000000000000000000000000000000000000000000000000000000000000000000000000028000028000000000000000000000000000000000000000000000000000000000000000000000000000000000000000000000000000000000000000000000000000000000000280000ECECECECECECECECECECECECECECECECEC
310
00000000280000280000000000000000000000000000000000000000000000000000000000000000000000000000000000000000000000000000000000000000000000000000000000000000000000000000000000000000000000000000000000000000000000000000000000000000000000000000000000000000000000
310
000000000000000000000000000000000000000000000000000000000000000000000000000000280000280000000000000000000000000000ECECECECECEC000000000000000000000000000000000000000000ECECECECECEC0000000000000000000000000000000000000028000000EC00ECECECEC0000000000000000
310
00000000000028000028000000000000000000000000000000000000000000000000000000000000000000000000000000000000000000000000000000000000000000000000000000000000000000000000000000000000000000000000000000000000000000000000000000000000000000000000000000000000000000
310
00000000000000000000000000000000000000000000000000000000000000000000000000000000002800002800000000000000000000000000ECECECECECECECEC0000000000000000000000000000000000000000ECECECECECECEC000000000000000000000000000000000000280000ECECECECECECECECECECECEC00
310
00000000000000002800002800000000000000000000000000000000000000000000000000000000000000000000000000000000000000000000000000000000000000000000000000000000000000000000000000000000000000000000000000000000000000000000000000000000000000000000000000000000000000
310
000000000000000000000000000000000000000000000000000000000000000000000000000000000000002800002800000000000000000000000000ECECECECECECECEC0000000000000000000000000000000000000000ECECECECECECEC0000000000000000000000000000000000002800000000000000000000000000
310
00000000000000000000280000280000000000000000000000000000000000000000000000000000000000000000000000000000000000000000000000000000000000000000000000000000000000000000000000000000000000000000000000000000000000000000000000000000000000000000000000000000000000
310
000000000000000000000000000000000000000000000000000000000000000000000000000000000000000000280000280000000000000000000000000000000000000000000000000000000000000000000000000000000000000000000000000000000000000000000000000000000000002800000000ECECECECECEC00
310
00000000000000000000000028000028000000000000000000000000000000000000000000000000000000000000000000000000000000000000000000000000000000000000000000000000000000000000000000000000000000000000000000000000000000000000000000000000000000000000000000000000000000
310
00000000000000000000000000000000000000000000000000000000000000000000000000000000000000000000002800002800000000000000000000000000000000000000000000000000000000000000000000000000000000000000000000000000C300C30000000000000000000000000000280000ECECECECECECEC
310
EC000000000000000000000000002800002800000000000000000000000000000000000000000000000000000000000000000000000000000000000000000000000000000000000000000000000000000000000000000000000000000000000000000000000000000000000000000000000000000000000000000000000000
310
0000000000000000000000000000000000000000000000000000000000000000000000000000000000000000000000000028000028000000000000000000000000000000000000000000000000000000000000000000000000000000000000000000000000C3C3C3C30000000000000000000000000000280000ECECECEC00
310
00000000000000000000000000000000280000280000000000000000000000000000000000000000000000000000000000000000000000000000000000000000000000000000000000000000000000000000000000000000000000000000000000000000000000000000000000000000000000000000000000000000000000
310
0000000000000000000000000000000000000000000000000000000000000000000000000000000000000000000000000000002800002800000000000000000000000000000000000000000000000000C30000000000000000000000000000000000000000000000C3C3C30000000000000000000000000000282828000000
310
00000000000000000000000000000000000028000028000000000000000000000000000000000000000000000000000000000000000000000000000000000000000000000000000000000000000000000000000000000000000000000000000000000000000000000000000000000000000000000000000000000000000000
310
0000000000000000000000000000000000000000000000000000000000000000000000000000000000000000000000000000000000280000280000000000000000000000000000000000C3000000000000C3C3C300000000000000002828280000C300000000000000002828C3C3C300000000000000000000000028282828
310
28282828282828282828282828282828282828282800002800000000000000000000000000000000000000000000000000000000000000000000000000000000000000000000000000000000000000000000000000000000000000000000000000000000000000000000000000000000000000000000000000000000000000
310
00000000000000000000000000000000000000000000000000000000000000000000000000000000000000000000000000000000000000280000280000000000000000000000280000000000C30000000000C300C3C30000000000000000280028000000C300000000000000282828C3000000000000000000000000002800
310
00000000000000000000000000000000000000000000280000280000000000000000000000000000000000000000000000000000000000000000000000000000000000000000000000000000000000000000000000000000000000000000000000000000000000000000000000000000000000000000000000000000000000
310
00000000000000000000000000000000000000000000000000000000000000000000000000000000000000000000000000000000000000000028000028000000000000000000C328282800000000C300000000282828C3000000000000000000280028000000C3C3000000000000282828C300000000000000000000000000
310
280000000000000000ECECECECECECEC000000000000000028000028000000000000000000000000000000000000000000000000000000000000000000000000000000000000000000000000000000000000000000000000000000000000000000000000000000000000000000000000000000000000000000000000000000
310
0000000000000000000000000000000000000000000000000000000000000000000000000000000000000000000000000000000000000000000000280000280000000000000000C3C3282800BE000000C3000000BE00282800C300000000000000002800280000000000C30000000000282828C30000000000000000000000
310
0000280000000000000000ECECECEC00ECEC00000000000000002800002800000000000000000000000000000000000000000000000000000000000000000000000000000000000000000000000000000000000000000000000000000000000000000000000000000000000000000000000000000000000000000000000000
310
00000000000000000000000000000000000000000000000000000000000000000000000000000000000000000000000000000000000000000000000000280000280000000000000000C3C300282800BE0000C30000BE28282800C3C30000000000000000282828000000000000C300000000282828C3000000000000000000
310
00000000282828000000000000000000000000000000000000000000280000280000000000000000000000000000000000000000000000000000000000000000000000000000000000000000000000000000000000000000000000000000000000000000000000000000000000000000000000000000000000000000000000
310
0000000000000000000000000000000000000000000000000000000000000000000000000000000000000000000000000000000000000000000000000000002800002800000000000000000000C300282828BE00C300BE28282800C30000000000000000000028002800000000000000C3000000282828C300000000000000
310
00000000000028282828282828282828282828282828282828282828282828000028000000000000000000000000000000000000000000000000000000000000000000000000000000000000000000000000000000000000000000000000000000000000000000000000000000000000000000000000000000000000000000
310
0000000000000000000000000000000000000000000000000000000000000000000000000000000000000000000000000000000000000000000000000000000000280000280000000000000000000000C30028282828C32828280000C300000000000000000000002800280000000000000000C30000282828C3C300000000
310
000000000000000028000000ECECECECECECECECECECECECECECECECEC0000002800002800000000000000000000000000000000000000000000000000000000000000000000000000000000000000000000000000000000000000000000000000000000000000000000000000000000000000000000000000000000000000
310
00000000000000000000000000000000000000000000000000000000000000000000000000000000000000000000000000000000000000000000000000000000000000280000280000000000000000000000C3C300002828BE28280000C3C30000000000000000000000280028000000000000000000C30028282800C30000
310
0000000000000000000028000000ECEC00ECECECECECECECECECECECECECEC000000280000280000000000000000000000000000000000000000000000000000000000000000000000000000000000000000000000000000000000000000000000000000000000000000000000000000000000000000000000000000000000
310
000000000000000000000000000000000000000000000000000000000000000000000000000000000000000000000000000000000000000000000000000000000000000000280000280000000000000000000000C3C3C300002828280000C3C3C3000000000000000000000028002800000000000000000000C328282800C3
310
00000000000000000000000028282828000000000000000000000000000000000000000028000028000000000000000000000000000000000000000000000000000000000000000000000000000000000000000000000000000000000000000000000000000000000000000000000000000000000000000000000000000000
310
0000000000000000000000000000000000000000000000000000000000000000000000000000000000000000000000000000000000000000000000000000000000000000000000280000280000000000000000000000000000C30000280000C300000000000000000000000000002828280000282828282828282828282828
310
00C30000000000000000000000002828282828282828282828282828282828282828282828282800002800000000000000000000000000000000000000000000000000000000000000000000000000000000000000000000000000000000000000000000000000000000000000000000000000000000000000000000000000
310
0000000000000000000000000000000000000000000000000000000000000000000000000000000000000000000000000000000000000000000000000000000000000000000000000028000028000000000000000000000000000000C300C300C30000000000000000000000000000002800280000280000002800000000C3
310
282800C3000000000000000000000000280000000000000000000000000000000000000000000000280000280000000000000000000000000000000000000000000000000000000000000000000000000000000000000000000000000000000000000000000000000000000000000000000000000000000000000000000000
310
0000000000000000000000000000000000000000000000000000000000000000000000000000000000000000000000000000000000000000000000000000000000000000000000000000002800002800000000000000000000000000000000C3C3C3C30000000000000000000000000000002828280000C328282828282828
310
282828C3C3C300000000000000000000000028000000282828282828282828282828282828282828280028000028000000000000000000000000000000000000000000000000000000000000000000000000000000000000000000000000000000000000000000000000000000000000000000000000000000000000000000
310
000000000000000000000000000000000000000000000000000000000000000000000000000000000000000000000000000000000000000000000000000000000000000000000000000000000028000028000000000000000000000000000000000000000000000000000000000000000000000000000000C3C3C3C3C3C3C3
310
C3C3C3C3C3C3C30000000000000000000000000028000028F5282828282828282828282828282828282828002800002800000000000000000000000000000000000000000000000000000000000000000000000000000000000000000000000000000000000000000000000000000000000000000000000000000000000000
310
000000000000000000000000000000000000000000000000000000000000000000000000000000000000000000000000000000000000000000000000000000000000000000000000000000000000002800002800000000000000000000000000000000000000000000000000000000000000000000000000000000C3000000
310
C3C30000000000C30000000000000000000000000000280028F52828282828282800282828282828282828282800280000280000000000000000000000000000000000000000000000000000000000000000000000000000000000000000000000000000000000000000000000000000000000000000000000000000000000
310
00000000000000000000000000000000000000000000000000000000000000000000000000000000000000000000000000000000000000000000000000000000000000000000000000000000000000000028000028000000000000000000000000000000000000000000000000000000000000000000000000000000000000
310
00000000000000000000000000000000000000000000000028000028F52828002828282828282828282828280000000028000028000000000000000000000000000000000000000000000000000000000000000000000000000000000000000000000000000000000000000000000000000000000000000000000000000000
310
00000000000000000000000000000000000000000000000000000000000000000000000000000000000000000000000000000000000000000000000000000000000000000000000000000000000000000000002800002800000000000000000000000000000000000000000000000000000000000000000000000000000000
310
00000000000000000000000000000000000000000000000000002800000028282828000000000000000000000000000000002800002800000000000000000000000000000000000000000000000000000000000000000000000000000000000000000000000000000000000000000000000000000000000000000000000000
310
00000000000000000000000000000000000000000000000000000000000000000000000000000000000000000000000000000000000000000000000000000000000000000000000000000000000000000000000000280000282828282828282828282828282828282828282828282828282828282828282828282828282828
310
28282828282828282828282828282828282828282828282828282828282828282828282828282828282828282828282828282828280000280000000000000000000000000000000000000000000000000000000000000000000000000000000000000000000000000000000000000000000000000000000000000000000000
310
00000000000000000000000000000000000000000000000000000000000000000000000000000000000000000000000000000000000000000000000000000000000000000000000000000000000000000000000000000028000000000000000000000000000000000000000000000000000000000000000000000000000000
310
00000000000000000000000000000000000000000000000000000000000000000000000000000000000000000000000000000000000000000028000000000000000000000000000000000000000000000000000000000000000000000000000000000000000000000000000000000000000000000000000000000000000000
310
00000000000000000000000000000000000000000000000000000000000000000000000000000000000000000000000000000000000000000000000000000000000000000000000000000000000000000000000000000000002800000000000000000000000000000000000000000000000000000000000000000000000000
310
00000000000000000000000000000000000000000000000000000000000000000000000000000000000000000000000000000000000000000000002800000000000000000000000000000000000000000000000000000000000000000000000000000000000000000000000000000000000000000000000000000000000000
310
00000000000000000000000000000000000000000000000000000000000000000000000000000000000000000000000000000000000000000000000000000000000000000000000000000000000000000000000000000000000000282828282828282828282828282828282828282828282828282828282828282828282828
310
28282828282828282828282828282828282828282828282828282828282828282828282828282828282828282828282828282828282828282828282828280000000000000000000000000000000000000000000000000000000000000000000000000000000000000000000000000000000000000000000000000000000000
310
00000000000000000000000000000000000000000000000000000000000000000000000000000000000000000000000000000000000000000000000000000000000000000000000000000000000000000000000000000000000000000000000000000000000000000000000000000000000000000000000000000000000000
310
00000000000000000000000000000000000000000000000000000000000000000000000000000000000000000000000000000000000000000000000000000000000000000000000000000000000000000000000000000000000000000000000000000000000000000000000000000000000000000000000000000000000000
310
00000000000000000000000000000000000000000000000000000000000000000000000000000000000000000000000000000000000000000000000000000000000000000000000000000000000000000000000000000000000000000000000000000000000000000000000000000000000000000000000000000000000000
310
00000000000000000000000000000000000000000000000000000000000000000000000000000000000000000000000000000000000000000000000000000000000000000000000000000000000000000000000000000000000000000000000000000000000000000000000000000000000000000000000000000000000000
310
00000000000000000000000000000000000000000000000000000000000000000000000000000000000000000000000000000000000000000000000000000000000000000000000000000000000000000000000000000000000000000000000000000000000000000000000000000000000000000000000000000000000000
310
00000000000000000000000000000000000000000000000000000000000000000000000000000000000000000000000000000000000000000000000000000000000000000000000000000000000000000000000000000000000000000000000000000000000000000000000000000000000000000000000000000000000000
310
00000000000000000000000000000000000000000000000000000000000000000000000000000000000000000000000000000000000000000000000000000000000000000000000000000000000000000000000000000000000000000000000000000000000000000000000000000000000000000000000000000000000000
310
00000000000000000000000000000000000000000000000000000000000000000000000000000000000000000000000000000000000000000000000000000000000000000000000000000000000000000000000000000000000000000000000000000000000000000000000000000000000000000000000000000000000000
310
00000000000000000000000000000000000000000000000000000000000000000000000000000000000000000000000000000000000000000000000000000000000000000000000000000000000000000000000000000000000000000000000000000000000000000000000000000000000000000000000000000000000000
310
00000000000000000000000000000000000000000000000000000000000000000000000000000000000000000000000000000000000000000000000000000000000000000000000000000000000000000000000000000000000000000000000000000000000000000000000000000000000000000000000000000000000000
310
00000000000000000000000000000000000000000000000000000000000000000000000000000000000000000000000000000000000000000000000000000000000000000000000000000000000000000000000000000000000000000000000000000000000000000000000000000000000000000000000000000000000000
310
00000000000000000000000000000000000000000000000000000000000000000000000000000000000000000000000000000000000000000000000000000000000000000000000000000000000000000000000000000000000000000000000000000000000000000000000000000000000000000000000000000000000000
310
00000000000000000000000000000000000000000000000000000000000000000000000000000000000000000000000000000000000000000000000000000000000000000000000000000000000000000000000000000000000000000000000000000000000000000000000000000000000000000000000000000000000000
310
00000000000000000000000000000000000000000000000000000000000000000000000000000000000000000000000000000000000000000000000000000000000000000000000000000000000000000000000000000000000000000000000000000000000000000000000000000000000000000000000000000000000000
310
00000000000000000000000000000000000000000000000000000000000000000000000000000000000000000000000000000000000000000000000000000000000000000000000000000000000000000000000000000000000000000000000000000000000000000000000000000000000000000000000000000000000000
310
00000000000000000000000000000000000000000000000000000000000000000000000000000000000000000000000000000000000000000000000000000000000000000000000000000000000000000000000000000000000000000000000000000000000000000000000000000000000000000000000000000000000000
310
00000000000000000000000000000000000000000000000000000000000000000000000000000000000000000000000000000000000000000000000000000000000000000000000000000000000000000000000000000000000000000000000000000000000000000000000000000000000000000000000000000000000000
310
00000000000000000000000000000000000000000000000000000000000000000000000000000000000000000000000000000000000000000000000000000000000000000000000000000000000000000000000000000000000000000000000000000000000000000000000000000000000000000000000000000000000000
310
00000000000000000000000000000000000000000000000000000000000000000000000000000000000000000000000000000000000000000000000000000000000000000000000000000000000000000000000000000000000000000000000000000000000000000000000000000000000000000000000000000000000000
310
00000000000000000000000000000000000000000000000000000000000000000000000000000000000000000000000000000000000000000000000000000000000000000000000000000000000000000000000000000000000000000000000000000000000000000000000000000000000000000000000000000000000000
310
00000000000000000000000000000000000000000000000000000000000000000000000000000000000000000000000000000000000000000000000000000000000000000000000000000000000000000000000000000000000000000000000000000000000000000000000000000000000000000000000000000000000000
310
00000000000000000000000000000000000000000000000000000000000000000000000000000000000000000000000000000000000000000000000000000000000000000000000000000000000000000000000000000000000000000000000000000000000000000000000000000000000000000000000000000000000000
310
00000000000000000000000000000000000000000000000000000000000000000000000000000000000000000000000000000000000000000000000000000000000000000000000000000000000000000000000000000000000000000000000000000000000000000000000000000000000000000000000000000000000000
310
00000000000000000000000000000000000000000000000000000000000000000000000000000000000000000000000000000000000000000000000000000000000000000000000000000000000000000000000000000000000000000000000000000000000000000000000000000000000000000000000000000000000000
310
00000000000000000000000000000000000000000000000000000000000000000000000000000000000000000000000000000000000000000000000000000000000000000000000000000000000000000000000000000000000000000000000000000000000000000000000000000000000000000000000000000000000000
310
00000000000000000000000000000000000000000000000000000000000000000000000000000000000000000000000000000000000000000000000000000000000000000000000000000000000000000000000000000000000000000000000000000000000000000000000000000000000000000000000000000000000000
310
00000000000000000000000000000000000000000000000000000000000000000000000000000000000000000000000000000000000000000000000000000000000000000000000000000000000000000000000000000000000000000000000000000000000000000000000000000000000000000000000000000000000000
310
00000000000000000000000000000000000000000000000000000000000000000000000000000000000000000000000000000000000000000000000000000000000000000000000000000000000000000000000000000000000000000000000000000000000000000000000000000000000000000000000000000000000000
310
00000000000000000000000000000000000000000000000000000000000000000000000000000000000000000000000000000000000000000000000000000000000000000000000000000000000000000000000000000000000000000000000000000000000000000000000000000000000000000000000000000000000000
310
00000000000000000000000000000000000000000000000000000000000000000000000000000000000000000000000000000000000000000000000000000000000000000000000000000000000000000000000000000000000000000000000000000000000000000000000000000000000000000000000000000000000000
310
00000000000000000000000000000000000000000000000000000000000000000000000000000000000000000000000000000000000000000000000000000000000000000000000000000000000000000000000000000000000000000000000000000000000000000000000000000000000000000000000000000000000000
310
00000000000000000000000000000000000000000000000000000000000000000000000000000000000000000000000000000000000000000000000000000000000000000000000000000000000000000000000000000000000000000000000000000000000000000000000000000000000000000000000000000000000000
310
00000000000000000000000000000000000000000000000000000000000000000000000000000000000000000000000000000000000000000000000000000000000000000000000000000000000000000000000000000000000000000000000000000000000000000000000000000000000000000000000000000000000000
310
00000000000000000000000000000000000000000000000000000000000000000000000000000000000000000000000000000000000000000000000000000000000000000000000000000000000000000000000000000000000000000000000000000000000000000000000000000000000000000000000000000000000000
310
00000000000000000000000000000000000000000000000000000000000000000000000000000000000000000000000000000000000000000000000000000000000000000000000000000000000000000000000000000000000000000000000000000000000000000000000000000000000000000000000000000000000000
310
00000000000000000000000000000000000000000000000000000000000000000000000000000000000000000000000000000000000000000000000000000000000000000000000000000000000000000000000000000000000000000000000000000000000000000000000000000000000000000000000000000000000000
310
00000000000000000000000000000000000000000000000000000000000000000000000000000000000000000000000000000000000000000000000000000000000000000000000000000000000000000000000000000000000000000000000000000000000000000000000000000000000000000000000000000000000000
310
00000000000000000000000000000000000000000000000000000000000000000000000000000000000000000000000000000000000000000000000000000000000000000000000000000000000000000000000000000000000000000000000000000000000000000000000000000000000000000000000000000000000000
310
00000000000000000000000000000000000000000000000000000000000000000000000000000000000000000000000000000000000000000000000000000000000000000000000000000000000000000000000000000000000000000000000000000000000000000000000000000000000000000000000000000000000000
310
00000000000000000000000000000000000000000000000000000000000000000000000000000000000000000000000000000000000000000000000000000000000000000000000000000000000000000000000000000000000000000000000000000000000000000000000000000000000000000000000000000000000000
310
00000000000000000000000000000000000000000000000000000000000000000000000000000000000000000000000000000000000000000000000000000000000000000000000000000000000000000000000000000000000000000000000000000000000000000000000000000000000000000000000000000000000000
310
00000000000000000000000000000000000000000000000000000000000000000000000000000000000000000000000000000000000000000000000000000000000000000000000000000000000000000000000000000000000000000000000000000000000000000000000000000000000000000000000000000000000000
310
00000000000000000000000000000000000000000000000000000000000000000000000000000000000000000000000000000000000000000000000000000000000000000000000000000000000000000000000000000000000000000000000000000000000000000000000000000000000000000000000000000000000000
310
00000000000000000000000000000000000000000000000000000000000000000000000000000000000000000000000000000000000000000000000000000000000000000000000000000000000000000000000000000000000000000000000000000000000000000000000000000000000000000000000000000000000000
310
00000000000000000000000000000000000000000000000000000000000000000000000000000000000000000000000000000000000000000000000000000000000000000000000000000000000000000000000000000000000000000000000000000000000000000000000000000000000000000000000000000000000000
310
00000000000000000000000000000000000000000000000000000000000000000000000000000000000000000000000000000000000000000000000000000000000000000000000000000000000000000000000000000000000000000000000000000000000000000000000000000000000000000000000000000000000000
310
00000000000000000000000000000000000000000000000000000000000000000000000000000000000000000000000000000000000000000000000000000000000000000000000000000000000000000000000000000000000000000000000000000000000000000000000000000000000000000000000000000000000000
310
00000000000000000000000000000000000000000000000000000000000000000000000000000000000000000000000000000000000000000000000000000000000000000000000000000000000000000000000000000000000000000000000000000000000000000000000000000000000000000000000000000000000000
310
00000000000000000000000000000000000000000000000000000000000000000000000000000000000000000000000000000000000000000000000000000000000000000000000000000000000000000000000000000000000000000000000000000000000000000000000000000000000000000000000000000000000000
310
00000000000000000000000000000000000000000000000000000000000000000000000000000000000000000000000000000000000000000000000000000000000000000000000000000000000000000000000000000000000000000000000000000000000000000000000000000000000000000000000000000000000000
310
00000000000000000000000000000000000000000000000000000000000000000000000000000000000000000000000000000000000000000000000000000000000000000000000000000000000000000000000000000000000000000000000000000000000000000000000000000000000000000000000000000000000000
310
00000000000000000000000000000000000000000000000000000000000000000000000000000000000000000000000000000000000000000000000000000000000000000000000000000000000000000000000000000000000000000000000000000000000000000000000000000000000000000000000000000000000000
310
00000000000000000000000000000000000000000000000000000000000000000000000000000000000000000000000000000000000000000000000000000000000000000000000000000000000000000000000000000000000000000000000000000000000000000000000000000000000000000000000000000000000000
310
00000000000000000000000000000000000000000000000000000000000000000000000000000000000000000000000000000000000000000000000000000000000000000000000000000000000000000000000000000000000000000000000000000000000000000000000000000000000000000000000000000000000000
310
00000000000000000000000000000000000000000000000000000000000000000000000000000000000000000000000000000000000000000000000000000000000000000000000000000000000000000000000000000000000000000000000000000000000000000000000000000000000000000000000000000000000000
310
00000000000000000000000000000000000000000000000000000000000000000000000000000000000000000000000000000000000000000000000000000000000000000000000000000000000000000000000000000000000000000000000000000000000000000000000000000000000000000000000000000000000000
310
00000000000000000000000000000000000000000000000000000000000000000000000000000000000000000000000000000000000000000000000000000000000000000000000000000000000000000000000000000000000000000000000000000000000000000000000000000000000000000000000000000000000000
310
00000000000000000000000000000000000000000000000000000000000000000000000000000000000000000000000000000000000000000000000000000000000000000000000000000000000000000000000000000000000000000000000000000000000000000000000000000000000000000000000000000000000000
310
00000000000000000000000000000000000000000000000000000000000000000000000000000000000000000000000000000000000000000000000000000000000000000000000000000000000000000000000000000000000000000000000000000000000000000000000000000000000000000000000000000000000000
310
00000000000000000000000000000000000000000000000000000000000000000000000000000000000000000000000000000000000000000000000000000000000000000000000000000000000000000000000000000000000000000000000000000000000000000000000000000000000000000000000000000000000000
310
00000000000000000000000000000000000000000000000000000000000000000000000000000000000000000000000000000000000000000000000000000000000000000000000000000000000000000000000000000000000000000000000000000000000000000000000000000000000000000000000000000000000000
310
00000000000000000000000000000000000000000000000000000000000000000000000000000000000000000000000000000000000000000000000000000000000000000000000000000000000000000000000000000000000000000000000000000000000000000000000000000000000000000000000000000000000000
310
00000000000000000000000000000000000000000000000000000000000000000000000000000000000000000000000000000000000000000000000000000000000000000000000000000000000000000000000000000000000000000000000000000000000000000000000000000000000000000000000000000000000000
310
00000000000000000000000000000000000000000000000000000000000000000000000000000000000000000000000000000000000000000000000000000000000000000000000000000000000000000000000000000000000000000000000000000000000000000000000000000000000000000000000000000000000000
310
00000000000000000000000000000000000000000000000000000000000000000000000000000000000000000000000000000000000000000000000000000000000000000000000000000000000000000000000000000000000000000000000000000000000000000000000000000000000000000000000000000000000000
310
00000000000000000000000000000000000000000000000000000000000000000000000000000000000000000000000000000000000000000000000000000000000000000000000000000000000000000000000000000000000000000000000000000000000000000000000000000000000000000000000000000000000000
310
00000000000000000000000000000000000000000000000000000000000000000000000000000000000000000000000000000000000000000000000000000000000000000000000000000000000000000000000000000000000000000000000000000000000000000000000000000000000000000000000000000000000000
310
00000000000000000000000000000000000000000000000000000000000000000000000000000000000000000000000000000000000000000000000000000000000000000000000000000000000000000000000000000000000000000000000000000000000000000000000000000000000000000000000000000000000000
310
00000000000000000000000000000000000000000000000000000000000000000000000000000000000000000000000000000000000000000000000000000000000000000000000000000000000000000000000000000000000000000000000000000000000000000000000000000000000000000000000000000000000000
310
00000000000000000000000000000000000000000000000000000000000000000000000000000000000000000000000000000000000000000000000000000000000000000000000000000000000000000000000000000000000000000000000000000000000000000000000000000000000000000000000000000000000000
310
00000000000000000000000000000000000000000000000000000000000000000000000000000000000000000000000000000000000000000000000000000000000000000000000000000000000000000000000000000000000000000000000000000000000000000000000000000000000000000000000000000000000000
310
00000000000000000000000000000000000000000000000000000000000000000000000000000000000000000000000000000000000000000000000000000000000000000000000000000000000000000000000000000000000000000000000000000000000000000000000000000000000000000000000000000000000000
310
00000000000000000000000000000000000000000000000000000000000000000000000000000000000000000000000000000000000000000000000000000000000000000000000000000000000000000000000000000000000000000000000000000000000000000000000000000000000000000000000000000000000000
310
00000000000000000000000000000000000000000000000000000000000000000000000000000000000000000000000000000000000000000000000000000000000000000000000000000000000000000000000000000000000000000000000000000000000000000000000000000000000000000000000000000000000000
310
00000000000000000000000000000000000000000000000000000000000000000000000000000000000000000000000000000000000000000000000000000000000000000000000000000000000000000000000000000000000000000000000000000000000000000000000000000000000000000000000000000000000000
310
00000000000000000000000000000000000000000000000000000000000000000000000000000000000000000000000000000000000000000000000000000000000000000000000000000000000000000000000000000000000000000000000000000000000000000000000000000000000000000000000000000000000000
310
000000000000000000000000000000000000000000000000000000000000000000000000000000000000000000000000000000000000000000000000000000000000000000000000000000000000000000000000000000000000000000000000000000000000000000000000000000000000000000000000000000000000
  0
XRECORD
  5
AF6
102
{ACAD_REACTORS
330
AF5
102
}
330
AF5
100
AcDbXrecord
280
     1
102
SHADEPLOT
 70
     0
102
SHADEPLOTRESLEVEL
 70
     2
102
SHADEPLOTCUSTOMDPI
 70
   300
  0
XRECORD
  5
AF8
102
{ACAD_REACTORS
330
941
102
}
330
941
100
AcDbXrecord
280
     1
102
MATERIAL
148
0.0
149
0.0
149
0.0
 93
        0
 94
      127
282
     0
 72
     0
 77
     0
171
     0
175
     0
179
     0
273
     0
  0
XRECORD
  5
943
102
{ACAD_REACTORS
330
941
102
}
330
941
100
AcDbXrecord
280
     1
270
     1
271
     1
  0
XRECORD
  5
942
102
{ACAD_REACTORS
330
941
102
}
330
941
100
AcDbXrecord
280
     1
270
     1
271
     1
  0
XRECORD
  5
946
102
{ACAD_REACTORS
330
941
102
}
330
941
100
AcDbXrecord
280
     1
270
     1
271
     1
  0
XRECORD
  5
945
102
{ACAD_REACTORS
330
941
102
}
330
941
100
AcDbXrecord
280
     1
270
     1
271
     1
  0
XRECORD
  5
947
102
{ACAD_REACTORS
330
941
102
}
330
941
100
AcDbXrecord
280
     1
270
     1
271
     1
  0
XRECORD
  5
944
102
{ACAD_REACTORS
330
941
102
}
330
941
100
AcDbXrecord
280
     1
270
     1
271
     1
  0
XRECORD
  5
AF7
102
{ACAD_REACTORS
330
939
102
}
330
939
100
AcDbXrecord
280
     1
102
MATERIAL
148
0.0
149
0.0
149
0.0
 93
        0
 94
      127
282
     0
 72
     0
 77
     0
171
     0
175
     0
179
     0
273
     0
  0
XRECORD
  5
93B
102
{ACAD_REACTORS
330
939
102
}
330
939
100
AcDbXrecord
280
     1
270
     1
271
     1
  0
XRECORD
  5
93A
102
{ACAD_REACTORS
330
939
102
}
330
939
100
AcDbXrecord
280
     1
270
     1
271
     1
  0
XRECORD
  5
93E
102
{ACAD_REACTORS
330
939
102
}
330
939
100
AcDbXrecord
280
     1
270
     1
271
     1
  0
XRECORD
  5
93D
102
{ACAD_REACTORS
330
939
102
}
330
939
100
AcDbXrecord
280
     1
270
     1
271
     1
  0
XRECORD
  5
93F
102
{ACAD_REACTORS
330
939
102
}
330
939
100
AcDbXrecord
280
     1
270
     1
271
     1
  0
XRECORD
  5
93C
102
{ACAD_REACTORS
330
939
102
}
330
939
100
AcDbXrecord
280
     1
270
     1
271
     1
  0
XRECORD
  5
AF9
102
{ACAD_REACTORS
330
949
102
}
330
949
100
AcDbXrecord
280
     1
102
MATERIAL
148
0.0
149
0.0
149
0.0
 93
        0
 94
      127
282
     0
 72
     0
 77
     0
171
     0
175
     0
179
     0
273
     0
  0
XRECORD
  5
94B
102
{ACAD_REACTORS
330
949
102
}
330
949
100
AcDbXrecord
280
     1
270
     1
271
     1
  0
XRECORD
  5
94A
102
{ACAD_REACTORS
330
949
102
}
330
949
100
AcDbXrecord
280
     1
270
     1
271
     1
  0
XRECORD
  5
94E
102
{ACAD_REACTORS
330
949
102
}
330
949
100
AcDbXrecord
280
     1
270
     1
271
     1
  0
XRECORD
  5
94D
102
{ACAD_REACTORS
330
949
102
}
330
949
100
AcDbXrecord
280
     1
270
     1
271
     1
  0
XRECORD
  5
94F
102
{ACAD_REACTORS
330
949
102
}
330
949
100
AcDbXrecord
280
     1
270
     1
271
     1
  0
XRECORD
  5
94C
102
{ACAD_REACTORS
330
949
102
}
330
949
100
AcDbXrecord
280
     1
270
     1
271
     1
  0
XRECORD
  5
AF0
102
{ACAD_REACTORS
330
AEF
102
}
330
AEF
100
AcDbXrecord
280
     1
102
ACAD_ROUNDTRIP_2012_MLEADER_STYLE
298
     1
  0
CELLSTYLEMAP
  5
AEE
102
{ACAD_REACTORS
330
AED
102
}
330
AED
100
AcDbCellStyleMap
 90
        3
300
CELLSTYLE
  1
TABLEFORMAT_BEGIN
 90
        5
170
     1
 91
        0
 92
    32768
 62
   257
 93
        1
300
CONTENTFORMAT
  1
CONTENTFORMAT_BEGIN
 90
        0
 91
        0
 92
        4
 93
        0
300

 40
0.0
140
1.0
 94
        5
 62
     0
340
7
144
0.25
309
CONTENTFORMAT_END
171
     0
 94
        6
 95
        1
302
GRIDFORMAT
  1
GRIDFORMAT_BEGIN
 90
        0
 91
        1
 62
     0
 92
       -2
340
0
 93
        0
 40
0.045
309
GRIDFORMAT_END
 95
        2
302
GRIDFORMAT
  1
GRIDFORMAT_BEGIN
 90
        0
 91
        1
 62
     0
 92
       -2
340
0
 93
        0
 40
0.045
309
GRIDFORMAT_END
 95
        4
302
GRIDFORMAT
  1
GRIDFORMAT_BEGIN
 90
        0
 91
        1
 62
     0
 92
       -2
340
0
 93
        0
 40
0.045
309
GRIDFORMAT_END
 95
        8
302
GRIDFORMAT
  1
GRIDFORMAT_BEGIN
 90
        0
 91
        1
 62
     0
 92
       -2
340
0
 93
        0
 40
0.045
309
GRIDFORMAT_END
 95
       16
302
GRIDFORMAT
  1
GRIDFORMAT_BEGIN
 90
        0
 91
        1
 62
     0
 92
       -2
340
0
 93
        0
 40
0.045
309
GRIDFORMAT_END
 95
       32
302
GRIDFORMAT
  1
GRIDFORMAT_BEGIN
 90
        0
 91
        1
 62
     0
 92
       -2
340
0
 93
        0
 40
0.045
309
GRIDFORMAT_END
309
TABLEFORMAT_END
  1
CELLSTYLE_BEGIN
 90
        1
 91
        1
300
_TITLE
309
CELLSTYLE_END
300
CELLSTYLE
  1
TABLEFORMAT_BEGIN
 90
        5
170
     1
 91
        0
 92
        0
 62
   257
 93
        1
300
CONTENTFORMAT
  1
CONTENTFORMAT_BEGIN
 90
        0
 91
        0
 92
        4
 93
        0
300

 40
0.0
140
1.0
 94
        5
 62
     0
340
7
144
0.18
309
CONTENTFORMAT_END
171
     0
 94
        6
 95
        1
302
GRIDFORMAT
  1
GRIDFORMAT_BEGIN
 90
        0
 91
        1
 62
     0
 92
       -2
340
0
 93
        0
 40
0.045
309
GRIDFORMAT_END
 95
        2
302
GRIDFORMAT
  1
GRIDFORMAT_BEGIN
 90
        0
 91
        1
 62
     0
 92
       -2
340
0
 93
        0
 40
0.045
309
GRIDFORMAT_END
 95
        4
302
GRIDFORMAT
  1
GRIDFORMAT_BEGIN
 90
        0
 91
        1
 62
     0
 92
       -2
340
0
 93
        0
 40
0.045
309
GRIDFORMAT_END
 95
        8
302
GRIDFORMAT
  1
GRIDFORMAT_BEGIN
 90
        0
 91
        1
 62
     0
 92
       -2
340
0
 93
        0
 40
0.045
309
GRIDFORMAT_END
 95
       16
302
GRIDFORMAT
  1
GRIDFORMAT_BEGIN
 90
        0
 91
        1
 62
     0
 92
       -2
340
0
 93
        0
 40
0.045
309
GRIDFORMAT_END
 95
       32
302
GRIDFORMAT
  1
GRIDFORMAT_BEGIN
 90
        0
 91
        1
 62
     0
 92
       -2
340
0
 93
        0
 40
0.045
309
GRIDFORMAT_END
309
TABLEFORMAT_END
  1
CELLSTYLE_BEGIN
 90
        2
 91
        1
300
_HEADER
309
CELLSTYLE_END
300
CELLSTYLE
  1
TABLEFORMAT_BEGIN
 90
        5
170
     1
 91
        0
 92
        0
 62
   257
 93
        1
300
CONTENTFORMAT
  1
CONTENTFORMAT_BEGIN
 90
        0
 91
        0
 92
        4
 93
        0
300

 40
0.0
140
1.0
 94
        2
 62
     0
340
7
144
0.18
309
CONTENTFORMAT_END
171
     0
 94
        6
 95
        1
302
GRIDFORMAT
  1
GRIDFORMAT_BEGIN
 90
        0
 91
        1
 62
     0
 92
       -2
340
0
 93
        0
 40
0.045
309
GRIDFORMAT_END
 95
        2
302
GRIDFORMAT
  1
GRIDFORMAT_BEGIN
 90
        0
 91
        1
 62
     0
 92
       -2
340
0
 93
        0
 40
0.045
309
GRIDFORMAT_END
 95
        4
302
GRIDFORMAT
  1
GRIDFORMAT_BEGIN
 90
        0
 91
        1
 62
     0
 92
       -2
340
0
 93
        0
 40
0.045
309
GRIDFORMAT_END
 95
        8
302
GRIDFORMAT
  1
GRIDFORMAT_BEGIN
 90
        0
 91
        1
 62
     0
 92
       -2
340
0
 93
        0
 40
0.045
309
GRIDFORMAT_END
 95
       16
302
GRIDFORMAT
  1
GRIDFORMAT_BEGIN
 90
        0
 91
        1
 62
     0
 92
       -2
340
0
 93
        0
 40
0.045
309
GRIDFORMAT_END
 95
       32
302
GRIDFORMAT
  1
GRIDFORMAT_BEGIN
 90
        0
 91
        1
 62
     0
 92
       -2
340
0
 93
        0
 40
0.045
309
GRIDFORMAT_END
309
TABLEFORMAT_END
  1
CELLSTYLE_BEGIN
 90
        3
 91
        2
300
_DATA
309
CELLSTYLE_END
  0
XRECORD
  5
AF3
102
{ACAD_REACTORS
330
AED
102
}
330
AED
100
AcDbXrecord
280
     1
102
ACAD_ROUNDTRIP_PRE2007_TABLESTYLE
 90
        4
 91
        0
  1

 92
        4
 93
        0
  2

 94
        4
 95
        0
  3

  0
XRECORD
  5
B05
102
{ACAD_REACTORS
330
B04
102
}
330
B04
100
AcDbXrecord
280
     1
102
RTVSPropertyOp0
 70
     1
102
RTVSPropertyOp1
 70
     1
102
RTVSPropertyOp2
 70
     1
102
RTVSPropertyOp3
 70
     1
102
RTVSPropertyOp4
 70
     1
102
RTVSPropertyOp5
 70
     1
102
RTVSPropertyOp6
 70
     1
102
RTVSPropertyOp7
 70
     1
102
RTVSPropertyOp8
 70
     1
102
RTVSPropertyOp9
 70
     1
102
RTVSPropertyOp10
 70
     1
102
RTVSPropertyOp11
 70
     1
102
RTVSPropertyOp12
 70
     1
102
RTVSPropertyOp13
 70
     1
102
RTVSPropertyOp14
 70
     1
102
RTVSPropertyOp15
 70
     1
102
RTVSPropertyOp16
 70
     1
102
RTVSPropertyOp17
 70
     1
102
RTVSPropertyOp18
 70
     1
102
RTVSPropertyOp19
 70
     1
102
RTVSPropertyOp20
 70
     1
102
RTVSPropertyOp21
 70
     1
102
RTVSPropertyOp22
 70
     1
102
RTVSPropertyOp23
 70
     1
102
RTVSPropertyOp24
 70
     1
102
RTVSPropertyOp25
 70
     1
102
RTVSPropertyOp26
 70
     1
102
RTVSPropertyOp27
 70
     1
102
RTVSPropertyOp28
 70
     1
102
RTVSPropertyOp29
 70
     1
102
RTVSPropertyOp30
 70
     1
102
RTVSPropertyOp31
 70
     1
102
RTVSPropertyOp32
 70
     1
  0
XRECORD
  5
B03
102
{ACAD_REACTORS
330
B02
102
}
330
B02
100
AcDbXrecord
280
     1
102
RTVSPropertyOp0
 70
     1
102
RTVSPropertyOp1
 70
     1
102
RTVSPropertyOp2
 70
     1
102
RTVSPropertyOp3
 70
     1
102
RTVSPropertyOp4
 70
     1
102
RTVSPropertyOp5
 70
     1
102
RTVSPropertyOp6
 70
     1
102
RTVSPropertyOp7
 70
     1
102
RTVSPropertyOp8
 70
     1
102
RTVSPropertyOp9
 70
     1
102
RTVSPropertyOp10
 70
     1
102
RTVSPropertyOp11
 70
     1
102
RTVSPropertyOp12
 70
     1
102
RTVSPropertyOp13
 70
     1
102
RTVSPropertyOp14
 70
     1
102
RTVSPropertyOp15
 70
     1
102
RTVSPropertyOp16
 70
     1
102
RTVSPropertyOp17
 70
     1
102
RTVSPropertyOp18
 70
     1
102
RTVSPropertyOp19
 70
     1
102
RTVSPropertyOp20
 70
     1
102
RTVSPropertyOp21
 70
     1
102
RTVSPropertyOp22
 70
     1
102
RTVSPropertyOp23
 70
     1
102
RTVSPropertyOp24
 70
     1
102
RTVSPropertyOp25
 70
     1
102
RTVSPropertyOp26
 70
     1
102
RTVSPropertyOp27
 70
     1
102
RTVSPropertyOp28
 70
     1
102
RTVSPropertyOp29
 70
     1
102
RTVSPropertyOp30
 70
     1
102
RTVSPropertyOp31
 70
     1
102
RTVSPropertyOp32
 70
     1
  0
XRECORD
  5
B11
102
{ACAD_REACTORS
330
B10
102
}
330
B10
100
AcDbXrecord
280
     1
102
RTVSPropertyOp0
 70
     1
102
RTVSPropertyOp1
 70
     1
102
RTVSPropertyOp2
 70
     1
102
RTVSPropertyOp3
 70
     1
102
RTVSPropertyOp4
 70
     1
102
RTVSPropertyOp5
 70
     1
102
RTVSPropertyOp6
 70
     1
102
RTVSPropertyOp7
 70
     1
102
RTVSPropertyOp8
 70
     1
102
RTVSPropertyOp9
 70
     1
102
RTVSPropertyOp10
 70
     1
102
RTVSPropertyOp11
 70
     1
102
RTVSPropertyOp12
 70
     1
102
RTVSPropertyOp13
 70
     1
102
RTVSPropertyOp14
 70
     1
102
RTVSPropertyOp15
 70
     1
102
RTVSPropertyOp16
 70
     1
102
RTVSPropertyOp17
 70
     1
102
RTVSPropertyOp18
 70
     1
102
RTVSPropertyOp19
 70
     1
102
RTVSPropertyOp20
 70
     1
102
RTVSPropertyOp21
 70
     1
102
RTVSPropertyOp22
 70
     1
102
RTVSPropertyOp23
 70
     1
102
RTVSPropertyOp24
 70
     1
102
RTVSPropertyOp25
 70
     1
102
RTVSPropertyOp26
 70
     1
102
RTVSPropertyOp27
 70
     1
102
RTVSPropertyOp28
 70
     1
102
RTVSPropertyOp29
 70
     1
102
RTVSPropertyOp30
 70
     1
102
RTVSPropertyOp31
 70
     1
102
RTVSPropertyOp32
 70
     1
  0
XRECORD
  5
B19
102
{ACAD_REACTORS
330
B18
102
}
330
B18
100
AcDbXrecord
280
     1
102
RTVSPropertyOp0
 70
     1
102
RTVSPropertyOp1
 70
     1
102
RTVSPropertyOp2
 70
     1
102
RTVSPropertyOp3
 70
     1
102
RTVSPropertyOp4
 70
     1
102
RTVSPropertyOp5
 70
     1
102
RTVSPropertyOp6
 70
     1
102
RTVSPropertyOp7
 70
     1
102
RTVSPropertyOp8
 70
     1
102
RTVSPropertyOp9
 70
     1
102
RTVSPropertyOp10
 70
     1
102
RTVSPropertyOp11
 70
     1
102
RTVSPropertyOp12
 70
     1
102
RTVSPropertyOp13
 70
     1
102
RTVSPropertyOp14
 70
     1
102
RTVSPropertyOp15
 70
     1
102
RTVSPropertyOp16
 70
     1
102
RTVSPropertyOp17
 70
     1
102
RTVSPropertyOp18
 70
     1
102
RTVSPropertyOp19
 70
     1
102
RTVSPropertyOp20
 70
     1
102
RTVSPropertyOp21
 70
     1
102
RTVSPropertyOp22
 70
     1
102
RTVSPropertyOp23
 70
     1
102
RTVSPropertyOp24
 70
     1
102
RTVSPropertyOp25
 70
     1
102
RTVSPropertyOp26
 70
     1
102
RTVSPropertyOp27
 70
     1
102
RTVSPropertyOp28
 70
     1
102
RTVSPropertyOp29
 70
     1
102
RTVSPropertyOp30
 70
     1
102
RTVSPropertyOp31
 70
     1
102
RTVSPropertyOp32
 70
     1
  0
XRECORD
  5
B0B
102
{ACAD_REACTORS
330
B0A
102
}
330
B0A
100
AcDbXrecord
280
     1
102
RTVSPropertyOp0
 70
     1
102
RTVSPropertyOp1
 70
     1
102
RTVSPropertyOp2
 70
     1
102
RTVSPropertyOp3
 70
     1
102
RTVSPropertyOp4
 70
     1
102
RTVSPropertyOp5
 70
     1
102
RTVSPropertyOp6
 70
     1
102
RTVSPropertyOp7
 70
     1
102
RTVSPropertyOp8
 70
     1
102
RTVSPropertyOp9
 70
     1
102
RTVSPropertyOp10
 70
     1
102
RTVSPropertyOp11
 70
     1
102
RTVSPropertyOp12
 70
     1
102
RTVSPropertyOp13
 70
     1
102
RTVSPropertyOp14
 70
     1
102
RTVSPropertyOp15
 70
     1
102
RTVSPropertyOp16
 70
     1
102
RTVSPropertyOp17
 70
     1
102
RTVSPropertyOp18
 70
     1
102
RTVSPropertyOp19
 70
     1
102
RTVSPropertyOp20
 70
     1
102
RTVSPropertyOp21
 70
     1
102
RTVSPropertyOp22
 70
     1
102
RTVSPropertyOp23
 70
     1
102
RTVSPropertyOp24
 70
     1
102
RTVSPropertyOp25
 70
     1
102
RTVSPropertyOp26
 70
     1
102
RTVSPropertyOp27
 70
     1
102
RTVSPropertyOp28
 70
     1
102
RTVSPropertyOp29
 70
     1
102
RTVSPropertyOp30
 70
     1
102
RTVSPropertyOp31
 70
     1
102
RTVSPropertyOp32
 70
     1
  0
XRECORD
  5
B0F
102
{ACAD_REACTORS
330
B0E
102
}
330
B0E
100
AcDbXrecord
280
     1
102
RTVSPropertyOp0
 70
     1
102
RTVSPropertyOp1
 70
     1
102
RTVSPropertyOp2
 70
     1
102
RTVSPropertyOp3
 70
     1
102
RTVSPropertyOp4
 70
     1
102
RTVSPropertyOp5
 70
     1
102
RTVSPropertyOp6
 70
     1
102
RTVSPropertyOp7
 70
     1
102
RTVSPropertyOp8
 70
     1
102
RTVSPropertyOp9
 70
     1
102
RTVSPropertyOp10
 70
     1
102
RTVSPropertyOp11
 70
     1
102
RTVSPropertyOp12
 70
     1
102
RTVSPropertyOp13
 70
     1
102
RTVSPropertyOp14
 70
     1
102
RTVSPropertyOp15
 70
     1
102
RTVSPropertyOp16
 70
     1
102
RTVSPropertyOp17
 70
     1
102
RTVSPropertyOp18
 70
     1
102
RTVSPropertyOp19
 70
     1
102
RTVSPropertyOp20
 70
     1
102
RTVSPropertyOp21
 70
     1
102
RTVSPropertyOp22
 70
     1
102
RTVSPropertyOp23
 70
     1
102
RTVSPropertyOp24
 70
     1
102
RTVSPropertyOp25
 70
     1
102
RTVSPropertyOp26
 70
     1
102
RTVSPropertyOp27
 70
     1
102
RTVSPropertyOp28
 70
     1
102
RTVSPropertyOp29
 70
     1
102
RTVSPropertyOp30
 70
     1
102
RTVSPropertyOp31
 70
     1
102
RTVSPropertyOp32
 70
     1
  0
XRECORD
  5
B29
102
{ACAD_REACTORS
330
B28
102
}
330
B28
100
AcDbXrecord
280
     1
102
RTVSPropertyOp0
 70
     0
102
RTVSPropertyOp1
 70
     0
102
RTVSPropertyOp2
 70
     0
102
RTVSPropertyOp3
 70
     0
102
RTVSPropertyOp4
 70
     0
102
RTVSPropertyOp5
 70
     0
102
RTVSPropertyOp6
 70
     0
102
RTVSPropertyOp7
 70
     0
102
RTVSPropertyOp8
 70
     0
102
RTVSPropertyOp9
 70
     0
102
RTVSPropertyOp10
 70
     0
102
RTVSPropertyOp11
 70
     0
102
RTVSPropertyOp12
 70
     0
102
RTVSPropertyOp13
 70
     0
102
RTVSPropertyOp14
 70
     2
102
RTVSPropertyOp15
 70
     0
102
RTVSPropertyOp16
 70
     0
102
RTVSPropertyOp17
 70
     0
102
RTVSPropertyOp18
 70
     0
102
RTVSPropertyOp19
 70
     0
102
RTVSPropertyOp20
 70
     0
102
RTVSPropertyOp21
 70
     0
102
RTVSPropertyOp22
 70
     0
102
RTVSPropertyOp23
 70
     0
102
RTVSPropertyOp24
 70
     0
102
RTVSPropertyOp25
 70
     0
102
RTVSPropertyOp26
 70
     0
102
RTVSPropertyOp27
 70
     0
102
RTVSPropertyOp28
 70
     1
102
RTVSPropertyOp29
 70
     1
102
RTVSPropertyOp30
 70
     1
102
RTVSPropertyOp31
 70
     1
102
RTVSPropertyOp32
 70
     1
  0
XRECORD
  5
B17
102
{ACAD_REACTORS
330
B16
102
}
330
B16
100
AcDbXrecord
280
     1
102
RTVSPropertyOp0
 70
     1
102
RTVSPropertyOp1
 70
     1
102
RTVSPropertyOp2
 70
     1
102
RTVSPropertyOp3
 70
     1
102
RTVSPropertyOp4
 70
     1
102
RTVSPropertyOp5
 70
     1
102
RTVSPropertyOp6
 70
     1
102
RTVSPropertyOp7
 70
     1
102
RTVSPropertyOp8
 70
     1
102
RTVSPropertyOp9
 70
     1
102
RTVSPropertyOp10
 70
     1
102
RTVSPropertyOp11
 70
     1
102
RTVSPropertyOp12
 70
     1
102
RTVSPropertyOp13
 70
     1
102
RTVSPropertyOp14
 70
     1
102
RTVSPropertyOp15
 70
     1
102
RTVSPropertyOp16
 70
     1
102
RTVSPropertyOp17
 70
     1
102
RTVSPropertyOp18
 70
     1
102
RTVSPropertyOp19
 70
     1
102
RTVSPropertyOp20
 70
     1
102
RTVSPropertyOp21
 70
     1
102
RTVSPropertyOp22
 70
     1
102
RTVSPropertyOp23
 70
     1
102
RTVSPropertyOp24
 70
     1
102
RTVSPropertyOp25
 70
     1
102
RTVSPropertyOp26
 70
     1
102
RTVSPropertyOp27
 70
     1
102
RTVSPropertyOp28
 70
     1
102
RTVSPropertyOp29
 70
     1
102
RTVSPropertyOp30
 70
     1
102
RTVSPropertyOp31
 70
     1
102
RTVSPropertyOp32
 70
     1
  0
XRECORD
  5
AFB
102
{ACAD_REACTORS
330
AFA
102
}
330
AFA
100
AcDbXrecord
280
     1
102
RTVSPropertyOp0
 70
     1
102
RTVSPropertyOp1
 70
     1
102
RTVSPropertyOp2
 70
     1
102
RTVSPropertyOp3
 70
     1
102
RTVSPropertyOp4
 70
     1
102
RTVSPropertyOp5
 70
     1
102
RTVSPropertyOp6
 70
     1
102
RTVSPropertyOp7
 70
     1
102
RTVSPropertyOp8
 70
     1
102
RTVSPropertyOp9
 70
     1
102
RTVSPropertyOp10
 70
     1
102
RTVSPropertyOp11
 70
     1
102
RTVSPropertyOp12
 70
     1
102
RTVSPropertyOp13
 70
     1
102
RTVSPropertyOp14
 70
     1
102
RTVSPropertyOp15
 70
     1
102
RTVSPropertyOp16
 70
     1
102
RTVSPropertyOp17
 70
     1
102
RTVSPropertyOp18
 70
     1
102
RTVSPropertyOp19
 70
     1
102
RTVSPropertyOp20
 70
     1
102
RTVSPropertyOp21
 70
     1
102
RTVSPropertyOp22
 70
     1
102
RTVSPropertyOp23
 70
     1
102
RTVSPropertyOp24
 70
     1
102
RTVSPropertyOp25
 70
     1
102
RTVSPropertyOp26
 70
     1
102
RTVSPropertyOp27
 70
     1
102
RTVSPropertyOp28
 70
     1
102
RTVSPropertyOp29
 70
     1
102
RTVSPropertyOp30
 70
     1
102
RTVSPropertyOp31
 70
     1
102
RTVSPropertyOp32
 70
     1
  0
XRECORD
  5
AFD
102
{ACAD_REACTORS
330
AFC
102
}
330
AFC
100
AcDbXrecord
280
     1
102
RTVSPropertyOp0
 70
     1
102
RTVSPropertyOp1
 70
     1
102
RTVSPropertyOp2
 70
     1
102
RTVSPropertyOp3
 70
     1
102
RTVSPropertyOp4
 70
     1
102
RTVSPropertyOp5
 70
     1
102
RTVSPropertyOp6
 70
     1
102
RTVSPropertyOp7
 70
     1
102
RTVSPropertyOp8
 70
     1
102
RTVSPropertyOp9
 70
     1
102
RTVSPropertyOp10
 70
     1
102
RTVSPropertyOp11
 70
     1
102
RTVSPropertyOp12
 70
     1
102
RTVSPropertyOp13
 70
     1
102
RTVSPropertyOp14
 70
     1
102
RTVSPropertyOp15
 70
     1
102
RTVSPropertyOp16
 70
     1
102
RTVSPropertyOp17
 70
     1
102
RTVSPropertyOp18
 70
     1
102
RTVSPropertyOp19
 70
     1
102
RTVSPropertyOp20
 70
     1
102
RTVSPropertyOp21
 70
     1
102
RTVSPropertyOp22
 70
     1
102
RTVSPropertyOp23
 70
     1
102
RTVSPropertyOp24
 70
     1
102
RTVSPropertyOp25
 70
     1
102
RTVSPropertyOp26
 70
     1
102
RTVSPropertyOp27
 70
     1
102
RTVSPropertyOp28
 70
     1
102
RTVSPropertyOp29
 70
     1
102
RTVSPropertyOp30
 70
     1
102
RTVSPropertyOp31
 70
     1
102
RTVSPropertyOp32
 70
     1
  0
XRECORD
  5
AFF
102
{ACAD_REACTORS
330
AFE
102
}
330
AFE
100
AcDbXrecord
280
     1
102
RTVSPropertyOp0
 70
     1
102
RTVSPropertyOp1
 70
     1
102
RTVSPropertyOp2
 70
     1
102
RTVSPropertyOp3
 70
     1
102
RTVSPropertyOp4
 70
     1
102
RTVSPropertyOp5
 70
     1
102
RTVSPropertyOp6
 70
     1
102
RTVSPropertyOp7
 70
     1
102
RTVSPropertyOp8
 70
     1
102
RTVSPropertyOp9
 70
     1
102
RTVSPropertyOp10
 70
     1
102
RTVSPropertyOp11
 70
     1
102
RTVSPropertyOp12
 70
     1
102
RTVSPropertyOp13
 70
     1
102
RTVSPropertyOp14
 70
     1
102
RTVSPropertyOp15
 70
     1
102
RTVSPropertyOp16
 70
     1
102
RTVSPropertyOp17
 70
     1
102
RTVSPropertyOp18
 70
     1
102
RTVSPropertyOp19
 70
     1
102
RTVSPropertyOp20
 70
     1
102
RTVSPropertyOp21
 70
     1
102
RTVSPropertyOp22
 70
     1
102
RTVSPropertyOp23
 70
     1
102
RTVSPropertyOp24
 70
     1
102
RTVSPropertyOp25
 70
     1
102
RTVSPropertyOp26
 70
     1
102
RTVSPropertyOp27
 70
     1
102
RTVSPropertyOp28
 70
     1
102
RTVSPropertyOp29
 70
     1
102
RTVSPropertyOp30
 70
     1
102
RTVSPropertyOp31
 70
     1
102
RTVSPropertyOp32
 70
     1
  0
XRECORD
  5
B01
102
{ACAD_REACTORS
330
B00
102
}
330
B00
100
AcDbXrecord
280
     1
102
RTVSPropertyOp0
 70
     1
102
RTVSPropertyOp1
 70
     1
102
RTVSPropertyOp2
 70
     1
102
RTVSPropertyOp3
 70
     1
102
RTVSPropertyOp4
 70
     1
102
RTVSPropertyOp5
 70
     1
102
RTVSPropertyOp6
 70
     1
102
RTVSPropertyOp7
 70
     1
102
RTVSPropertyOp8
 70
     1
102
RTVSPropertyOp9
 70
     1
102
RTVSPropertyOp10
 70
     1
102
RTVSPropertyOp11
 70
     1
102
RTVSPropertyOp12
 70
     1
102
RTVSPropertyOp13
 70
     1
102
RTVSPropertyOp14
 70
     1
102
RTVSPropertyOp15
 70
     1
102
RTVSPropertyOp16
 70
     1
102
RTVSPropertyOp17
 70
     1
102
RTVSPropertyOp18
 70
     1
102
RTVSPropertyOp19
 70
     1
102
RTVSPropertyOp20
 70
     1
102
RTVSPropertyOp21
 70
     1
102
RTVSPropertyOp22
 70
     1
102
RTVSPropertyOp23
 70
     1
102
RTVSPropertyOp24
 70
     1
102
RTVSPropertyOp25
 70
     1
102
RTVSPropertyOp26
 70
     1
102
RTVSPropertyOp27
 70
     1
102
RTVSPropertyOp28
 70
     1
102
RTVSPropertyOp29
 70
     1
102
RTVSPropertyOp30
 70
     1
102
RTVSPropertyOp31
 70
     1
102
RTVSPropertyOp32
 70
     1
  0
XRECORD
  5
B09
102
{ACAD_REACTORS
330
B08
102
}
330
B08
100
AcDbXrecord
280
     1
102
RTVSPropertyOp0
 70
     1
102
RTVSPropertyOp1
 70
     1
102
RTVSPropertyOp2
 70
     1
102
RTVSPropertyOp3
 70
     1
102
RTVSPropertyOp4
 70
     1
102
RTVSPropertyOp5
 70
     1
102
RTVSPropertyOp6
 70
     1
102
RTVSPropertyOp7
 70
     1
102
RTVSPropertyOp8
 70
     1
102
RTVSPropertyOp9
 70
     1
102
RTVSPropertyOp10
 70
     1
102
RTVSPropertyOp11
 70
     1
102
RTVSPropertyOp12
 70
     1
102
RTVSPropertyOp13
 70
     1
102
RTVSPropertyOp14
 70
     1
102
RTVSPropertyOp15
 70
     1
102
RTVSPropertyOp16
 70
     1
102
RTVSPropertyOp17
 70
     1
102
RTVSPropertyOp18
 70
     1
102
RTVSPropertyOp19
 70
     1
102
RTVSPropertyOp20
 70
     1
102
RTVSPropertyOp21
 70
     1
102
RTVSPropertyOp22
 70
     1
102
RTVSPropertyOp23
 70
     1
102
RTVSPropertyOp24
 70
     1
102
RTVSPropertyOp25
 70
     1
102
RTVSPropertyOp26
 70
     1
102
RTVSPropertyOp27
 70
     1
102
RTVSPropertyOp28
 70
     1
102
RTVSPropertyOp29
 70
     1
102
RTVSPropertyOp30
 70
     1
102
RTVSPropertyOp31
 70
     1
102
RTVSPropertyOp32
 70
     1
  0
XRECORD
  5
B25
102
{ACAD_REACTORS
330
B24
102
}
330
B24
100
AcDbXrecord
280
     1
102
RTVSPropertyOp0
 70
     0
102
RTVSPropertyOp1
 70
     0
102
RTVSPropertyOp2
 70
     0
102
RTVSPropertyOp3
 70
     0
102
RTVSPropertyOp4
 70
     0
102
RTVSPropertyOp5
 70
     0
102
RTVSPropertyOp6
 70
     0
102
RTVSPropertyOp7
 70
     0
102
RTVSPropertyOp8
 70
     0
102
RTVSPropertyOp9
 70
     0
102
RTVSPropertyOp10
 70
     0
102
RTVSPropertyOp11
 70
     0
102
RTVSPropertyOp12
 70
     0
102
RTVSPropertyOp13
 70
     0
102
RTVSPropertyOp14
 70
     2
102
RTVSPropertyOp15
 70
     0
102
RTVSPropertyOp16
 70
     0
102
RTVSPropertyOp17
 70
     0
102
RTVSPropertyOp18
 70
     0
102
RTVSPropertyOp19
 70
     0
102
RTVSPropertyOp20
 70
     0
102
RTVSPropertyOp21
 70
     0
102
RTVSPropertyOp22
 70
     0
102
RTVSPropertyOp23
 70
     0
102
RTVSPropertyOp24
 70
     0
102
RTVSPropertyOp25
 70
     0
102
RTVSPropertyOp26
 70
     0
102
RTVSPropertyOp27
 70
     0
102
RTVSPropertyOp28
 70
     1
102
RTVSPropertyOp29
 70
     1
102
RTVSPropertyOp30
 70
     1
102
RTVSPropertyOp31
 70
     1
102
RTVSPropertyOp32
 70
     1
  0
XRECORD
  5
B15
102
{ACAD_REACTORS
330
B14
102
}
330
B14
100
AcDbXrecord
280
     1
102
RTVSPropertyOp0
 70
     1
102
RTVSPropertyOp1
 70
     1
102
RTVSPropertyOp2
 70
     1
102
RTVSPropertyOp3
 70
     1
102
RTVSPropertyOp4
 70
     1
102
RTVSPropertyOp5
 70
     1
102
RTVSPropertyOp6
 70
     1
102
RTVSPropertyOp7
 70
     1
102
RTVSPropertyOp8
 70
     1
102
RTVSPropertyOp9
 70
     1
102
RTVSPropertyOp10
 70
     1
102
RTVSPropertyOp11
 70
     1
102
RTVSPropertyOp12
 70
     1
102
RTVSPropertyOp13
 70
     1
102
RTVSPropertyOp14
 70
     1
102
RTVSPropertyOp15
 70
     1
102
RTVSPropertyOp16
 70
     1
102
RTVSPropertyOp17
 70
     1
102
RTVSPropertyOp18
 70
     1
102
RTVSPropertyOp19
 70
     1
102
RTVSPropertyOp20
 70
     1
102
RTVSPropertyOp21
 70
     1
102
RTVSPropertyOp22
 70
     1
102
RTVSPropertyOp23
 70
     1
102
RTVSPropertyOp24
 70
     1
102
RTVSPropertyOp25
 70
     1
102
RTVSPropertyOp26
 70
     1
102
RTVSPropertyOp27
 70
     1
102
RTVSPropertyOp28
 70
     1
102
RTVSPropertyOp29
 70
     1
102
RTVSPropertyOp30
 70
     1
102
RTVSPropertyOp31
 70
     1
102
RTVSPropertyOp32
 70
     1
  0
XRECORD
  5
B27
102
{ACAD_REACTORS
330
B26
102
}
330
B26
100
AcDbXrecord
280
     1
102
RTVSPropertyOp0
 70
     0
102
RTVSPropertyOp1
 70
     0
102
RTVSPropertyOp2
 70
     0
102
RTVSPropertyOp3
 70
     0
102
RTVSPropertyOp4
 70
     0
102
RTVSPropertyOp5
 70
     0
102
RTVSPropertyOp6
 70
     0
102
RTVSPropertyOp7
 70
     0
102
RTVSPropertyOp8
 70
     0
102
RTVSPropertyOp9
 70
     0
102
RTVSPropertyOp10
 70
     0
102
RTVSPropertyOp11
 70
     0
102
RTVSPropertyOp12
 70
     0
102
RTVSPropertyOp13
 70
     0
102
RTVSPropertyOp14
 70
     2
102
RTVSPropertyOp15
 70
     0
102
RTVSPropertyOp16
 70
     0
102
RTVSPropertyOp17
 70
     0
102
RTVSPropertyOp18
 70
     0
102
RTVSPropertyOp19
 70
     0
102
RTVSPropertyOp20
 70
     0
102
RTVSPropertyOp21
 70
     0
102
RTVSPropertyOp22
 70
     0
102
RTVSPropertyOp23
 70
     0
102
RTVSPropertyOp24
 70
     0
102
RTVSPropertyOp25
 70
     0
102
RTVSPropertyOp26
 70
     0
102
RTVSPropertyOp27
 70
     0
102
RTVSPropertyOp28
 70
     1
102
RTVSPropertyOp29
 70
     1
102
RTVSPropertyOp30
 70
     1
102
RTVSPropertyOp31
 70
     1
102
RTVSPropertyOp32
 70
     1
  0
XRECORD
  5
B0D
102
{ACAD_REACTORS
330
B0C
102
}
330
B0C
100
AcDbXrecord
280
     1
102
RTVSPropertyOp0
 70
     1
102
RTVSPropertyOp1
 70
     1
102
RTVSPropertyOp2
 70
     1
102
RTVSPropertyOp3
 70
     1
102
RTVSPropertyOp4
 70
     1
102
RTVSPropertyOp5
 70
     1
102
RTVSPropertyOp6
 70
     1
102
RTVSPropertyOp7
 70
     1
102
RTVSPropertyOp8
 70
     1
102
RTVSPropertyOp9
 70
     1
102
RTVSPropertyOp10
 70
     1
102
RTVSPropertyOp11
 70
     1
102
RTVSPropertyOp12
 70
     1
102
RTVSPropertyOp13
 70
     1
102
RTVSPropertyOp14
 70
     1
102
RTVSPropertyOp15
 70
     1
102
RTVSPropertyOp16
 70
     1
102
RTVSPropertyOp17
 70
     1
102
RTVSPropertyOp18
 70
     1
102
RTVSPropertyOp19
 70
     1
102
RTVSPropertyOp20
 70
     1
102
RTVSPropertyOp21
 70
     1
102
RTVSPropertyOp22
 70
     1
102
RTVSPropertyOp23
 70
     1
102
RTVSPropertyOp24
 70
     1
102
RTVSPropertyOp25
 70
     1
102
RTVSPropertyOp26
 70
     1
102
RTVSPropertyOp27
 70
     1
102
RTVSPropertyOp28
 70
     1
102
RTVSPropertyOp29
 70
     1
102
RTVSPropertyOp30
 70
     1
102
RTVSPropertyOp31
 70
     1
102
RTVSPropertyOp32
 70
     1
  0
XRECORD
  5
B23
102
{ACAD_REACTORS
330
B22
102
}
330
B22
100
AcDbXrecord
280
     1
102
RTVSPropertyOp0
 70
     1
102
RTVSPropertyOp1
 70
     1
102
RTVSPropertyOp2
 70
     1
102
RTVSPropertyOp3
 70
     1
102
RTVSPropertyOp4
 70
     1
102
RTVSPropertyOp5
 70
     1
102
RTVSPropertyOp6
 70
     1
102
RTVSPropertyOp7
 70
     1
102
RTVSPropertyOp8
 70
     1
102
RTVSPropertyOp9
 70
     1
102
RTVSPropertyOp10
 70
     1
102
RTVSPropertyOp11
 70
     1
102
RTVSPropertyOp12
 70
     1
102
RTVSPropertyOp13
 70
     1
102
RTVSPropertyOp14
 70
     1
102
RTVSPropertyOp15
 70
     1
102
RTVSPropertyOp16
 70
     1
102
RTVSPropertyOp17
 70
     1
102
RTVSPropertyOp18
 70
     1
102
RTVSPropertyOp19
 70
     1
102
RTVSPropertyOp20
 70
     1
102
RTVSPropertyOp21
 70
     1
102
RTVSPropertyOp22
 70
     1
102
RTVSPropertyOp23
 70
     1
102
RTVSPropertyOp24
 70
     1
102
RTVSPropertyOp25
 70
     1
102
RTVSPropertyOp26
 70
     1
102
RTVSPropertyOp27
 70
     1
102
RTVSPropertyOp28
 70
     1
102
RTVSPropertyOp29
 70
     1
102
RTVSPropertyOp30
 70
     1
102
RTVSPropertyOp31
 70
     1
102
RTVSPropertyOp32
 70
     1
  0
XRECORD
  5
B21
102
{ACAD_REACTORS
330
B20
102
}
330
B20
100
AcDbXrecord
280
     1
102
RTVSPropertyOp0
 70
     1
102
RTVSPropertyOp1
 70
     1
102
RTVSPropertyOp2
 70
     1
102
RTVSPropertyOp3
 70
     1
102
RTVSPropertyOp4
 70
     1
102
RTVSPropertyOp5
 70
     1
102
RTVSPropertyOp6
 70
     1
102
RTVSPropertyOp7
 70
     1
102
RTVSPropertyOp8
 70
     1
102
RTVSPropertyOp9
 70
     1
102
RTVSPropertyOp10
 70
     1
102
RTVSPropertyOp11
 70
     1
102
RTVSPropertyOp12
 70
     1
102
RTVSPropertyOp13
 70
     1
102
RTVSPropertyOp14
 70
     1
102
RTVSPropertyOp15
 70
     1
102
RTVSPropertyOp16
 70
     1
102
RTVSPropertyOp17
 70
     1
102
RTVSPropertyOp18
 70
     1
102
RTVSPropertyOp19
 70
     1
102
RTVSPropertyOp20
 70
     1
102
RTVSPropertyOp21
 70
     1
102
RTVSPropertyOp22
 70
     1
102
RTVSPropertyOp23
 70
     1
102
RTVSPropertyOp24
 70
     1
102
RTVSPropertyOp25
 70
     1
102
RTVSPropertyOp26
 70
     1
102
RTVSPropertyOp27
 70
     1
102
RTVSPropertyOp28
 70
     1
102
RTVSPropertyOp29
 70
     1
102
RTVSPropertyOp30
 70
     1
102
RTVSPropertyOp31
 70
     1
102
RTVSPropertyOp32
 70
     1
  0
XRECORD
  5
B1B
102
{ACAD_REACTORS
330
B1A
102
}
330
B1A
100
AcDbXrecord
280
     1
102
RTVSPropertyOp0
 70
     1
102
RTVSPropertyOp1
 70
     1
102
RTVSPropertyOp2
 70
     1
102
RTVSPropertyOp3
 70
     1
102
RTVSPropertyOp4
 70
     1
102
RTVSPropertyOp5
 70
     1
102
RTVSPropertyOp6
 70
     1
102
RTVSPropertyOp7
 70
     1
102
RTVSPropertyOp8
 70
     1
102
RTVSPropertyOp9
 70
     1
102
RTVSPropertyOp10
 70
     1
102
RTVSPropertyOp11
 70
     1
102
RTVSPropertyOp12
 70
     1
102
RTVSPropertyOp13
 70
     1
102
RTVSPropertyOp14
 70
     1
102
RTVSPropertyOp15
 70
     1
102
RTVSPropertyOp16
 70
     1
102
RTVSPropertyOp17
 70
     1
102
RTVSPropertyOp18
 70
     1
102
RTVSPropertyOp19
 70
     1
102
RTVSPropertyOp20
 70
     1
102
RTVSPropertyOp21
 70
     1
102
RTVSPropertyOp22
 70
     1
102
RTVSPropertyOp23
 70
     1
102
RTVSPropertyOp24
 70
     1
102
RTVSPropertyOp25
 70
     1
102
RTVSPropertyOp26
 70
     1
102
RTVSPropertyOp27
 70
     1
102
RTVSPropertyOp28
 70
     1
102
RTVSPropertyOp29
 70
     1
102
RTVSPropertyOp30
 70
     1
102
RTVSPropertyOp31
 70
     1
102
RTVSPropertyOp32
 70
     1
  0
XRECORD
  5
B1D
102
{ACAD_REACTORS
330
B1C
102
}
330
B1C
100
AcDbXrecord
280
     1
102
RTVSPropertyOp0
 70
     1
102
RTVSPropertyOp1
 70
     1
102
RTVSPropertyOp2
 70
     1
102
RTVSPropertyOp3
 70
     1
102
RTVSPropertyOp4
 70
     1
102
RTVSPropertyOp5
 70
     1
102
RTVSPropertyOp6
 70
     1
102
RTVSPropertyOp7
 70
     1
102
RTVSPropertyOp8
 70
     1
102
RTVSPropertyOp9
 70
     1
102
RTVSPropertyOp10
 70
     1
102
RTVSPropertyOp11
 70
     1
102
RTVSPropertyOp12
 70
     1
102
RTVSPropertyOp13
 70
     1
102
RTVSPropertyOp14
 70
     1
102
RTVSPropertyOp15
 70
     1
102
RTVSPropertyOp16
 70
     1
102
RTVSPropertyOp17
 70
     1
102
RTVSPropertyOp18
 70
     1
102
RTVSPropertyOp19
 70
     1
102
RTVSPropertyOp20
 70
     1
102
RTVSPropertyOp21
 70
     1
102
RTVSPropertyOp22
 70
     1
102
RTVSPropertyOp23
 70
     1
102
RTVSPropertyOp24
 70
     1
102
RTVSPropertyOp25
 70
     1
102
RTVSPropertyOp26
 70
     1
102
RTVSPropertyOp27
 70
     1
102
RTVSPropertyOp28
 70
     1
102
RTVSPropertyOp29
 70
     1
102
RTVSPropertyOp30
 70
     1
102
RTVSPropertyOp31
 70
     1
102
RTVSPropertyOp32
 70
     1
  0
XRECORD
  5
B13
102
{ACAD_REACTORS
330
B12
102
}
330
B12
100
AcDbXrecord
280
     1
102
RTVSPropertyOp0
 70
     1
102
RTVSPropertyOp1
 70
     1
102
RTVSPropertyOp2
 70
     1
102
RTVSPropertyOp3
 70
     1
102
RTVSPropertyOp4
 70
     1
102
RTVSPropertyOp5
 70
     1
102
RTVSPropertyOp6
 70
     1
102
RTVSPropertyOp7
 70
     1
102
RTVSPropertyOp8
 70
     1
102
RTVSPropertyOp9
 70
     1
102
RTVSPropertyOp10
 70
     1
102
RTVSPropertyOp11
 70
     1
102
RTVSPropertyOp12
 70
     1
102
RTVSPropertyOp13
 70
     1
102
RTVSPropertyOp14
 70
     1
102
RTVSPropertyOp15
 70
     1
102
RTVSPropertyOp16
 70
     1
102
RTVSPropertyOp17
 70
     1
102
RTVSPropertyOp18
 70
     1
102
RTVSPropertyOp19
 70
     1
102
RTVSPropertyOp20
 70
     1
102
RTVSPropertyOp21
 70
     1
102
RTVSPropertyOp22
 70
     1
102
RTVSPropertyOp23
 70
     1
102
RTVSPropertyOp24
 70
     1
102
RTVSPropertyOp25
 70
     1
102
RTVSPropertyOp26
 70
     1
102
RTVSPropertyOp27
 70
     1
102
RTVSPropertyOp28
 70
     1
102
RTVSPropertyOp29
 70
     1
102
RTVSPropertyOp30
 70
     1
102
RTVSPropertyOp31
 70
     1
102
RTVSPropertyOp32
 70
     1
  0
XRECORD
  5
B07
102
{ACAD_REACTORS
330
B06
102
}
330
B06
100
AcDbXrecord
280
     1
102
RTVSPropertyOp0
 70
     1
102
RTVSPropertyOp1
 70
     1
102
RTVSPropertyOp2
 70
     1
102
RTVSPropertyOp3
 70
     1
102
RTVSPropertyOp4
 70
     1
102
RTVSPropertyOp5
 70
     1
102
RTVSPropertyOp6
 70
     1
102
RTVSPropertyOp7
 70
     1
102
RTVSPropertyOp8
 70
     1
102
RTVSPropertyOp9
 70
     1
102
RTVSPropertyOp10
 70
     1
102
RTVSPropertyOp11
 70
     1
102
RTVSPropertyOp12
 70
     1
102
RTVSPropertyOp13
 70
     1
102
RTVSPropertyOp14
 70
     1
102
RTVSPropertyOp15
 70
     1
102
RTVSPropertyOp16
 70
     1
102
RTVSPropertyOp17
 70
     1
102
RTVSPropertyOp18
 70
     1
102
RTVSPropertyOp19
 70
     1
102
RTVSPropertyOp20
 70
     1
102
RTVSPropertyOp21
 70
     1
102
RTVSPropertyOp22
 70
     1
102
RTVSPropertyOp23
 70
     1
102
RTVSPropertyOp24
 70
     1
102
RTVSPropertyOp25
 70
     1
102
RTVSPropertyOp26
 70
     1
102
RTVSPropertyOp27
 70
     1
102
RTVSPropertyOp28
 70
     1
102
RTVSPropertyOp29
 70
     1
102
RTVSPropertyOp30
 70
     1
102
RTVSPropertyOp31
 70
     1
102
RTVSPropertyOp32
 70
     1
  0
XRECORD
  5
B1F
102
{ACAD_REACTORS
330
B1E
102
}
330
B1E
100
AcDbXrecord
280
     1
102
RTVSPropertyOp0
 70
     1
102
RTVSPropertyOp1
 70
     1
102
RTVSPropertyOp2
 70
     1
102
RTVSPropertyOp3
 70
     1
102
RTVSPropertyOp4
 70
     1
102
RTVSPropertyOp5
 70
     1
102
RTVSPropertyOp6
 70
     1
102
RTVSPropertyOp7
 70
     1
102
RTVSPropertyOp8
 70
     1
102
RTVSPropertyOp9
 70
     1
102
RTVSPropertyOp10
 70
     1
102
RTVSPropertyOp11
 70
     1
102
RTVSPropertyOp12
 70
     1
102
RTVSPropertyOp13
 70
     1
102
RTVSPropertyOp14
 70
     1
102
RTVSPropertyOp15
 70
     1
102
RTVSPropertyOp16
 70
     1
102
RTVSPropertyOp17
 70
     1
102
RTVSPropertyOp18
 70
     1
102
RTVSPropertyOp19
 70
     1
102
RTVSPropertyOp20
 70
     1
102
RTVSPropertyOp21
 70
     1
102
RTVSPropertyOp22
 70
     1
102
RTVSPropertyOp23
 70
     1
102
RTVSPropertyOp24
 70
     1
102
RTVSPropertyOp25
 70
     1
102
RTVSPropertyOp26
 70
     1
102
RTVSPropertyOp27
 70
     1
102
RTVSPropertyOp28
 70
     1
102
RTVSPropertyOp29
 70
     1
102
RTVSPropertyOp30
 70
     1
102
RTVSPropertyOp31
 70
     1
102
RTVSPropertyOp32
 70
     1
  0
ENDSEC
  0
EOF
