  0
SECTION
  2
HEADER
  9
$ACADVER
  1
AC1015
  9
$ACADMAINTVER
 70
    20
  9
$DWGCODEPAGE
  3
ANSI_932
  9
$INSBASE
 10
0.0
 20
0.0
 30
0.0
  9
$EXTMIN
 10
-0.0064041928748111
 20
-0.0634434171593057
 30
-0.0000000000112498
  9
$EXTMAX
 10
420.0064100605656
 20
297.0211555507981
 30
0.0000000000002956
  9
$LIMMIN
 10
0.0
 20
0.0
  9
$LIMMAX
 10
420.0
 20
297.0
  9
$ORTHOMODE
 70
     1
  9
$REGENMODE
 70
     1
  9
$FILLMODE
 70
     1
  9
$QTEXTMODE
 70
     0
  9
$MIRRTEXT
 70
     1
  9
$LTSCALE
 40
8.4
  9
$ATTMODE
 70
     1
  9
$TEXTSIZE
 40
0.2
  9
$TRACEWID
 40
0.05
  9
$TEXTSTYLE
  7
STANDARD
  9
$CLAYER
  8
LEVEL001
  9
$CELTYPE
  6
CONTINUOUS
  9
$CECOLOR
 62
   256
  9
$CELTSCALE
 40
1.0
  9
$DISPSILH
 70
     0
  9
$DIMSCALE
 40
1.0
  9
$DIMASZ
 40
0.18
  9
$DIMEXO
 40
0.0625
  9
$DIMDLI
 40
0.38
  9
$DIMRND
 40
0.0
  9
$DIMDLE
 40
0.0
  9
$DIMEXE
 40
0.18
  9
$DIMTP
 40
0.0
  9
$DIMTM
 40
0.0
  9
$DIMTXT
 40
0.18
  9
$DIMCEN
 40
0.09
  9
$DIMTSZ
 40
0.0
  9
$DIMTOL
 70
     0
  9
$DIMLIM
 70
     0
  9
$DIMTIH
 70
     1
  9
$DIMTOH
 70
     1
  9
$DIMSE1
 70
     0
  9
$DIMSE2
 70
     0
  9
$DIMTAD
 70
     0
  9
$DIMZIN
 70
     0
  9
$DIMBLK
  1

  9
$DIMASO
 70
     1
  9
$DIMSHO
 70
     1
  9
$DIMPOST
  1

  9
$DIMAPOST
  1

  9
$DIMALT
 70
     0
  9
$DIMALTD
 70
     2
  9
$DIMALTF
 40
25.4
  9
$DIMLFAC
 40
1.0
  9
$DIMTOFL
 70
     0
  9
$DIMTVP
 40
0.0
  9
$DIMTIX
 70
     0
  9
$DIMSOXD
 70
     0
  9
$DIMSAH
 70
     0
  9
$DIMBLK1
  1

  9
$DIMBLK2
  1

  9
$DIMSTYLE
  2
STANDARD
  9
$DIMCLRD
 70
     0
  9
$DIMCLRE
 70
     0
  9
$DIMCLRT
 70
     0
  9
$DIMTFAC
 40
1.0
  9
$DIMGAP
 40
0.09
  9
$DIMJUST
 70
     0
  9
$DIMSD1
 70
     0
  9
$DIMSD2
 70
     0
  9
$DIMTOLJ
 70
     1
  9
$DIMTZIN
 70
     0
  9
$DIMALTZ
 70
     0
  9
$DIMALTTZ
 70
     0
  9
$DIMUPT
 70
     0
  9
$DIMDEC
 70
     4
  9
$DIMTDEC
 70
     4
  9
$DIMALTU
 70
     2
  9
$DIMALTTD
 70
     2
  9
$DIMTXSTY
  7
STANDARD
  9
$DIMAUNIT
 70
     0
  9
$DIMADEC
 70
     0
  9
$DIMALTRND
 40
0.0
  9
$DIMAZIN
 70
     0
  9
$DIMDSEP
 70
    46
  9
$DIMATFIT
 70
     3
  9
$DIMFRAC
 70
     0
  9
$DIMLDRBLK
  1

  9
$DIMLUNIT
 70
     2
  9
$DIMLWD
 70
    -2
  9
$DIMLWE
 70
    -2
  9
$DIMTMOVE
 70
     0
  9
$LUNITS
 70
     2
  9
$LUPREC
 70
     4
  9
$SKETCHINC
 40
0.1
  9
$FILLETRAD
 40
0.0
  9
$AUNITS
 70
     0
  9
$AUPREC
 70
     0
  9
$MENU
  1
.
  9
$ELEVATION
 40
0.0
  9
$PELEVATION
 40
0.0
  9
$THICKNESS
 40
0.0
  9
$LIMCHECK
 70
     0
  9
$CHAMFERA
 40
0.0
  9
$CHAMFERB
 40
0.0
  9
$CHAMFERC
 40
0.0
  9
$CHAMFERD
 40
0.0
  9
$SKPOLY
 70
     0
  9
$TDCREATE
 40
2451212.682759178
  9
$TDUCREATE
 40
2451212.307759178
  9
$TDUPDATE
 40
2458321.631133426
  9
$TDUUPDATE
 40
2458321.256133426
  9
$TDINDWG
 40
0.0102974306
  9
$TDUSRTIMER
 40
0.0102974306
  9
$USRTIMER
 70
     1
  9
$ANGBASE
 50
0.0
  9
$ANGDIR
 70
     0
  9
$PDMODE
 70
     0
  9
$PDSIZE
 40
0.0
  9
$PLINEWID
 40
0.0
  9
$SPLFRAME
 70
     0
  9
$SPLINETYPE
 70
     6
  9
$SPLINESEGS
 70
     8
  9
$HANDSEED
  5
BB1
  9
$SURFTAB1
 70
     6
  9
$SURFTAB2
 70
     6
  9
$SURFTYPE
 70
     6
  9
$SURFU
 70
     6
  9
$SURFV
 70
     6
  9
$UCSBASE
  2

  9
$UCSNAME
  2

  9
$UCSORG
 10
0.0
 20
0.0
 30
0.0
  9
$UCSXDIR
 10
1.0
 20
0.0
 30
0.0
  9
$UCSYDIR
 10
0.0
 20
1.0
 30
0.0
  9
$UCSORTHOREF
  2

  9
$UCSORTHOVIEW
 70
     0
  9
$UCSORGTOP
 10
0.0
 20
0.0
 30
0.0
  9
$UCSORGBOTTOM
 10
0.0
 20
0.0
 30
0.0
  9
$UCSORGLEFT
 10
0.0
 20
0.0
 30
0.0
  9
$UCSORGRIGHT
 10
0.0
 20
0.0
 30
0.0
  9
$UCSORGFRONT
 10
0.0
 20
0.0
 30
0.0
  9
$UCSORGBACK
 10
0.0
 20
0.0
 30
0.0
  9
$PUCSBASE
  2

  9
$PUCSNAME
  2

  9
$PUCSORG
 10
0.0
 20
0.0
 30
0.0
  9
$PUCSXDIR
 10
1.0
 20
0.0
 30
0.0
  9
$PUCSYDIR
 10
0.0
 20
1.0
 30
0.0
  9
$PUCSORTHOREF
  2

  9
$PUCSORTHOVIEW
 70
     0
  9
$PUCSORGTOP
 10
0.0
 20
0.0
 30
0.0
  9
$PUCSORGBOTTOM
 10
0.0
 20
0.0
 30
0.0
  9
$PUCSORGLEFT
 10
0.0
 20
0.0
 30
0.0
  9
$PUCSORGRIGHT
 10
0.0
 20
0.0
 30
0.0
  9
$PUCSORGFRONT
 10
0.0
 20
0.0
 30
0.0
  9
$PUCSORGBACK
 10
0.0
 20
0.0
 30
0.0
  9
$USERI1
 70
     0
  9
$USERI2
 70
     0
  9
$USERI3
 70
     0
  9
$USERI4
 70
     0
  9
$USERI5
 70
     0
  9
$USERR1
 40
0.0
  9
$USERR2
 40
0.0
  9
$USERR3
 40
0.0
  9
$USERR4
 40
0.0
  9
$USERR5
 40
0.0
  9
$WORLDVIEW
 70
     1
  9
$SHADEDGE
 70
     3
  9
$SHADEDIF
 70
    70
  9
$TILEMODE
 70
     1
  9
$MAXACTVP
 70
    16
  9
$PINSBASE
 10
0.0
 20
0.0
 30
0.0
  9
$PLIMCHECK
 70
     0
  9
$PEXTMIN
 10
1.000000000000000E+20
 20
1.000000000000000E+20
 30
1.000000000000000E+20
  9
$PEXTMAX
 10
-1.000000000000000E+20
 20
-1.000000000000000E+20
 30
-1.000000000000000E+20
  9
$PLIMMIN
 10
0.0
 20
0.0
  9
$PLIMMAX
 10
12.0
 20
9.0
  9
$UNITMODE
 70
     0
  9
$VISRETAIN
 70
     1
  9
$PLINEGEN
 70
     0
  9
$PSLTSCALE
 70
     1
  9
$TREEDEPTH
 70
  3020
  9
$CMLSTYLE
  2
STANDARD
  9
$CMLJUST
 70
     0
  9
$CMLSCALE
 40
1.0
  9
$PROXYGRAPHICS
 70
     1
  9
$MEASUREMENT
 70
     0
  9
$CELWEIGHT
370
    -1
  9
$ENDCAPS
280
     0
  9
$JOINSTYLE
280
     0
  9
$LWDISPLAY
290
     0
  9
$INSUNITS
 70
     0
  9
$HYPERLINKBASE
  1

  9
$STYLESHEET
  1

  9
$XEDIT
290
     1
  9
$CEPSNTYPE
380
     0
  9
$PSTYLEMODE
290
     0
  9
$FINGERPRINTGUID
  2
{BE23516F-949D-4B3E-9790-BFC755D99CAB}
  9
$VERSIONGUID
  2
{1051AE07-ECCD-4CB3-9E54-882BD9DB2CC7}
  9
$EXTNAMES
290
     1
  9
$PSVPSCALE
 40
0.0
  9
$OLESTARTUP
290
     0
  0
ENDSEC
  0
SECTION
  2
CLASSES
  0
CLASS
  1
ACDBDICTIONARYWDFLT
  2
AcDbDictionaryWithDefault
  3
ObjectDBX Classes
 90
        0
280
     0
281
     0
  0
CLASS
  1
TABLESTYLE
  2
AcDbTableStyle
  3
ObjectDBX Classes
 90
     4095
280
     0
281
     0
  0
CLASS
  1
DICTIONARYVAR
  2
AcDbDictionaryVar
  3
ObjectDBX Classes
 90
        0
280
     0
281
     0
  0
CLASS
  1
ACDBPLACEHOLDER
  2
AcDbPlaceHolder
  3
ObjectDBX Classes
 90
        0
280
     0
281
     0
  0
CLASS
  1
LAYOUT
  2
AcDbLayout
  3
ObjectDBX Classes
 90
        0
280
     0
281
     0
  0
CLASS
  1
MATERIAL
  2
AcDbMaterial
  3
ObjectDBX Classes
 90
     1153
280
     0
281
     0
  0
CLASS
  1
VISUALSTYLE
  2
AcDbVisualStyle
  3
ObjectDBX Classes
 90
     4095
280
     0
281
     0
  0
CLASS
  1
SCALE
  2
AcDbScale
  3
ObjectDBX Classes
 90
     1153
280
     0
281
     0
  0
CLASS
  1
MLEADERSTYLE
  2
AcDbMLeaderStyle
  3
ACDB_MLEADERSTYLE_CLASS
 90
     4095
280
     0
281
     0
  0
CLASS
  1
SORTENTSTABLE
  2
AcDbSortentsTable
  3
ObjectDBX Classes
 90
        0
280
     0
281
     0
  0
CLASS
  1
CELLSTYLEMAP
  2
AcDbCellStyleMap
  3
ObjectDBX Classes
 90
     1152
280
     0
281
     0
  0
ENDSEC
  0
SECTION
  2
TABLES
  0
TABLE
  2
VPORT
  5
1
330
0
100
AcDbSymbolTable
 70
     1
  0
VPORT
  5
9D8
330
1
100
AcDbSymbolTableRecord
100
AcDbViewportTableRecord
  2
*Active
 70
     0
 10
0.0
 20
0.0
 11
1.0
 21
1.0
 12
210.0000029338454
 22
148.4788560668194
 13
0.0
 23
0.0
 14
1.0
 24
1.0
 15
0.0
 25
0.0
 16
0.0
 26
0.0
 36
1.0
 17
0.0
 27
0.0
 37
0.0
 40
299.8828840445786
 41
1.882075471698112
 42
50.0
 43
0.0
 44
0.0
 50
0.0
 51
0.0
 71
     0
 72
   100
 73
     1
 74
     1
 75
     0
 76
     0
 77
     0
 78
     0
281
     0
 65
     1
110
0.0
120
0.0
130
0.0
111
1.0
121
0.0
131
0.0
112
0.0
122
1.0
132
0.0
 79
     0
146
0.0
1001
ACAD_NAV_VCDISPLAY
1070
     3
  0
ENDTAB
  0
TABLE
  2
LTYPE
  5
68
330
0
100
AcDbSymbolTable
 70
    25
  0
LTYPE
  5
1D
330
68
100
AcDbSymbolTableRecord
100
AcDbLinetypeTableRecord
  2
BYBLOCK
 70
     0
  3

 72
    65
 73
     0
 40
0.0
  0
LTYPE
  5
1E
330
68
100
AcDbSymbolTableRecord
100
AcDbLinetypeTableRecord
  2
BYLAYER
 70
     0
  3

 72
    65
 73
     0
 40
0.0
  0
LTYPE
  5
1F
330
68
100
AcDbSymbolTableRecord
100
AcDbLinetypeTableRecord
  2
CONTINUOUS
 70
     0
  3
Solid line
 72
    65
 73
     0
 40
0.0
  0
LTYPE
  5
20
330
68
100
AcDbSymbolTableRecord
100
AcDbLinetypeTableRecord
  2
BORDER
 70
     0
  3
__ __ . __ __ . __ __ . __ __ . __ __ . __ __ .
 72
    65
 73
     6
 40
1.75
 49
0.5
 74
     0
 49
-0.25
 74
     0
 49
0.5
 74
     0
 49
-0.25
 74
     0
 49
0.0
 74
     0
 49
-0.25
 74
     0
  0
LTYPE
  5
21
330
68
100
AcDbSymbolTableRecord
100
AcDbLinetypeTableRecord
  2
BORDER2
 70
     0
  3
__.__.__.__.__.__.__.__.__.__.__.__.__.__.__.__
 72
    65
 73
     6
 40
0.875
 49
0.25
 74
     0
 49
-0.125
 74
     0
 49
0.25
 74
     0
 49
-0.125
 74
     0
 49
0.0
 74
     0
 49
-0.125
 74
     0
  0
LTYPE
  5
22
330
68
100
AcDbSymbolTableRecord
100
AcDbLinetypeTableRecord
  2
BORDERX2
 70
     0
  3
____  ____  .  ____  ____  .  ____  ____  .  __
 72
    65
 73
     6
 40
3.5
 49
1.0
 74
     0
 49
-0.5
 74
     0
 49
1.0
 74
     0
 49
-0.5
 74
     0
 49
0.0
 74
     0
 49
-0.5
 74
     0
  0
LTYPE
  5
23
330
68
100
AcDbSymbolTableRecord
100
AcDbLinetypeTableRecord
  2
CENTER
 70
     0
  3
____ _ ____ _ ____ _ ____ _ ____ _ ____ _ ____ 
 72
    65
 73
     4
 40
2.0
 49
1.25
 74
     0
 49
-0.25
 74
     0
 49
0.25
 74
     0
 49
-0.25
 74
     0
  0
LTYPE
  5
24
330
68
100
AcDbSymbolTableRecord
100
AcDbLinetypeTableRecord
  2
CENTER2
 70
     0
  3
___ _ ___ _ ___ _ ___ _ ___ _ ___ _ ___ _ ___ _
 72
    65
 73
     4
 40
1.125
 49
0.75
 74
     0
 49
-0.125
 74
     0
 49
0.125
 74
     0
 49
-0.125
 74
     0
  0
LTYPE
  5
25
330
68
100
AcDbSymbolTableRecord
100
AcDbLinetypeTableRecord
  2
CENTERX2
 70
     0
  3
________  __  ________  __  ________  __  _____
 72
    65
 73
     4
 40
4.0
 49
2.5
 74
     0
 49
-0.5
 74
     0
 49
0.5
 74
     0
 49
-0.5
 74
     0
  0
LTYPE
  5
26
330
68
100
AcDbSymbolTableRecord
100
AcDbLinetypeTableRecord
  2
DASHDOT
 70
     0
  3
__ . __ . __ . __ . __ . __ . __ . __ . __ . __
 72
    65
 73
     4
 40
1.0
 49
0.5
 74
     0
 49
-0.25
 74
     0
 49
0.0
 74
     0
 49
-0.25
 74
     0
  0
LTYPE
  5
27
330
68
100
AcDbSymbolTableRecord
100
AcDbLinetypeTableRecord
  2
DASHDOT2
 70
     0
  3
_._._._._._._._._._._._._._._._._._._._._._._._
 72
    65
 73
     4
 40
0.5
 49
0.25
 74
     0
 49
-0.125
 74
     0
 49
0.0
 74
     0
 49
-0.125
 74
     0
  0
LTYPE
  5
28
330
68
100
AcDbSymbolTableRecord
100
AcDbLinetypeTableRecord
  2
DASHDOTX2
 70
     0
  3
____  .  ____  .  ____  .  ____  .  ____  .  __
 72
    65
 73
     4
 40
2.0
 49
1.0
 74
     0
 49
-0.5
 74
     0
 49
0.0
 74
     0
 49
-0.5
 74
     0
  0
LTYPE
  5
29
330
68
100
AcDbSymbolTableRecord
100
AcDbLinetypeTableRecord
  2
DASHED
 70
     0
  3
__ __ __ __ __ __ __ __ __ __ __ __ __ __ __ __
 72
    65
 73
     2
 40
0.75
 49
0.5
 74
     0
 49
-0.25
 74
     0
  0
LTYPE
  5
2A
330
68
100
AcDbSymbolTableRecord
100
AcDbLinetypeTableRecord
  2
DASHED2
 70
     0
  3
_ _ _ _ _ _ _ _ _ _ _ _ _ _ _ _ _ _ _ _ _ _ _ _
 72
    65
 73
     2
 40
0.375
 49
0.25
 74
     0
 49
-0.125
 74
     0
  0
LTYPE
  5
2B
330
68
100
AcDbSymbolTableRecord
100
AcDbLinetypeTableRecord
  2
DASHEDX2
 70
     0
  3
____  ____  ____  ____  ____  ____  ____  ____ 
 72
    65
 73
     2
 40
1.5
 49
1.0
 74
     0
 49
-0.5
 74
     0
  0
LTYPE
  5
2C
330
68
100
AcDbSymbolTableRecord
100
AcDbLinetypeTableRecord
  2
DIVIDE
 70
     0
  3
____ . . ____ . . ____ . . ____ . . ____ . . __
 72
    65
 73
     6
 40
1.25
 49
0.5
 74
     0
 49
-0.25
 74
     0
 49
0.0
 74
     0
 49
-0.25
 74
     0
 49
0.0
 74
     0
 49
-0.25
 74
     0
  0
LTYPE
  5
2D
330
68
100
AcDbSymbolTableRecord
100
AcDbLinetypeTableRecord
  2
DIVIDE2
 70
     0
  3
__..__..__..__..__..__..__..__..__..__..__..__.
 72
    65
 73
     6
 40
0.625
 49
0.25
 74
     0
 49
-0.125
 74
     0
 49
0.0
 74
     0
 49
-0.125
 74
     0
 49
0.0
 74
     0
 49
-0.125
 74
     0
  0
LTYPE
  5
2E
330
68
100
AcDbSymbolTableRecord
100
AcDbLinetypeTableRecord
  2
DIVIDEX2
 70
     0
  3
________  .  .  ________  .  .  ________  .  . 
 72
    65
 73
     6
 40
2.5
 49
1.0
 74
     0
 49
-0.5
 74
     0
 49
0.0
 74
     0
 49
-0.5
 74
     0
 49
0.0
 74
     0
 49
-0.5
 74
     0
  0
LTYPE
  5
2F
330
68
100
AcDbSymbolTableRecord
100
AcDbLinetypeTableRecord
  2
DOT
 70
     0
  3
. . . . . . . . . . . . . . . . . . . . . . . .
 72
    65
 73
     2
 40
0.25
 49
0.0
 74
     0
 49
-0.25
 74
     0
  0
LTYPE
  5
30
330
68
100
AcDbSymbolTableRecord
100
AcDbLinetypeTableRecord
  2
DOT2
 70
     0
  3
...............................................
 72
    65
 73
     2
 40
0.125
 49
0.0
 74
     0
 49
-0.125
 74
     0
  0
LTYPE
  5
31
330
68
100
AcDbSymbolTableRecord
100
AcDbLinetypeTableRecord
  2
DOTX2
 70
     0
  3
.  .  .  .  .  .  .  .  .  .  .  .  .  .  .  . 
 72
    65
 73
     2
 40
0.5
 49
0.0
 74
     0
 49
-0.5
 74
     0
  0
LTYPE
  5
32
330
68
100
AcDbSymbolTableRecord
100
AcDbLinetypeTableRecord
  2
HIDDEN
 70
     0
  3
__ __ __ __ __ __ __ __ __ __ __ __ __ __ __ __
 72
    65
 73
     2
 40
0.375
 49
0.25
 74
     0
 49
-0.125
 74
     0
  0
LTYPE
  5
33
330
68
100
AcDbSymbolTableRecord
100
AcDbLinetypeTableRecord
  2
HIDDEN2
 70
     0
  3
_ _ _ _ _ _ _ _ _ _ _ _ _ _ _ _ _ _ _ _ _ _ _ _
 72
    65
 73
     2
 40
0.1875
 49
0.125
 74
     0
 49
-0.0625
 74
     0
  0
LTYPE
  5
34
330
68
100
AcDbSymbolTableRecord
100
AcDbLinetypeTableRecord
  2
HIDDENX2
 70
     0
  3
____ ____ ____ ____ ____ ____ ____ ____ ____ __
 72
    65
 73
     2
 40
0.75
 49
0.5
 74
     0
 49
-0.25
 74
     0
  0
LTYPE
  5
35
330
68
100
AcDbSymbolTableRecord
100
AcDbLinetypeTableRecord
  2
PHANTOM
 70
     0
  3
______  __  __  ______  __  __  ______  __  __ 
 72
    65
 73
     6
 40
2.5
 49
1.25
 74
     0
 49
-0.25
 74
     0
 49
0.25
 74
     0
 49
-0.25
 74
     0
 49
0.25
 74
     0
 49
-0.25
 74
     0
  0
LTYPE
  5
36
330
68
100
AcDbSymbolTableRecord
100
AcDbLinetypeTableRecord
  2
PHANTOM2
 70
     0
  3
___ _ _ ___ _ _ ___ _ _ ___ _ _ ___ _ _ ___ _ _
 72
    65
 73
     6
 40
1.25
 49
0.625
 74
     0
 49
-0.125
 74
     0
 49
0.125
 74
     0
 49
-0.125
 74
     0
 49
0.125
 74
     0
 49
-0.125
 74
     0
  0
LTYPE
  5
37
330
68
100
AcDbSymbolTableRecord
100
AcDbLinetypeTableRecord
  2
PHANTOMX2
 70
     0
  3
____________    ____    ____    ____________   
 72
    65
 73
     6
 40
5.0
 49
2.5
 74
     0
 49
-0.5
 74
     0
 49
0.5
 74
     0
 49
-0.5
 74
     0
 49
0.5
 74
     0
 49
-0.5
 74
     0
  0
ENDTAB
  0
TABLE
  2
LAYER
  5
67
102
{ACAD_XDICTIONARY
360
B18
102
}
330
0
100
AcDbSymbolTable
 70
     3
  0
LAYER
  5
38
102
{ACAD_XDICTIONARY
360
B0F
102
}
330
67
100
AcDbSymbolTableRecord
100
AcDbLayerTableRecord
  2
0
 70
     0
 62
     7
  6
CONTINUOUS
370
    -3
390
9BA
  0
LAYER
  5
39
102
{ACAD_XDICTIONARY
360
B11
102
}
330
67
100
AcDbSymbolTableRecord
100
AcDbLayerTableRecord
  2
LEVEL001
 70
     0
 62
     7
  6
CONTINUOUS
370
    -3
390
9BA
  0
LAYER
  5
3A
102
{ACAD_XDICTIONARY
360
B13
102
}
330
67
100
AcDbSymbolTableRecord
100
AcDbLayerTableRecord
  2
LEVEL002
 70
     0
 62
     7
  6
CONTINUOUS
370
    -3
390
9BA
  0
ENDTAB
  0
TABLE
  2
STYLE
  5
6
330
0
100
AcDbSymbolTable
 70
     2
  0
STYLE
  5
7
330
6
100
AcDbSymbolTableRecord
100
AcDbTextStyleTableRecord
  2
STANDARD
 70
     0
 40
0.0
 41
0.8
 50
0.0
 71
     0
 42
0.2
  3
TXT.shx
  4
BIGFONT.shx
  0
STYLE
  5
8
330
6
100
AcDbSymbolTableRecord
100
AcDbTextStyleTableRecord
  2
STANDARD1
 70
     4
 40
0.0
 41
1.0
 50
0.0
 71
     0
 42
0.2
  3
TXT
  4
BIGFONT
  0
ENDTAB
  0
TABLE
  2
VIEW
  5
2
330
0
100
AcDbSymbolTable
 70
     0
  0
ENDTAB
  0
TABLE
  2
UCS
  5
3
330
0
100
AcDbSymbolTable
 70
     0
  0
ENDTAB
  0
TABLE
  2
APPID
  5
4
330
0
100
AcDbSymbolTable
 70
     5
  0
APPID
  5
5
330
4
100
AcDbSymbolTableRecord
100
AcDbRegAppTableRecord
  2
ACAD
 70
     0
  0
APPID
  5
A2A
330
4
100
AcDbSymbolTableRecord
100
AcDbRegAppTableRecord
  2
ACAD_NAV_VCDISPLAY
 70
     0
  0
APPID
  5
A74
330
4
100
AcDbSymbolTableRecord
100
AcDbRegAppTableRecord
  2
GradientColor1ACI
 70
     0
  0
APPID
  5
A75
330
4
100
AcDbSymbolTableRecord
100
AcDbRegAppTableRecord
  2
GradientColor2ACI
 70
     0
  0
APPID
  5
BB0
330
4
100
AcDbSymbolTableRecord
100
AcDbRegAppTableRecord
  2
ACAD_MLEADERVER
 70
     0
  0
ENDTAB
  0
TABLE
  2
DIMSTYLE
  5
66
330
0
100
AcDbSymbolTable
 70
     1
100
AcDbDimStyleTable
 71
     0
  0
DIMSTYLE
105
3B
330
66
100
AcDbSymbolTableRecord
100
AcDbDimStyleTableRecord
  2
STANDARD
 70
     0
340
7
  0
ENDTAB
  0
TABLE
  2
BLOCK_RECORD
  5
9
330
0
100
AcDbSymbolTable
 70
    17
  0
BLOCK_RECORD
  5
A
102
{ACAD_XDICTIONARY
360
A2C
102
}
330
9
100
AcDbSymbolTableRecord
100
AcDbBlockTableRecord
  2
*MODEL_SPACE
340
9C1
  0
BLOCK_RECORD
  5
B
330
9
100
AcDbSymbolTableRecord
100
AcDbBlockTableRecord
  2
*PAPER_SPACE
340
9C2
  0
BLOCK_RECORD
  5
C
330
9
100
AcDbSymbolTableRecord
100
AcDbBlockTableRecord
  2
_ARCHTICK
340
0
  0
BLOCK_RECORD
  5
D
330
9
100
AcDbSymbolTableRecord
100
AcDbBlockTableRecord
  2
_OBLIQUE
340
0
  0
BLOCK_RECORD
  5
E
330
9
100
AcDbSymbolTableRecord
100
AcDbBlockTableRecord
  2
_BOXBLANK
340
0
  0
BLOCK_RECORD
  5
F
330
9
100
AcDbSymbolTableRecord
100
AcDbBlockTableRecord
  2
_BOXFILLED
340
0
  0
BLOCK_RECORD
  5
10
330
9
100
AcDbSymbolTableRecord
100
AcDbBlockTableRecord
  2
_CLOSED
340
0
  0
BLOCK_RECORD
  5
11
330
9
100
AcDbSymbolTableRecord
100
AcDbBlockTableRecord
  2
_OPEN
340
0
  0
BLOCK_RECORD
  5
12
330
9
100
AcDbSymbolTableRecord
100
AcDbBlockTableRecord
  2
_OPEN30
340
0
  0
BLOCK_RECORD
  5
13
330
9
100
AcDbSymbolTableRecord
100
AcDbBlockTableRecord
  2
_OPEN90
340
0
  0
BLOCK_RECORD
  5
14
330
9
100
AcDbSymbolTableRecord
100
AcDbBlockTableRecord
  2
_CLOSEDBLANK
340
0
  0
BLOCK_RECORD
  5
15
330
9
100
AcDbSymbolTableRecord
100
AcDbBlockTableRecord
  2
_DOT
340
0
  0
BLOCK_RECORD
  5
16
330
9
100
AcDbSymbolTableRecord
100
AcDbBlockTableRecord
  2
_DOTSMALL
340
0
  0
BLOCK_RECORD
  5
17
330
9
100
AcDbSymbolTableRecord
100
AcDbBlockTableRecord
  2
_DATUMBLANK
340
0
  0
BLOCK_RECORD
  5
18
330
9
100
AcDbSymbolTableRecord
100
AcDbBlockTableRecord
  2
_DATUMFILLED
340
0
  0
BLOCK_RECORD
  5
19
330
9
100
AcDbSymbolTableRecord
100
AcDbBlockTableRecord
  2
_ORIGIN
340
0
  0
BLOCK_RECORD
  5
1A
330
9
100
AcDbSymbolTableRecord
100
AcDbBlockTableRecord
  2
_NONE
340
0
  0
BLOCK_RECORD
  5
1B
330
9
100
AcDbSymbolTableRecord
100
AcDbBlockTableRecord
  2
_DOTBLANK
340
0
  0
BLOCK_RECORD
  5
1C
330
9
100
AcDbSymbolTableRecord
100
AcDbBlockTableRecord
  2
_INTEGRAL
340
0
  0
ENDTAB
  0
ENDSEC
  0
SECTION
  2
BLOCKS
  0
BLOCK
  5
40
330
A
100
AcDbEntity
  8
0
100
AcDbBlockBegin
  2
*MODEL_SPACE
 70
     0
 10
0.0
 20
0.0
 30
0.0
  3
*MODEL_SPACE
  1

  0
ENDBLK
  5
53
330
A
100
AcDbEntity
  8
0
100
AcDbBlockEnd
  0
BLOCK
  5
41
330
B
100
AcDbEntity
 67
     1
  8
0
100
AcDbBlockBegin
  2
*PAPER_SPACE
 70
     0
 10
0.0
 20
0.0
 30
0.0
  3
*PAPER_SPACE
  1

  0
ENDBLK
  5
54
330
B
100
AcDbEntity
 67
     1
  8
0
100
AcDbBlockEnd
  0
BLOCK
  5
42
330
C
100
AcDbEntity
  8
0
100
AcDbBlockBegin
  2
_ARCHTICK
 70
     0
 10
0.0
 20
0.0
 30
0.0
  3
_ARCHTICK
  1

  0
LWPOLYLINE
  5
75
330
C
100
AcDbEntity
  8
0
  6
ByBlock
 62
     0
380
     1
100
AcDbPolyline
 90
        2
 70
     1
 43
0.15
 10
-0.5
 20
-0.5
 10
0.5
 20
0.5
  0
ENDBLK
  5
55
330
C
100
AcDbEntity
  8
0
100
AcDbBlockEnd
  0
BLOCK
  5
43
330
D
100
AcDbEntity
  8
0
100
AcDbBlockBegin
  2
_OBLIQUE
 70
     0
 10
0.0
 20
0.0
 30
0.0
  3
_OBLIQUE
  1

  0
LINE
  5
79
330
D
100
AcDbEntity
  8
0
  6
ByBlock
 62
     0
380
     1
100
AcDbLine
 10
-0.5
 20
-0.5
 30
0.0
 11
0.5
 21
0.5
 31
0.0
  0
ENDBLK
  5
61
330
D
100
AcDbEntity
  8
0
100
AcDbBlockEnd
  0
BLOCK
  5
44
330
E
100
AcDbEntity
  8
0
100
AcDbBlockBegin
  2
_BOXBLANK
 70
     0
 10
0.0
 20
0.0
 30
0.0
  3
_BOXBLANK
  1

  0
LINE
  5
7A
330
E
100
AcDbEntity
  8
0
  6
ByBlock
 62
     0
380
     1
100
AcDbLine
 10
-0.5
 20
-0.5
 30
0.0
 11
0.5
 21
-0.5
 31
0.0
  0
LINE
  5
7B
330
E
100
AcDbEntity
  8
0
  6
ByBlock
 62
     0
380
     1
100
AcDbLine
 10
0.5
 20
-0.5
 30
0.0
 11
0.5
 21
0.5
 31
0.0
  0
LINE
  5
7C
330
E
100
AcDbEntity
  8
0
  6
ByBlock
 62
     0
380
     1
100
AcDbLine
 10
0.5
 20
0.5
 30
0.0
 11
-0.5
 21
0.5
 31
0.0
  0
LINE
  5
7D
330
E
100
AcDbEntity
  8
0
  6
ByBlock
 62
     0
380
     1
100
AcDbLine
 10
-0.5
 20
0.5
 30
0.0
 11
-0.5
 21
-0.5
 31
0.0
  0
LINE
  5
7E
330
E
100
AcDbEntity
  8
0
  6
ByBlock
 62
     0
380
     1
100
AcDbLine
 10
-0.5
 20
0.0
 30
0.0
 11
-1.0
 21
0.0
 31
0.0
  0
ENDBLK
  5
56
330
E
100
AcDbEntity
  8
0
100
AcDbBlockEnd
  0
BLOCK
  5
45
330
F
100
AcDbEntity
  8
0
100
AcDbBlockBegin
  2
_BOXFILLED
 70
     0
 10
0.0
 20
0.0
 30
0.0
  3
_BOXFILLED
  1

  0
SOLID
  5
7F
330
F
100
AcDbEntity
  8
0
  6
ByBlock
 62
     0
380
     1
100
AcDbTrace
 10
-0.5
 20
0.5
 30
0.0
 11
0.5
 21
0.5
 31
0.0
 12
-0.5
 22
-0.5
 32
0.0
 13
0.5
 23
-0.5
 33
0.0
  0
LINE
  5
80
330
F
100
AcDbEntity
  8
0
  6
ByBlock
 62
     0
380
     1
100
AcDbLine
 10
-0.5
 20
0.0
 30
0.0
 11
-1.0
 21
0.0
 31
0.0
  0
ENDBLK
  5
57
330
F
100
AcDbEntity
  8
0
100
AcDbBlockEnd
  0
BLOCK
  5
46
330
10
100
AcDbEntity
  8
0
100
AcDbBlockBegin
  2
_CLOSED
 70
     0
 10
0.0
 20
0.0
 30
0.0
  3
_CLOSED
  1

  0
LINE
  5
81
330
10
100
AcDbEntity
  8
0
  6
ByBlock
 62
     0
380
     1
100
AcDbLine
 10
-1.0
 20
0.16666666666667
 30
0.0
 11
0.0
 21
0.0
 31
0.0
  0
LINE
  5
82
330
10
100
AcDbEntity
  8
0
  6
ByBlock
 62
     0
380
     1
100
AcDbLine
 10
0.0
 20
0.0
 30
0.0
 11
-1.0
 21
-0.16666666666667
 31
0.0
  0
LINE
  5
83
330
10
100
AcDbEntity
  8
0
  6
ByBlock
 62
     0
380
     1
100
AcDbLine
 10
-1.0
 20
0.16666666666667
 30
0.0
 11
-1.0
 21
-0.16666666666667
 31
0.0
  0
LINE
  5
84
330
10
100
AcDbEntity
  8
0
  6
ByBlock
 62
     0
380
     1
100
AcDbLine
 10
0.0
 20
0.0
 30
0.0
 11
-1.0
 21
0.0
 31
0.0
  0
ENDBLK
  5
58
330
10
100
AcDbEntity
  8
0
100
AcDbBlockEnd
  0
BLOCK
  5
47
330
11
100
AcDbEntity
  8
0
100
AcDbBlockBegin
  2
_OPEN
 70
     0
 10
0.0
 20
0.0
 30
0.0
  3
_OPEN
  1

  0
LINE
  5
85
330
11
100
AcDbEntity
  8
0
  6
ByBlock
 62
     0
380
     1
100
AcDbLine
 10
-1.0
 20
0.16666666666667
 30
0.0
 11
0.0
 21
0.0
 31
0.0
  0
LINE
  5
86
330
11
100
AcDbEntity
  8
0
  6
ByBlock
 62
     0
380
     1
100
AcDbLine
 10
0.0
 20
0.0
 30
0.0
 11
-1.0
 21
-0.16666666666667
 31
0.0
  0
LINE
  5
87
330
11
100
AcDbEntity
  8
0
  6
ByBlock
 62
     0
380
     1
100
AcDbLine
 10
0.0
 20
0.0
 30
0.0
 11
-1.0
 21
0.0
 31
0.0
  0
ENDBLK
  5
62
330
11
100
AcDbEntity
  8
0
100
AcDbBlockEnd
  0
BLOCK
  5
48
330
12
100
AcDbEntity
  8
0
100
AcDbBlockBegin
  2
_OPEN30
 70
     0
 10
0.0
 20
0.0
 30
0.0
  3
_OPEN30
  1

  0
LINE
  5
88
330
12
100
AcDbEntity
  8
0
  6
ByBlock
 62
     0
380
     1
100
AcDbLine
 10
-1.0
 20
0.2679491924311
 30
0.0
 11
0.0
 21
0.0
 31
0.0
  0
LINE
  5
89
330
12
100
AcDbEntity
  8
0
  6
ByBlock
 62
     0
380
     1
100
AcDbLine
 10
0.0
 20
0.0
 30
0.0
 11
-1.0
 21
-0.2679491924311
 31
0.0
  0
LINE
  5
8A
330
12
100
AcDbEntity
  8
0
  6
ByBlock
 62
     0
380
     1
100
AcDbLine
 10
0.0
 20
0.0
 30
0.0
 11
-1.0
 21
0.0
 31
0.0
  0
ENDBLK
  5
63
330
12
100
AcDbEntity
  8
0
100
AcDbBlockEnd
  0
BLOCK
  5
49
330
13
100
AcDbEntity
  8
0
100
AcDbBlockBegin
  2
_OPEN90
 70
     0
 10
0.0
 20
0.0
 30
0.0
  3
_OPEN90
  1

  0
LINE
  5
8B
330
13
100
AcDbEntity
  8
0
  6
ByBlock
 62
     0
380
     1
100
AcDbLine
 10
-0.5
 20
0.5
 30
0.0
 11
0.0
 21
0.0
 31
0.0
  0
LINE
  5
8C
330
13
100
AcDbEntity
  8
0
  6
ByBlock
 62
     0
380
     1
100
AcDbLine
 10
0.0
 20
0.0
 30
0.0
 11
-0.5
 21
-0.5
 31
0.0
  0
LINE
  5
8D
330
13
100
AcDbEntity
  8
0
  6
ByBlock
 62
     0
380
     1
100
AcDbLine
 10
0.0
 20
0.0
 30
0.0
 11
-1.0
 21
0.0
 31
0.0
  0
ENDBLK
  5
64
330
13
100
AcDbEntity
  8
0
100
AcDbBlockEnd
  0
BLOCK
  5
4A
330
14
100
AcDbEntity
  8
0
100
AcDbBlockBegin
  2
_CLOSEDBLANK
 70
     0
 10
0.0
 20
0.0
 30
0.0
  3
_CLOSEDBLANK
  1

  0
LINE
  5
8E
330
14
100
AcDbEntity
  8
0
  6
ByBlock
 62
     0
380
     1
100
AcDbLine
 10
-1.0
 20
0.16666666666667
 30
0.0
 11
0.0
 21
0.0
 31
0.0
  0
LINE
  5
8F
330
14
100
AcDbEntity
  8
0
  6
ByBlock
 62
     0
380
     1
100
AcDbLine
 10
0.0
 20
0.0
 30
0.0
 11
-1.0
 21
-0.16666666666667
 31
0.0
  0
LINE
  5
90
330
14
100
AcDbEntity
  8
0
  6
ByBlock
 62
     0
380
     1
100
AcDbLine
 10
-1.0
 20
0.16666666666667
 30
0.0
 11
-1.0
 21
-0.16666666666667
 31
0.0
  0
ENDBLK
  5
59
330
14
100
AcDbEntity
  8
0
100
AcDbBlockEnd
  0
BLOCK
  5
4B
330
15
100
AcDbEntity
  8
0
100
AcDbBlockBegin
  2
_DOT
 70
     0
 10
0.0
 20
0.0
 30
0.0
  3
_DOT
  1

  0
LWPOLYLINE
  5
91
330
15
100
AcDbEntity
  8
0
  6
ByBlock
 62
     0
380
     1
100
AcDbPolyline
 90
        2
 70
     1
 43
0.5
 10
-0.25
 20
0.0
 42
1.0
 10
0.25
 20
0.0
 42
1.0
  0
LINE
  5
95
330
15
100
AcDbEntity
  8
0
  6
ByBlock
 62
     0
380
     1
100
AcDbLine
 10
-0.5
 20
0.0
 30
0.0
 11
-1.0
 21
0.0
 31
0.0
  0
ENDBLK
  5
5C
330
15
100
AcDbEntity
  8
0
100
AcDbBlockEnd
  0
BLOCK
  5
4C
330
16
100
AcDbEntity
  8
0
100
AcDbBlockBegin
  2
_DOTSMALL
 70
     0
 10
0.0
 20
0.0
 30
0.0
  3
_DOTSMALL
  1

  0
LWPOLYLINE
  5
96
330
16
100
AcDbEntity
  8
0
  6
ByBlock
 62
     0
380
     1
100
AcDbPolyline
 90
        2
 70
     1
 43
0.5
 10
-0.0625
 20
0.0
 42
1.0
 10
0.0625
 20
0.0
 42
1.0
  0
ENDBLK
  5
5E
330
16
100
AcDbEntity
  8
0
100
AcDbBlockEnd
  0
BLOCK
  5
4D
330
17
100
AcDbEntity
  8
0
100
AcDbBlockBegin
  2
_DATUMBLANK
 70
     0
 10
0.0
 20
0.0
 30
0.0
  3
_DATUMBLANK
  1

  0
LINE
  5
9A
330
17
100
AcDbEntity
  8
0
  6
ByBlock
 62
     0
380
     1
100
AcDbLine
 10
0.0
 20
0.5773502700000001
 30
0.0
 11
-1.0
 21
0.0
 31
0.0
  0
LINE
  5
9B
330
17
100
AcDbEntity
  8
0
  6
ByBlock
 62
     0
380
     1
100
AcDbLine
 10
-1.0
 20
0.0
 30
0.0
 11
0.0
 21
-0.5773502700000001
 31
0.0
  0
LINE
  5
9C
330
17
100
AcDbEntity
  8
0
  6
ByBlock
 62
     0
380
     1
100
AcDbLine
 10
0.0
 20
-0.5773502700000001
 30
0.0
 11
0.0
 21
0.5773502700000001
 31
0.0
  0
ENDBLK
  5
5A
330
17
100
AcDbEntity
  8
0
100
AcDbBlockEnd
  0
BLOCK
  5
4E
330
18
100
AcDbEntity
  8
0
100
AcDbBlockBegin
  2
_DATUMFILLED
 70
     0
 10
0.0
 20
0.0
 30
0.0
  3
_DATUMFILLED
  1

  0
SOLID
  5
9D
330
18
100
AcDbEntity
  8
0
  6
ByBlock
 62
     0
380
     1
100
AcDbTrace
 10
0.0
 20
0.5773502700000001
 30
0.0
 11
-1.0
 21
0.0
 31
0.0
 12
0.0
 22
-0.5773502700000001
 32
0.0
 13
0.0
 23
-0.5773502700000001
 33
0.0
  0
ENDBLK
  5
5B
330
18
100
AcDbEntity
  8
0
100
AcDbBlockEnd
  0
BLOCK
  5
4F
330
19
100
AcDbEntity
  8
0
100
AcDbBlockBegin
  2
_ORIGIN
 70
     0
 10
0.0
 20
0.0
 30
0.0
  3
_ORIGIN
  1

  0
CIRCLE
  5
9E
330
19
100
AcDbEntity
  8
0
  6
ByBlock
 62
     0
380
     1
100
AcDbCircle
 10
0.0
 20
0.0
 30
0.0
 40
0.5
  0
LINE
  5
9F
330
19
100
AcDbEntity
  8
0
  6
ByBlock
 62
     0
380
     1
100
AcDbLine
 10
0.0
 20
0.0
 30
0.0
 11
-1.0
 21
0.0
 31
0.0
  0
ENDBLK
  5
65
330
19
100
AcDbEntity
  8
0
100
AcDbBlockEnd
  0
BLOCK
  5
50
330
1A
100
AcDbEntity
  8
0
100
AcDbBlockBegin
  2
_NONE
 70
     0
 10
0.0
 20
0.0
 30
0.0
  3
_NONE
  1

  0
CIRCLE
  5
A0
330
1A
100
AcDbEntity
  8
0
  6
ByBlock
 62
     0
380
     1
100
AcDbCircle
 10
0.0
 20
0.0
 30
0.0
 40
0.25
  0
ENDBLK
  5
60
330
1A
100
AcDbEntity
  8
0
100
AcDbBlockEnd
  0
BLOCK
  5
51
330
1B
100
AcDbEntity
  8
0
100
AcDbBlockBegin
  2
_DOTBLANK
 70
     0
 10
0.0
 20
0.0
 30
0.0
  3
_DOTBLANK
  1

  0
CIRCLE
  5
A1
330
1B
100
AcDbEntity
  8
0
  6
ByBlock
 62
     0
380
     1
100
AcDbCircle
 10
0.0
 20
0.0
 30
0.0
 40
0.5
  0
LINE
  5
A2
330
1B
100
AcDbEntity
  8
0
  6
ByBlock
 62
     0
380
     1
100
AcDbLine
 10
-0.5
 20
0.0
 30
0.0
 11
-1.0
 21
0.0
 31
0.0
  0
ENDBLK
  5
5D
330
1B
100
AcDbEntity
  8
0
100
AcDbBlockEnd
  0
BLOCK
  5
52
330
1C
100
AcDbEntity
  8
0
100
AcDbBlockBegin
  2
_INTEGRAL
 70
     0
 10
0.0
 20
0.0
 30
0.0
  3
_INTEGRAL
  1

  0
ARC
  5
A3
330
1C
100
AcDbEntity
  8
0
  6
ByBlock
 62
     0
380
     1
100
AcDbCircle
 10
0.444888
 20
-0.091335
 30
0.0
 40
0.454167
100
AcDbArc
 50
102.0
 51
168.0
  0
ARC
  5
A4
330
1C
100
AcDbEntity
  8
0
  6
ByBlock
 62
     0
380
     1
100
AcDbCircle
 10
-0.444888
 20
0.091335
 30
0.0
 40
0.454167
100
AcDbArc
 50
282.0
 51
348.0
  0
ENDBLK
  5
5F
330
1C
100
AcDbEntity
  8
0
100
AcDbBlockEnd
  0
ENDSEC
  0
SECTION
  2
ENTITIES
  0
TEXT
  5
2AA
330
A
100
AcDbEntity
  8
LEVEL001
 62
     8
100
AcDbText
 10
314.50000000003
 20
192.75
 30
0.0
 40
3.0
  1
              
 41
0.5
100
AcDbText
  0
TEXT
  5
2B2
330
A
100
AcDbEntity
  8
LEVEL001
 62
     8
100
AcDbText
 10
314.50000000003
 20
160.75
 30
0.0
 40
3.0
  1

 41
0.5
100
AcDbText
  0
TEXT
  5
2B9
330
A
100
AcDbEntity
  8
LEVEL001
 62
     8
100
AcDbText
 10
314.50000000003
 20
489.7499999999999
 30
0.0
 40
3.0
  1
              
 41
0.5
100
AcDbText
  0
TEXT
  5
2C0
330
A
100
AcDbEntity
  8
LEVEL001
 62
     8
100
AcDbText
 10
314.50000000003
 20
461.7499999999999
 30
0.0
 40
3.0
  1
　　　　　
100
AcDbText
  0
TEXT
  5
2C1
330
A
100
AcDbEntity
  8
LEVEL001
 62
     8
100
AcDbText
 10
314.50000000003
 20
457.7499999999999
 30
0.0
 40
3.0
  1

 41
0.5
100
AcDbText
  0
TEXT
  5
341
330
A
100
AcDbEntity
  8
LEVEL001
 62
     7
100
AcDbText
 10
326.40000000003
 20
16.375
 30
0.0
 40
3.75
  1
Ａ３
 41
0.8
 72
     1
 11
329.50000000003
 21
18.25
 31
0.0
100
AcDbText
 73
     2
  0
TEXT
  5
342
330
A
100
AcDbEntity
  8
LEVEL001
 62
     7
100
AcDbText
 10
371.85508456083
 20
40.49999999999999
 30
0.0
 40
3.0
  1
平成　　年　　月　　日
 41
0.8
 72
     1
 11
387.21508456083
 21
42.0
 31
0.0
100
AcDbText
 73
     2
  0
TEXT
  5
343
330
A
100
AcDbEntity
  8
LEVEL001
 62
     7
100
AcDbText
 10
371.85508456083
 20
33.83333333333997
 30
0.0
 40
3.0
  1
平成　　年　　月　　日
 41
0.8
 72
     1
 11
387.21508456083
 21
35.33333333333997
 31
0.0
100
AcDbText
 73
     2
  0
LWPOLYLINE
  5
344
330
A
100
AcDbEntity
  8
LEVEL001
  6
Continuous
 62
     3
370
    40
100
AcDbPolyline
 90
        5
 70
     0
 43
0.0
 10
15.500000000027
 20
12.0
 10
404.50000000003
 20
12.0
 10
404.50000000003
 20
285.0
 10
15.500000000027
 20
285.0
 10
15.500000000027
 20
12.0
  0
LINE
  5
34B
330
A
100
AcDbEntity
  8
LEVEL001
  6
Continuous
 62
     3
370
    40
100
AcDbLine
 10
304.50000000003
 20
285.0
 30
0.0
 11
304.50000000003
 21
12.0
 31
0.0
  0
LINE
  5
3E8
330
A
100
AcDbEntity
  8
LEVEL001
  6
Continuous
 62
     3
100
AcDbLine
 10
304.50000000003
 20
256.75
 30
0.0
 11
404.50000000003
 21
256.75
 31
0.0
  0
LINE
  5
3E9
330
A
100
AcDbEntity
  8
LEVEL001
  6
Continuous
 62
     3
100
AcDbLine
 10
304.50000000003
 20
236.75
 30
0.0
 11
404.50000000003
 21
236.75
 31
0.0
  0
LINE
  5
3EA
330
A
100
AcDbEntity
  8
LEVEL001
  6
Continuous
 62
     3
100
AcDbLine
 10
304.50000000003
 20
216.75
 30
0.0
 11
404.50000000003
 21
216.75
 31
0.0
  0
TEXT
  5
3EB
330
A
100
AcDbEntity
  8
LEVEL001
 62
     3
100
AcDbText
 10
305.84000000003
 20
251.5
 30
0.0
 40
3.0
  1
商品名：
 41
0.8
 72
     1
 11
310.80000000003
 21
253.0
 31
0.0
100
AcDbText
 73
     2
  0
TEXT
  5
3EC
330
A
100
AcDbEntity
  8
LEVEL001
 62
     3
100
AcDbText
 10
305.78000000003
 20
231.5
 30
0.0
 40
3.0
  1
形式：
 41
0.8
 72
     1
 11
309.30000000003
 21
233.0
 31
0.0
100
AcDbText
 73
     2
  0
TEXT
  5
3ED
330
A
100
AcDbEntity
  8
LEVEL001
 62
     3
100
AcDbText
 10
305.78000000003
 20
211.5
 30
0.0
 40
3.0
  1
仕様：
 41
0.8
 72
     1
 11
309.30000000003
 21
213.0
 31
0.0
100
AcDbText
 73
     2
  0
LINE
  5
3EE
330
A
100
AcDbEntity
  8
LEVEL001
  6
Continuous
 62
     3
100
AcDbLine
 10
304.50000000003
 20
72.0
 30
0.0
 11
404.50000000003
 21
72.0
 31
0.0
  0
TEXT
  5
3EF
330
A
100
AcDbEntity
  8
LEVEL001
 62
     3
100
AcDbText
 10
305.82000000003
 20
66.75
 30
0.0
 40
3.0
  1
図面名称：
 41
0.8
 72
     1
 11
312.30000000003
 21
68.25
 31
0.0
100
AcDbText
 73
     2
  0
LINE
  5
3F0
330
A
100
AcDbEntity
  8
LEVEL001
  6
Continuous
 62
     3
100
AcDbLine
 10
304.50000000003
 20
52.0
 30
0.0
 11
404.50000000003
 21
52.0
 31
0.0
  0
TEXT
  5
3F1
330
A
100
AcDbEntity
  8
LEVEL001
 62
     3
100
AcDbText
 10
305.78000000003
 20
46.74999999999999
 30
0.0
 40
3.0
  1
縮尺：
 41
0.8
 72
     1
 11
309.30000000003
 21
48.25
 31
0.0
100
AcDbText
 73
     2
  0
LINE
  5
3F2
330
A
100
AcDbEntity
  8
LEVEL001
  6
Continuous
 62
     3
100
AcDbLine
 10
304.50000000003
 20
32.0
 30
0.0
 11
404.50000000003
 21
32.0
 31
0.0
  0
TEXT
  5
3F3
330
A
100
AcDbEntity
  8
LEVEL001
 62
     3
100
AcDbText
 10
305.9600000000301
 20
27.22153522863005
 30
0.0
 40
3.0
  1
用紙サイズ：
 41
0.8
 72
     1
 11
313.80000000003
 21
28.72153522863005
 31
0.0
100
AcDbText
 73
     2
  0
TEXT
  5
3F4
330
A
100
AcDbEntity
  8
LEVEL001
 62
     3
100
AcDbText
 10
356.3266666666967
 20
47.26666666667004
 30
0.0
 40
2.799999999999999
  1
作成日付：
 41
0.8
 72
     1
 11
362.30000000003
 21
48.66666666667004
 31
0.0
100
AcDbText
 73
     2
  0
TEXT
  5
3F5
330
A
100
AcDbEntity
  8
LEVEL001
 62
     3
100
AcDbText
 10
356.3266666666967
 20
40.6
 30
0.0
 40
2.799999999999999
  1
変更日付：
 41
0.8
 72
     1
 11
362.30000000003
 21
42.0
 31
0.0
100
AcDbText
 73
     2
  0
LINE
  5
3F6
330
A
100
AcDbEntity
  8
LEVEL001
  6
Continuous
 62
     3
100
AcDbLine
 10
354.50000000003
 20
45.33333333333996
 30
0.0
 11
404.50000000003
 21
45.33333333333996
 31
0.0
  0
TEXT
  5
3F7
330
A
100
AcDbEntity
  8
LEVEL001
 62
     3
100
AcDbText
 10
355.88000000003
 20
26.75
 30
0.0
 40
3.0
  1
ファイル名：
 41
0.8
 72
     1
 11
363.80000000003
 21
28.25
 31
0.0
100
AcDbText
 73
     2
  0
LINE
  5
3F8
330
A
100
AcDbEntity
  8
LEVEL001
  6
Continuous
 62
     3
100
AcDbLine
 10
354.50000000003
 20
52.0
 30
0.0
 11
354.50000000003
 21
12.0
 31
0.0
  0
LINE
  5
3F9
330
A
100
AcDbEntity
  8
LEVEL001
  6
Continuous
 62
     3
100
AcDbLine
 10
354.50000000003
 20
38.66666666667004
 30
0.0
 11
404.50000000003
 21
38.66666666667004
 31
0.0
  0
TEXT
  5
3FA
330
A
100
AcDbEntity
  8
LEVEL001
 62
     7
100
AcDbText
 10
321.30000000003
 20
36.375
 30
0.0
 40
3.75
  1
Ｓ＝１：１　
 41
0.8
 72
     1
 11
329.50000000003
 21
38.25
 31
0.0
100
AcDbText
 73
     2
  0
LWPOLYLINE
  5
3FB
330
A
100
AcDbEntity
  8
0
  6
DOT
 62
     3
100
AcDbPolyline
 90
        5
 70
     0
 43
0.0
 10
0.0
 20
0.0
 10
420.0
 20
0.0
 10
420.0
 20
297.0
 10
0.0
 20
297.0
 10
0.0
 20
0.0
  0
TEXT
  5
402
330
A
100
AcDbEntity
  8
LEVEL001
 62
     8
100
AcDbText
 10
310.22087571478
 20
73.71475621829995
 30
0.0
 40
4.0
  1
※本製品は予告無しに変更する事があります。
 41
0.8
 72
     1
 11
349.26087571478
 21
75.71475621829995
 31
0.0
100
AcDbText
 73
     2
  0
TEXT
  5
403
330
A
100
AcDbEntity
  8
LEVEL001
 62
     7
100
AcDbText
 10
343.40000000003
 20
56.375
 30
0.0
 40
3.75
  1
平面図･断面図
 41
0.8
 72
     1
 11
354.50000000003
 21
58.25
 31
0.0
100
AcDbText
 73
     2
  0
TEXT
  5
404
330
A
100
AcDbEntity
  8
LEVEL001
 62
     8
100
AcDbText
 10
320.33487664471
 20
240.45460526316
 30
0.0
 40
4.5
  1
コーナープロテクター(硬質タイプ)
 41
0.8
 72
     1
 11
354.77487664471
 21
242.70460526316
 31
0.0
100
AcDbText
 73
     2
  0
TEXT
  5
405
330
A
100
AcDbEntity
  8
LEVEL001
 62
     7
100
AcDbText
 10
371.85508456083
 20
47.16666666667004
 30
0.0
 40
3.0
  1
平成２６年１０月３１日
 41
0.8
 72
     1
 11
387.21508456083
 21
48.66666666667004
 31
0.0
100
AcDbText
 73
     2
  0
TEXT
  5
406
330
A
100
AcDbEntity
  8
LEVEL001
 62
     7
100
AcDbText
 10
370.90000000003
 20
16.375
 30
0.0
 40
3.75
  1
ＣＰＶ－３
 41
0.8
 72
     1
 11
379.50000000003
 21
18.25
 31
0.0
100
AcDbText
 73
     2
  0
TEXT
  5
407
330
A
100
AcDbEntity
  8
LEVEL001
 62
     8
100
AcDbText
 10
314.50000000003
 20
204.75
 30
0.0
 40
3.0
  1
●ＣＰＶ７５
 41
0.8
100
AcDbText
  0
TEXT
  5
408
330
A
100
AcDbEntity
  8
LEVEL001
 62
     8
100
AcDbText
 10
314.50000000003
 20
200.75
 30
0.0
 40
3.0
  1
　材質：本体－特殊樹脂
 41
0.8
100
AcDbText
  0
TEXT
  5
409
330
A
100
AcDbEntity
  8
LEVEL001
 62
     8
100
AcDbText
 10
314.50000000003
 20
196.75
 30
0.0
 40
3.0
  1
　　　　芯材－アルミ
 41
0.8
100
AcDbText
  0
TEXT
  5
40A
330
A
100
AcDbEntity
  8
LEVEL001
 62
     8
100
AcDbText
 10
314.50000000003
 20
786.75
 30
0.0
 40
3.0
  1
              
 41
0.5
100
AcDbText
  0
TEXT
  5
40B
330
A
100
AcDbEntity
  8
LEVEL001
 62
     8
100
AcDbText
 10
314.50000000003
 20
188.75
 30
0.0
 40
3.0
  1
　長さ：３０００m/m：(標準色３色)
 41
0.8
100
AcDbText
  0
TEXT
  5
40C
330
A
100
AcDbEntity
  8
LEVEL001
 62
     8
100
AcDbText
 10
314.50000000003
 20
184.75
 30
0.0
 40
3.0
  1
　　　　標準色
 41
0.8
100
AcDbText
  0
TEXT
  5
40D
330
A
100
AcDbEntity
  8
LEVEL001
 62
     8
100
AcDbText
 10
314.50000000003
 20
180.75
 30
0.0
 40
3.0
  1
　　　　　Ｐ０１－パールグレイ　　　　　(白鼠)　
 41
0.8
100
AcDbText
  0
TEXT
  5
40E
330
A
100
AcDbEntity
  8
LEVEL001
 62
     8
100
AcDbText
 10
314.50000000003
 20
176.75
 30
0.0
 40
3.0
  1
        　Ｐ０６－アイボリー　　　　　　(白茶)
 41
0.8
100
AcDbText
  0
TEXT
  5
40F
330
A
100
AcDbEntity
  8
LEVEL001
 62
     8
100
AcDbText
 10
314.50000000003
 20
172.75
 30
0.0
 40
3.0
  1
　　　　木目色　　　　
 41
0.8
100
AcDbText
  0
TEXT
  5
410
330
A
100
AcDbEntity
  8
LEVEL001
 62
     8
100
AcDbText
 10
314.50000000003
 20
168.75
 30
0.0
 40
3.0
  1
　　　　　Ｍ６６－ミディアムオーク　　　
 41
0.8
100
AcDbText
  0
TEXT
  5
411
330
A
100
AcDbEntity
  8
LEVEL001
 62
     8
100
AcDbText
 10
314.50000000003
 20
758.75
 30
0.0
 40
3.0
  1
　　　　　
100
AcDbText
  0
TEXT
  5
412
330
A
100
AcDbEntity
  8
LEVEL001
 62
     8
100
AcDbText
 10
314.50000000003
 20
754.75
 30
0.0
 40
3.0
  1

 41
0.5
100
AcDbText
  0
TEXT
  5
413
330
A
100
AcDbEntity
  8
LEVEL001
 62
     8
100
AcDbText
 10
314.50000000003
 20
156.75
 30
0.0
 40
3.0
  1
●ＣＰ７５(キャップ)
 41
0.8
100
AcDbText
  0
TEXT
  5
414
330
A
100
AcDbEntity
  8
LEVEL001
 62
     8
100
AcDbText
 10
314.50000000003
 20
152.75
 30
0.0
 40
3.0
  1
　材質：特殊樹脂
 41
0.8
100
AcDbText
  0
TEXT
  5
415
330
A
100
AcDbEntity
  8
LEVEL001
 62
     8
100
AcDbText
 10
314.50000000003
 20
148.75
 30
0.0
 40
3.0
  1
　適応：ＣＰＶ７５用
 41
0.8
100
AcDbText
  0
TEXT
  5
416
330
A
100
AcDbEntity
  8
LEVEL001
 62
     8
100
AcDbText
 10
341.2466666666967
 20
223.5833333333399
 30
0.0
 40
3.5
  1
ＣＰＶ７５タイプ
 41
0.8
 72
     1
 11
354.50000000003
 21
225.33333333334
 31
0.0
100
AcDbText
 73
     2
  0
LWPOLYLINE
  5
600
330
A
100
AcDbEntity
  8
LEVEL001
  6
Continuous
 62
     7
370
    25
100
AcDbPolyline
 90
        5
 70
     0
 43
0.0
 10
85.182895206537
 20
146.51672017165
 10
85.182895206537
 20
108.65005350505
 10
285.18289520654
 20
108.65005350505
 10
285.18289520654
 20
146.51672017165
 10
85.182895206537
 20
146.51672017165
  0
LINE
  5
607
330
A
100
AcDbEntity
  8
LEVEL001
  6
Continuous
 62
     7
100
AcDbLine
 10
85.182895206537
 20
111.0500535050499
 30
0.0
 11
285.18289520654
 21
111.0500535050499
 31
0.0
  0
LINE
  5
608
330
A
100
AcDbEntity
  8
LEVEL001
  6
Continuous
 62
     7
100
AcDbLine
 10
85.182895206537
 20
137.0264649002399
 30
0.0
 11
285.18289520654
 21
137.0264649002399
 31
0.0
  0
LINE
  5
609
330
A
100
AcDbEntity
  8
LEVEL001
  6
Continuous
 62
     7
100
AcDbLine
 10
85.182895206537
 20
141.1833868383199
 30
0.0
 11
285.18289520654
 21
141.1833868383199
 31
0.0
  0
CIRCLE
  5
60A
330
A
100
AcDbEntity
  8
LEVEL001
  6
Continuous
 62
     1
100
AcDbCircle
 10
95.182895206537
 20
133.9833868384699
 30
0.0
 40
1.066666666666699
  0
LINE
  5
60C
330
A
100
AcDbEntity
  8
LEVEL001
  6
Continuous
 62
     7
100
AcDbLine
 10
85.182895206537
 20
134.1433868384699
 30
0.0
 11
94.12829681009499
 21
134.1433868384699
 31
0.0
  0
LINE
  5
60D
330
A
100
AcDbEntity
  8
LEVEL001
  6
Continuous
 62
     7
100
AcDbLine
 10
85.182895206537
 20
133.9833868384699
 30
0.0
 11
94.11622853986999
 21
133.9833868384699
 31
0.0
  0
LINE
  5
60E
330
A
100
AcDbEntity
  8
LEVEL001
  6
Continuous
 62
     7
100
AcDbLine
 10
85.182895206537
 20
133.82338683847
 30
0.0
 11
94.12829681009499
 21
133.82338683847
 31
0.0
  0
CIRCLE
  5
610
330
A
100
AcDbEntity
  8
LEVEL001
  6
Continuous
 62
     1
100
AcDbCircle
 10
121.8495618732
 20
133.9833868384699
 30
0.0
 40
1.066666666666699
  0
CIRCLE
  5
612
330
A
100
AcDbEntity
  8
LEVEL001
  6
Continuous
 62
     1
100
AcDbCircle
 10
148.51622853987
 20
133.9833868384699
 30
0.0
 40
1.066666666666699
  0
CIRCLE
  5
614
330
A
100
AcDbEntity
  8
LEVEL001
  6
Continuous
 62
     1
100
AcDbCircle
 10
175.18289520654
 20
133.9833868384699
 30
0.0
 40
1.066666666666699
  0
CIRCLE
  5
616
330
A
100
AcDbEntity
  8
LEVEL001
  6
Continuous
 62
     1
100
AcDbCircle
 10
201.8495618732
 20
133.9833868384699
 30
0.0
 40
1.066666666666699
  0
CIRCLE
  5
618
330
A
100
AcDbEntity
  8
LEVEL001
  6
Continuous
 62
     1
100
AcDbCircle
 10
228.51622853987
 20
133.9833868384699
 30
0.0
 40
1.066666666666699
  0
CIRCLE
  5
61A
330
A
100
AcDbEntity
  8
LEVEL001
  6
Continuous
 62
     1
100
AcDbCircle
 10
255.18289520654
 20
133.9833868384699
 30
0.0
 40
1.066666666666699
  0
CIRCLE
  5
61C
330
A
100
AcDbEntity
  8
LEVEL001
  6
Continuous
 62
     1
100
AcDbCircle
 10
281.8495618732
 20
133.9833868384699
 30
0.0
 40
1.066666666666699
  0
LINE
  5
61D
330
A
100
AcDbEntity
  8
LEVEL001
  6
Continuous
 62
     7
100
AcDbLine
 10
282.91622853987
 20
133.9833868384699
 30
0.0
 11
285.18289520654
 21
133.9833868384699
 31
0.0
  0
LINE
  5
61E
330
A
100
AcDbEntity
  8
LEVEL001
  6
Continuous
 62
     7
100
AcDbLine
 10
282.90416026965
 20
134.1433868384699
 30
0.0
 11
285.18289520654
 21
134.1433868384699
 31
0.0
  0
LINE
  5
61F
330
A
100
AcDbEntity
  8
LEVEL001
  6
Continuous
 62
     7
100
AcDbLine
 10
282.90416026965
 20
133.82338683847
 30
0.0
 11
285.18289520654
 21
133.82338683847
 31
0.0
  0
LINE
  5
620
330
A
100
AcDbEntity
  8
LEVEL001
  6
Continuous
 62
     7
100
AcDbLine
 10
256.23749360298
 20
133.82338683847
 30
0.0
 11
280.79496347676
 21
133.82338683847
 31
0.0
  0
LINE
  5
621
330
A
100
AcDbEntity
  8
LEVEL001
  6
Continuous
 62
     7
100
AcDbLine
 10
256.23749360298
 20
134.1433868384699
 30
0.0
 11
280.79496347676
 21
134.1433868384699
 31
0.0
  0
LINE
  5
622
330
A
100
AcDbEntity
  8
LEVEL001
  6
Continuous
 62
     7
100
AcDbLine
 10
256.2495618732
 20
133.9833868384699
 30
0.0
 11
280.78289520654
 21
133.9833868384699
 31
0.0
  0
LINE
  5
623
330
A
100
AcDbEntity
  8
LEVEL001
  6
Continuous
 62
     7
100
AcDbLine
 10
229.57082693631
 20
133.82338683847
 30
0.0
 11
254.12829681009
 21
133.82338683847
 31
0.0
  0
LINE
  5
624
330
A
100
AcDbEntity
  8
LEVEL001
  6
Continuous
 62
     7
100
AcDbLine
 10
229.58289520654
 20
133.9833868384699
 30
0.0
 11
254.11622853987
 21
133.9833868384699
 31
0.0
  0
LINE
  5
625
330
A
100
AcDbEntity
  8
LEVEL001
  6
Continuous
 62
     7
100
AcDbLine
 10
229.57082693631
 20
134.1433868384699
 30
0.0
 11
254.12829681009
 21
134.1433868384699
 31
0.0
  0
LINE
  5
626
330
A
100
AcDbEntity
  8
LEVEL001
  6
Continuous
 62
     7
100
AcDbLine
 10
202.90416026965
 20
134.1433868384699
 30
0.0
 11
227.46163014343
 21
134.1433868384699
 31
0.0
  0
LINE
  5
627
330
A
100
AcDbEntity
  8
LEVEL001
  6
Continuous
 62
     7
100
AcDbLine
 10
202.91622853987
 20
133.9833868384699
 30
0.0
 11
227.4495618732
 21
133.9833868384699
 31
0.0
  0
LINE
  5
628
330
A
100
AcDbEntity
  8
LEVEL001
  6
Continuous
 62
     7
100
AcDbLine
 10
202.90416026965
 20
133.82338683847
 30
0.0
 11
227.46163014343
 21
133.82338683847
 31
0.0
  0
LINE
  5
629
330
A
100
AcDbEntity
  8
LEVEL001
  6
Continuous
 62
     7
100
AcDbLine
 10
176.23749360298
 20
134.1433868384699
 30
0.0
 11
200.79496347676
 21
134.1433868384699
 31
0.0
  0
LINE
  5
62A
330
A
100
AcDbEntity
  8
LEVEL001
  6
Continuous
 62
     7
100
AcDbLine
 10
176.2495618732
 20
133.9833868384699
 30
0.0
 11
200.78289520654
 21
133.9833868384699
 31
0.0
  0
LINE
  5
62B
330
A
100
AcDbEntity
  8
LEVEL001
  6
Continuous
 62
     7
100
AcDbLine
 10
176.23749360298
 20
133.82338683847
 30
0.0
 11
200.79496347676
 21
133.82338683847
 31
0.0
  0
LINE
  5
62C
330
A
100
AcDbEntity
  8
LEVEL001
  6
Continuous
 62
     7
100
AcDbLine
 10
149.57082693631
 20
134.1433868384699
 30
0.0
 11
174.12829681009
 21
134.1433868384699
 31
0.0
  0
LINE
  5
62D
330
A
100
AcDbEntity
  8
LEVEL001
  6
Continuous
 62
     7
100
AcDbLine
 10
149.58289520654
 20
133.9833868384699
 30
0.0
 11
174.11622853987
 21
133.9833868384699
 31
0.0
  0
LINE
  5
62E
330
A
100
AcDbEntity
  8
LEVEL001
  6
Continuous
 62
     7
100
AcDbLine
 10
149.57082693631
 20
133.82338683847
 30
0.0
 11
174.12829681009
 21
133.82338683847
 31
0.0
  0
LINE
  5
62F
330
A
100
AcDbEntity
  8
LEVEL001
  6
Continuous
 62
     7
100
AcDbLine
 10
96.237493602979
 20
134.1433868384699
 30
0.0
 11
120.79496347676
 21
134.1433868384699
 31
0.0
  0
LINE
  5
630
330
A
100
AcDbEntity
  8
LEVEL001
  6
Continuous
 62
     7
100
AcDbLine
 10
96.249561873203
 20
133.9833868384699
 30
0.0
 11
120.78289520654
 21
133.9833868384699
 31
0.0
  0
LINE
  5
631
330
A
100
AcDbEntity
  8
LEVEL001
  6
Continuous
 62
     7
100
AcDbLine
 10
96.237493602979
 20
133.82338683847
 30
0.0
 11
120.79496347676
 21
133.82338683847
 31
0.0
  0
LINE
  5
632
330
A
100
AcDbEntity
  8
LEVEL001
  6
Continuous
 62
     7
100
AcDbLine
 10
122.90416026965
 20
133.82338683847
 30
0.0
 11
147.46163014343
 21
133.82338683847
 31
0.0
  0
LINE
  5
633
330
A
100
AcDbEntity
  8
LEVEL001
  6
Continuous
 62
     7
100
AcDbLine
 10
122.91622853987
 20
133.9833868384699
 30
0.0
 11
147.4495618732
 21
133.9833868384699
 31
0.0
  0
LINE
  5
634
330
A
100
AcDbEntity
  8
LEVEL001
  6
Continuous
 62
     7
100
AcDbLine
 10
122.90416026965
 20
134.1433868384699
 30
0.0
 11
147.46163014343
 21
134.1433868384699
 31
0.0
  0
LWPOLYLINE
  5
63D
330
A
100
AcDbEntity
  8
LEVEL001
  6
Continuous
 62
     7
370
    25
100
AcDbPolyline
 90
        5
 70
     0
 43
0.0
 10
285.18289520654
 20
45.28982708880994
 10
285.18289520654
 20
83.15649375541999
 10
85.182895206537
 20
83.15649375541999
 10
85.182895206537
 20
45.28982708880994
 10
285.18289520654
 20
45.28982708880994
  0
LINE
  5
644
330
A
100
AcDbEntity
  8
LEVEL001
  6
Continuous
 62
     7
100
AcDbLine
 10
285.18289520654
 20
80.75649375542003
 30
0.0
 11
85.182895206537
 21
80.75649375542003
 31
0.0
  0
LINE
  5
645
330
A
100
AcDbEntity
  8
LEVEL001
  6
Continuous
 62
     7
100
AcDbLine
 10
285.18289520654
 20
54.78008236023004
 30
0.0
 11
85.182895206537
 21
54.78008236023004
 31
0.0
  0
LINE
  5
646
330
A
100
AcDbEntity
  8
LEVEL001
  6
Continuous
 62
     7
100
AcDbLine
 10
285.18289520654
 20
50.62316042215002
 30
0.0
 11
85.182895206537
 21
50.62316042215002
 31
0.0
  0
CIRCLE
  5
647
330
A
100
AcDbEntity
  8
LEVEL001
  6
Continuous
 62
     1
100
AcDbCircle
 10
275.18289520654
 20
57.823160422
 30
0.0
 40
1.066666666666699
  0
LINE
  5
649
330
A
100
AcDbEntity
  8
LEVEL001
  6
Continuous
 62
     7
100
AcDbLine
 10
285.18289520654
 20
57.66316042200003
 30
0.0
 11
276.23749360298
 21
57.66316042200003
 31
0.0
  0
LINE
  5
64A
330
A
100
AcDbEntity
  8
LEVEL001
  6
Continuous
 62
     7
100
AcDbLine
 10
285.18289520654
 20
57.823160422
 30
0.0
 11
276.2495618732
 21
57.823160422
 31
0.0
  0
LINE
  5
64B
330
A
100
AcDbEntity
  8
LEVEL001
  6
Continuous
 62
     7
100
AcDbLine
 10
285.18289520654
 20
57.98316042199997
 30
0.0
 11
276.23749360298
 21
57.98316042199997
 31
0.0
  0
CIRCLE
  5
64D
330
A
100
AcDbEntity
  8
LEVEL001
  6
Continuous
 62
     1
100
AcDbCircle
 10
248.51622853987
 20
57.823160422
 30
0.0
 40
1.066666666666699
  0
CIRCLE
  5
64F
330
A
100
AcDbEntity
  8
LEVEL001
  6
Continuous
 62
     1
100
AcDbCircle
 10
221.8495618732
 20
57.823160422
 30
0.0
 40
1.066666666666699
  0
CIRCLE
  5
651
330
A
100
AcDbEntity
  8
LEVEL001
  6
Continuous
 62
     1
100
AcDbCircle
 10
195.18289520654
 20
57.823160422
 30
0.0
 40
1.066666666666699
  0
CIRCLE
  5
653
330
A
100
AcDbEntity
  8
LEVEL001
  6
Continuous
 62
     1
100
AcDbCircle
 10
168.51622853987
 20
57.823160422
 30
0.0
 40
1.066666666666699
  0
CIRCLE
  5
655
330
A
100
AcDbEntity
  8
LEVEL001
  6
Continuous
 62
     1
100
AcDbCircle
 10
141.8495618732
 20
57.823160422
 30
0.0
 40
1.066666666666699
  0
CIRCLE
  5
657
330
A
100
AcDbEntity
  8
LEVEL001
  6
Continuous
 62
     1
100
AcDbCircle
 10
115.18289520654
 20
57.823160422
 30
0.0
 40
1.066666666666699
  0
CIRCLE
  5
659
330
A
100
AcDbEntity
  8
LEVEL001
  6
Continuous
 62
     1
100
AcDbCircle
 10
88.51622853987
 20
57.823160422
 30
0.0
 40
1.066666666666699
  0
LINE
  5
65A
330
A
100
AcDbEntity
  8
LEVEL001
  6
Continuous
 62
     7
100
AcDbLine
 10
87.44956187320299
 20
57.823160422
 30
0.0
 11
85.182895206537
 21
57.823160422
 31
0.0
  0
LINE
  5
65B
330
A
100
AcDbEntity
  8
LEVEL001
  6
Continuous
 62
     7
100
AcDbLine
 10
87.46163014342799
 20
57.66316042200003
 30
0.0
 11
85.182895206537
 21
57.66316042200003
 31
0.0
  0
LINE
  5
65C
330
A
100
AcDbEntity
  8
LEVEL001
  6
Continuous
 62
     7
100
AcDbLine
 10
87.46163014342799
 20
57.98316042199997
 30
0.0
 11
85.182895206537
 21
57.98316042199997
 31
0.0
  0
LINE
  5
65D
330
A
100
AcDbEntity
  8
LEVEL001
  6
Continuous
 62
     7
100
AcDbLine
 10
114.12829681009
 20
57.98316042199997
 30
0.0
 11
89.570826936312
 21
57.98316042199997
 31
0.0
  0
LINE
  5
65E
330
A
100
AcDbEntity
  8
LEVEL001
  6
Continuous
 62
     7
100
AcDbLine
 10
114.12829681009
 20
57.66316042200003
 30
0.0
 11
89.570826936312
 21
57.66316042200003
 31
0.0
  0
LINE
  5
65F
330
A
100
AcDbEntity
  8
LEVEL001
  6
Continuous
 62
     7
100
AcDbLine
 10
114.11622853987
 20
57.823160422
 30
0.0
 11
89.582895206537
 21
57.823160422
 31
0.0
  0
LINE
  5
660
330
A
100
AcDbEntity
  8
LEVEL001
  6
Continuous
 62
     7
100
AcDbLine
 10
140.79496347676
 20
57.98316042199997
 30
0.0
 11
116.23749360298
 21
57.98316042199997
 31
0.0
  0
LINE
  5
661
330
A
100
AcDbEntity
  8
LEVEL001
  6
Continuous
 62
     7
100
AcDbLine
 10
140.78289520654
 20
57.823160422
 30
0.0
 11
116.2495618732
 21
57.823160422
 31
0.0
  0
LINE
  5
662
330
A
100
AcDbEntity
  8
LEVEL001
  6
Continuous
 62
     7
100
AcDbLine
 10
140.79496347676
 20
57.66316042200003
 30
0.0
 11
116.23749360298
 21
57.66316042200003
 31
0.0
  0
LINE
  5
663
330
A
100
AcDbEntity
  8
LEVEL001
  6
Continuous
 62
     7
100
AcDbLine
 10
167.46163014343
 20
57.66316042200003
 30
0.0
 11
142.90416026965
 21
57.66316042200003
 31
0.0
  0
LINE
  5
664
330
A
100
AcDbEntity
  8
LEVEL001
  6
Continuous
 62
     7
100
AcDbLine
 10
167.4495618732
 20
57.823160422
 30
0.0
 11
142.91622853987
 21
57.823160422
 31
0.0
  0
LINE
  5
665
330
A
100
AcDbEntity
  8
LEVEL001
  6
Continuous
 62
     7
100
AcDbLine
 10
167.46163014343
 20
57.98316042199997
 30
0.0
 11
142.90416026965
 21
57.98316042199997
 31
0.0
  0
LINE
  5
666
330
A
100
AcDbEntity
  8
LEVEL001
  6
Continuous
 62
     7
100
AcDbLine
 10
194.12829681009
 20
57.66316042200003
 30
0.0
 11
169.57082693631
 21
57.66316042200003
 31
0.0
  0
LINE
  5
667
330
A
100
AcDbEntity
  8
LEVEL001
  6
Continuous
 62
     7
100
AcDbLine
 10
194.11622853987
 20
57.823160422
 30
0.0
 11
169.58289520654
 21
57.823160422
 31
0.0
  0
LINE
  5
668
330
A
100
AcDbEntity
  8
LEVEL001
  6
Continuous
 62
     7
100
AcDbLine
 10
194.12829681009
 20
57.98316042199997
 30
0.0
 11
169.57082693631
 21
57.98316042199997
 31
0.0
  0
LINE
  5
669
330
A
100
AcDbEntity
  8
LEVEL001
  6
Continuous
 62
     7
100
AcDbLine
 10
220.79496347676
 20
57.66316042200003
 30
0.0
 11
196.23749360298
 21
57.66316042200003
 31
0.0
  0
LINE
  5
66A
330
A
100
AcDbEntity
  8
LEVEL001
  6
Continuous
 62
     7
100
AcDbLine
 10
220.78289520654
 20
57.823160422
 30
0.0
 11
196.2495618732
 21
57.823160422
 31
0.0
  0
LINE
  5
66B
330
A
100
AcDbEntity
  8
LEVEL001
  6
Continuous
 62
     7
100
AcDbLine
 10
220.79496347676
 20
57.98316042199997
 30
0.0
 11
196.23749360298
 21
57.98316042199997
 31
0.0
  0
LINE
  5
66C
330
A
100
AcDbEntity
  8
LEVEL001
  6
Continuous
 62
     7
100
AcDbLine
 10
274.12829681009
 20
57.66316042200003
 30
0.0
 11
249.57082693631
 21
57.66316042200003
 31
0.0
  0
LINE
  5
66D
330
A
100
AcDbEntity
  8
LEVEL001
  6
Continuous
 62
     7
100
AcDbLine
 10
274.11622853987
 20
57.823160422
 30
0.0
 11
249.58289520654
 21
57.823160422
 31
0.0
  0
LINE
  5
66E
330
A
100
AcDbEntity
  8
LEVEL001
  6
Continuous
 62
     7
100
AcDbLine
 10
274.12829681009
 20
57.98316042199997
 30
0.0
 11
249.57082693631
 21
57.98316042199997
 31
0.0
  0
LINE
  5
66F
330
A
100
AcDbEntity
  8
LEVEL001
  6
Continuous
 62
     7
100
AcDbLine
 10
247.46163014343
 20
57.98316042199997
 30
0.0
 11
222.90416026964
 21
57.98316042199997
 31
0.0
  0
LINE
  5
670
330
A
100
AcDbEntity
  8
LEVEL001
  6
Continuous
 62
     7
100
AcDbLine
 10
247.4495618732
 20
57.823160422
 30
0.0
 11
222.91622853987
 21
57.823160422
 31
0.0
  0
LINE
  5
671
330
A
100
AcDbEntity
  8
LEVEL001
  6
Continuous
 62
     7
100
AcDbLine
 10
247.46163014343
 20
57.66316042200003
 30
0.0
 11
222.90416026964
 21
57.66316042200003
 31
0.0
  0
ARC
  5
67A
330
A
100
AcDbEntity
  8
LEVEL001
  6
Continuous
 62
     1
370
    25
100
AcDbCircle
 10
21.507524231631
 20
109.45005350502
 30
0.0
 40
0.8
100
AcDbArc
 50
0.0
 51
269.9999999999901
  0
LWPOLYLINE
  5
67B
330
A
100
AcDbEntity
  8
LEVEL001
  6
Continuous
 62
     1
370
    25
100
AcDbPolyline
 90
        7
 70
     0
 43
0.0
 10
22.307524231631
 20
109.45005350505
 10
25.826498210974
 20
109.45005350505
 10
29.98342014914
 20
111.85005350505
 10
55.374190898298
 20
111.85005350505
 10
55.374190898298
 20
137.2408242543
 10
57.774190898255
 20
141.3977461923899
 10
57.774190898255
 20
144.91672017165
  0
ARC
  5
684
330
A
100
AcDbEntity
  8
LEVEL001
  6
Continuous
 62
     1
370
    25
100
AcDbCircle
 10
57.77419089815
 20
145.7167201716299
 30
0.0
 40
0.8
100
AcDbArc
 50
0.0
 51
270.0000000075
  0
LWPOLYLINE
  5
685
330
A
100
AcDbEntity
  8
LEVEL001
  6
Continuous
 62
     1
370
    25
100
AcDbPolyline
 90
        7
 70
     0
 43
0.0
 10
58.57419089825899
 20
145.7167201716499
 10
58.574190898256
 20
141.1833868383199
 10
56.174190898298
 20
137.0264649002399
 10
56.174190898298
 20
134.1433868384699
 10
56.014190898297
 20
133.9833868384699
 10
56.174190898298
 20
133.82338683847
 10
56.174190898298
 20
111.5833868383799
  0
ARC
  5
68E
330
A
100
AcDbEntity
  8
LEVEL001
  6
Continuous
 62
     1
370
    25
100
AcDbCircle
 10
55.640857564987
 20
111.5833868383799
 30
0.0
 40
0.5333333333333301
100
AcDbArc
 50
269.99999999757
 51
0.0
  0
LWPOLYLINE
  5
68F
330
A
100
AcDbEntity
  8
LEVEL001
  6
Continuous
 62
     1
370
    25
100
AcDbPolyline
 90
        7
 70
     0
 43
0.0
 10
55.640857564965
 20
111.0500535050499
 10
33.400857564974
 20
111.0500535050499
 10
33.240857564974
 20
111.21005350505
 10
33.080857564879
 20
111.0500535050499
 10
30.197779503081
 20
111.0500535050499
 10
26.040857564965
 20
108.65005350505
 10
21.507524231631
 20
108.65005350505
  0
LINE
  5
698
330
A
100
AcDbEntity
  8
LEVEL001
  6
DASHDOT
 62
     6
 48
0.5
370
    15
100
AcDbLine
 10
33.240857564968
 20
106.90906537823
 30
0.0
 11
33.240857564967
 21
114.40462871765
 31
0.0
  0
LINE
  5
699
330
A
100
AcDbEntity
  8
LEVEL001
  6
DASHDOT
 62
     6
 48
0.5
370
    15
100
AcDbLine
 10
60.31517902512
 20
133.98338683838
 30
0.0
 11
52.81961568569499
 21
133.98338683838
 31
0.0
  0
LINE
  5
69A
330
A
100
AcDbEntity
  8
LEVEL001
  6
DASHDOT
 62
     6
370
    15
100
AcDbLine
 10
33.052811614139
 20
134.17143278921
 30
0.0
 11
61.458728813184
 21
105.76551559016
 31
0.0
  0
ARC
  5
69B
330
A
100
AcDbEntity
  8
LEVEL001
  6
Continuous
 62
     1
370
    25
100
AcDbCircle
 10
21.507524231631
 20
82.35649375546996
 30
0.0
 40
0.8
100
AcDbArc
 50
90.00000000000897
 51
0.0
  0
LWPOLYLINE
  5
69C
330
A
100
AcDbEntity
  8
LEVEL001
  6
Continuous
 62
     1
370
    25
100
AcDbPolyline
 90
        7
 70
     0
 43
0.0
 10
22.307524231631
 20
82.35649375542005
 10
25.826498210974
 20
82.35649375542005
 10
29.98342014914
 20
79.95649375541995
 10
55.374190898298
 20
79.95649375541995
 10
55.374190898298
 20
54.56572300616994
 10
57.774190898255
 20
50.40880106808003
 10
57.774190898255
 20
46.88982708880996
  0
ARC
  5
6A5
330
A
100
AcDbEntity
  8
LEVEL001
  6
Continuous
 62
     1
370
    25
100
AcDbCircle
 10
57.77419089815
 20
46.08982708883002
 30
0.0
 40
0.8
100
AcDbArc
 50
89.99999999250499
 51
0.0
  0
LWPOLYLINE
  5
6A6
330
A
100
AcDbEntity
  8
LEVEL001
  6
Continuous
 62
     1
370
    25
100
AcDbPolyline
 90
        7
 70
     0
 43
0.0
 10
58.57419089825899
 20
46.08982708882002
 10
58.574190898256
 20
50.62316042215002
 10
56.174190898298
 20
54.78008236023004
 10
56.174190898298
 20
57.66316042200003
 10
56.014190898297
 20
57.823160422
 10
56.174190898298
 20
57.98316042199997
 10
56.174190898298
 20
80.22316042208002
  0
ARC
  5
6AF
330
A
100
AcDbEntity
  8
LEVEL001
  6
Continuous
 62
     1
370
    25
100
AcDbCircle
 10
55.640857565015
 20
80.22316042209002
 30
0.0
 40
0.5333333333333301
100
AcDbArc
 50
0.0
 51
90.000000005423
  0
LWPOLYLINE
  5
6B0
330
A
100
AcDbEntity
  8
LEVEL001
  6
Continuous
 62
     1
370
    25
100
AcDbPolyline
 90
        7
 70
     0
 43
0.0
 10
55.640857564965
 20
80.75649375542003
 10
33.400857564974
 20
80.75649375542003
 10
33.240857564974
 20
80.59649375542006
 10
33.080857564879
 20
80.75649375542003
 10
30.197779503081
 20
80.75649375542003
 10
26.040857564965
 20
83.15649375541999
 10
21.507524231631
 20
83.15649375541999
  0
LINE
  5
6B9
330
A
100
AcDbEntity
  8
LEVEL001
  6
DASHDOT
 62
     6
 48
0.5
370
    15
100
AcDbLine
 10
33.240857564968
 20
84.89748188223996
 30
0.0
 11
33.240857564967
 21
77.40191854282
 31
0.0
  0
LINE
  5
6BA
330
A
100
AcDbEntity
  8
LEVEL001
  6
DASHDOT
 62
     6
 48
0.5
370
    15
100
AcDbLine
 10
60.31517902512
 20
57.82316042209004
 30
0.0
 11
52.81961568569499
 21
57.82316042209004
 31
0.0
  0
LINE
  5
6BB
330
A
100
AcDbEntity
  8
LEVEL001
  6
DASHDOT
 62
     6
370
    15
100
AcDbLine
 10
33.052811614139
 20
57.63511447125996
 30
0.0
 11
61.458728813184
 21
86.04103167029995
 31
0.0
  0
TEXT
  5
6BC
330
A
100
AcDbEntity
  8
LEVEL001
 62
     8
100
AcDbText
 10
134.3661950657667
 20
19.44078721384005
 30
0.0
 40
4.0
  1
ＣＰＶ７５用芯材ピッチ図(Ｓ＝１：１５)
 41
0.8
 72
     1
 11
170.7395283991
 21
21.44078721384005
 31
0.0
100
AcDbText
 73
     2
  0
ARC
  5
6C6
330
A
100
AcDbEntity
  8
LEVEL001
  6
Continuous
 62
     1
100
AcDbCircle
 10
32.300187933518
 20
207.2675076164399
 30
0.0
 40
1.5
100
AcDbArc
 50
134.9999999999997
 51
45.00000000048174
  0
LWPOLYLINE
  5
6C7
330
A
100
AcDbEntity
  8
LEVEL001
  6
Continuous
 62
     1
100
AcDbPolyline
 90
        7
 70
     0
 43
0.0
 10
33.360848105289
 20
208.32816778823
 10
38.02639253706301
 20
212.99371222
 10
46.71972497366399
 20
215.3230836259201
 10
80.38344905419499
 20
248.98680770645
 10
114.04717313485
 20
215.3230836258
 10
122.74050557129
 20
212.99371221992
 10
127.40605000296
 20
208.32816778825
  0
ARC
  5
6D0
330
A
100
AcDbEntity
  8
LEVEL001
  6
Continuous
 62
     1
100
AcDbCircle
 10
128.46671017462
 20
207.26750761632
 30
0.0
 40
1.5
100
AcDbArc
 50
134.9999999925101
 51
45.00000000082876
  0
LWPOLYLINE
  5
6D1
330
A
100
AcDbEntity
  8
LEVEL001
  6
Continuous
 62
     1
100
AcDbPolyline
 90
        7
 70
     0
 43
0.0
 10
129.52737034652
 20
208.32816778826
 10
123.51696270644
 20
214.33857542834
 10
114.82363027
 20
216.6679468342
 10
111.00117267968
 20
220.49040442452
 10
110.57690861097
 20
220.49040442452
 10
110.57690861097
 20
220.91466849324
 10
81.09055583538099
 20
250.40102126883
  0
ARC
  5
6DA
330
A
100
AcDbEntity
  8
LEVEL001
  6
Continuous
 62
     1
100
AcDbCircle
 10
80.38344905418901
 20
249.69391448763
 30
0.0
 40
1.0
100
AcDbArc
 50
45.00000000000934
 51
134.9999999995106
  0
LWPOLYLINE
  5
6DB
330
A
100
AcDbEntity
  8
LEVEL001
  6
Continuous
 62
     1
100
AcDbPolyline
 90
        7
 70
     0
 43
0.0
 10
79.676342273008
 20
250.40102126883
 10
50.189989497542
 20
220.91466849336
 10
50.189989497542
 20
220.49040442465
 10
49.765725428704
 20
220.49040442452
 10
45.94326783835199
 20
216.66794683417
 10
37.249935401815
 20
214.33857542831
 10
31.23952776173
 20
208.32816778823
  0
LINE
  5
6E4
330
A
100
AcDbEntity
  8
LEVEL001
  6
DASHDOT
 62
     6
370
    15
100
AcDbLine
 10
80.38344905419499
 20
194.0944010022
 30
0.0
 11
80.38344905419499
 21
272.18859994747
 31
0.0
  0
TEXT
  5
6E5
330
A
100
AcDbEntity
  8
LEVEL001
 62
     8
100
AcDbText
 10
63.16196153844099
 20
182.21726265353
 30
0.0
 40
4.0
  1
ＣＰＶ７５断面図
 41
0.8
100
AcDbText
  0
TEXT
  5
6E6
330
A
100
AcDbEntity
  8
LEVEL001
 62
     8
100
AcDbText
 10
63.16196153844099
 20
176.8839293201899
 30
0.0
 40
4.0
  1
　(Ｓ＝１：１)
 41
0.8
100
AcDbText
  0
TEXT
  5
6E7
330
A
100
AcDbEntity
  8
LEVEL001
 62
     8
100
AcDbText
 10
197.94883918288
 20
182.21726265353
 30
0.0
 40
4.0
  1
ＣＰ７５(キャップ)断面図
 41
0.8
100
AcDbText
  0
TEXT
  5
6E8
330
A
100
AcDbEntity
  8
LEVEL001
 62
     8
100
AcDbText
 10
197.94883918288
 20
176.8839293201899
 30
0.0
 40
4.0
  1
　　　(Ｓ＝１：１)
 41
0.8
100
AcDbText
  0
ARC
  5
6E9
330
A
100
AcDbEntity
  8
LEVEL001
  6
Continuous
 62
     3
370
    30
100
AcDbCircle
 10
207.21016814038
 20
265.99043387031
 30
0.0
 40
3.5
100
AcDbArc
 50
90.00000000029098
 51
200.3864023466908
  0
LINE
  5
6EA
330
A
100
AcDbEntity
  8
LEVEL001
  6
Continuous
 62
     3
370
    30
100
AcDbLine
 10
203.92939173395
 20
264.77121027672
 30
0.0
 11
207.21016814037
 21
261.49043387031
 31
0.0
  0
ARC
  5
6EB
330
A
100
AcDbEntity
  8
LEVEL001
  6
Continuous
 62
     3
370
    30
100
AcDbCircle
 10
275.21016814036
 20
197.9904338703099
 30
0.0
 40
3.5
100
AcDbArc
 50
249.6135976532004
 51
0.0
  0
LWPOLYLINE
  5
6EC
330
A
100
AcDbEntity
  8
LEVEL001
  6
Continuous
 62
     3
370
    30
100
AcDbPolyline
 90
        3
 70
     0
 43
0.0
 10
270.71016814036
 20
197.9904338703099
 10
270.71016814036
 20
261.49043387031
 10
207.21016814037
 20
261.49043387031
  0
LINE
  5
6F1
330
A
100
AcDbEntity
  8
LEVEL001
  6
Continuous
 62
     3
370
    30
100
AcDbLine
 10
270.71016814036
 20
197.9904338703099
 30
0.0
 11
273.99094454678
 21
194.7096574639
 31
0.0
  0
ARC
  5
6F2
330
A
100
AcDbEntity
  8
LEVEL001
  6
Continuous
 62
     3
370
    30
100
AcDbCircle
 10
207.21016814034
 20
265.99043387031
 30
0.0
 40
1.5
100
AcDbArc
 50
89.999999999261
 51
186.9977904056873
  0
ARC
  5
6F3
330
A
100
AcDbEntity
  8
LEVEL001
  6
Continuous
 62
     3
370
    30
100
AcDbCircle
 10
275.21016814036
 20
197.99043387028
 30
0.0
 40
1.5
100
AcDbArc
 50
263.0022095942601
 51
0.0
  0
LINE
  5
6F4
330
A
100
AcDbEntity
  8
LEVEL001
  6
Continuous
 62
     3
370
    30
100
AcDbLine
 10
272.21016814036
 20
199.31886099506
 30
0.0
 11
275.02742154125
 21
196.5016075941699
 31
0.0
  0
LINE
  5
6F5
330
A
100
AcDbEntity
  8
LEVEL001
  6
Continuous
 62
     3
370
    30
100
AcDbLine
 10
208.53859526511
 20
262.99043387031
 30
0.0
 11
205.72134186422
 21
265.8076872712001
 31
0.0
  0
LWPOLYLINE
  5
6F6
330
A
100
AcDbEntity
  8
LEVEL001
  6
Continuous
 62
     3
370
    30
100
AcDbPolyline
 90
        4
 70
     0
 43
0.0
 10
226.71016814036
 20
262.99043387031
 10
226.71016814036
 20
264.99043387031
 10
234.71016814036
 20
264.99043387031
 10
234.71016814036
 20
267.49043387031
  0
LWPOLYLINE
  5
6FC
330
A
100
AcDbEntity
  8
LEVEL001
  6
Continuous
 62
     3
370
    30
100
AcDbPolyline
 90
        4
 70
     0
 43
0.0
 10
248.71016814036
 20
267.49043387031
 10
248.71016814036
 20
264.99043387031
 10
256.71016814036
 20
264.99043387031
 10
256.71016814036
 20
262.99043387031
  0
LWPOLYLINE
  5
702
330
A
100
AcDbEntity
  8
LEVEL001
  6
Continuous
 62
     3
370
    30
100
AcDbPolyline
 90
        4
 70
     0
 43
0.0
 10
236.71016814036
 20
262.99043387031
 10
236.71016814036
 20
265.49043387031
 10
246.71016814036
 20
265.49043387031
 10
246.71016814036
 20
262.99043387031
  0
LINE
  5
708
330
A
100
AcDbEntity
  8
LEVEL001
  6
Continuous
 62
     3
370
    30
100
AcDbLine
 10
207.21016814036
 20
269.49043387031
 30
0.0
 11
271.21016814036
 21
269.49043387031
 31
0.0
  0
LINE
  5
709
330
A
100
AcDbEntity
  8
LEVEL001
  6
Continuous
 62
     3
370
    30
100
AcDbLine
 10
278.71016814036
 20
261.99043387031
 30
0.0
 11
278.71016814036
 21
197.9904338703099
 31
0.0
  0
ARC
  5
70A
330
A
100
AcDbEntity
  8
LEVEL001
  6
Continuous
 62
     3
370
    30
100
AcDbCircle
 10
271.21016814036
 20
261.99043387031
 30
0.0
 40
7.5
100
AcDbArc
 50
0.0
 51
90.0
  0
LINE
  5
70B
330
A
100
AcDbEntity
  8
LEVEL001
  6
Continuous
 62
     3
370
    30
100
AcDbLine
 10
207.21016814036
 20
267.49043387031
 30
0.0
 11
271.21016814036
 21
267.49043387031
 31
0.0
  0
LINE
  5
70C
330
A
100
AcDbEntity
  8
LEVEL001
  6
Continuous
 62
     3
370
    30
100
AcDbLine
 10
276.71016814036
 20
261.99043387031
 30
0.0
 11
276.71016814036
 21
197.9904338703099
 31
0.0
  0
ARC
  5
70D
330
A
100
AcDbEntity
  8
LEVEL001
  6
Continuous
 62
     3
370
    30
100
AcDbCircle
 10
271.21016814036
 20
261.99043387031
 30
0.0
 40
5.5
100
AcDbArc
 50
0.0
 51
90.0
  0
ARC
  5
70E
330
A
100
AcDbEntity
  8
LEVEL001
  6
Continuous
 62
     3
370
    30
100
AcDbCircle
 10
271.21016814036
 20
261.99043387032
 30
0.0
 40
3.5
100
AcDbArc
 50
0.0
 51
90.0
  0
LINE
  5
70F
330
A
100
AcDbEntity
  8
LEVEL001
  6
Continuous
 62
     3
370
    30
100
AcDbLine
 10
272.21016814036
 20
259.49043387031
 30
0.0
 11
276.71016814036
 21
259.49043387031
 31
0.0
  0
LINE
  5
710
330
A
100
AcDbEntity
  8
LEVEL001
  6
Continuous
 62
     3
370
    30
100
AcDbLine
 10
268.71016814036
 20
262.99043387031
 30
0.0
 11
268.71016814036
 21
267.49043387031
 31
0.0
  0
LINE
  5
711
330
A
100
AcDbEntity
  8
LEVEL001
  6
Continuous
 62
     3
370
    30
100
AcDbLine
 10
270.71016814036
 20
262.99043387031
 30
0.0
 11
270.71016814036
 21
265.49043387031
 31
0.0
  0
LINE
  5
712
330
A
100
AcDbEntity
  8
LEVEL001
  6
Continuous
 62
     3
370
    30
100
AcDbLine
 10
272.21016814036
 20
261.49043387031
 30
0.0
 11
274.71016814036
 21
261.49043387031
 31
0.0
  0
LINE
  5
713
330
A
100
AcDbEntity
  8
LEVEL001
  6
Continuous
 62
     3
370
    30
100
AcDbLine
 10
274.71016814036
 20
261.99043387031
 30
0.0
 11
274.71016814036
 21
261.49043387031
 31
0.0
  0
LINE
  5
714
330
A
100
AcDbEntity
  8
LEVEL001
  6
Continuous
 62
     3
370
    30
100
AcDbLine
 10
271.21016814036
 20
265.49043387031
 30
0.0
 11
270.71016814036
 21
265.49043387031
 31
0.0
  0
LWPOLYLINE
  5
715
330
A
100
AcDbEntity
  8
LEVEL001
  6
Continuous
 62
     3
370
    30
100
AcDbPolyline
 90
        3
 70
     0
 43
0.0
 10
270.71016814036
 20
263.99043387031
 10
273.21016814036
 20
263.99043387031
 10
273.21016814036
 20
261.49043387031
  0
LINE
  5
71A
330
A
100
AcDbEntity
  8
LEVEL001
  6
Continuous
 62
     3
370
    30
100
AcDbLine
 10
270.71016814036
 20
262.99043387031
 30
0.0
 11
208.53859526511
 21
262.99043387031
 31
0.0
  0
LINE
  5
71B
330
A
100
AcDbEntity
  8
LEVEL001
  6
Continuous
 62
     3
370
    30
100
AcDbLine
 10
272.21016814036
 20
199.31886099506
 30
0.0
 11
272.21016814036
 21
261.49043387031
 31
0.0
  0
LWPOLYLINE
  5
71C
330
A
100
AcDbEntity
  8
LEVEL001
  6
Continuous
 62
     3
370
    30
100
AcDbPolyline
 90
        4
 70
     0
 43
0.0
 10
272.21016814036
 20
217.49043387031
 10
274.21016814036
 20
217.49043387031
 10
274.21016814036
 20
225.49043387031
 10
276.71016814036
 20
225.49043387031
  0
LWPOLYLINE
  5
722
330
A
100
AcDbEntity
  8
LEVEL001
  6
Continuous
 62
     3
370
    30
100
AcDbPolyline
 90
        4
 70
     0
 43
0.0
 10
276.71016814036
 20
239.49043387031
 10
274.21016814036
 20
239.49043387031
 10
274.21016814036
 20
247.49043387031
 10
272.21016814036
 20
247.49043387031
  0
LWPOLYLINE
  5
728
330
A
100
AcDbEntity
  8
LEVEL001
  6
Continuous
 62
     3
370
    30
100
AcDbPolyline
 90
        4
 70
     0
 43
0.0
 10
272.21016814036
 20
227.49043387031
 10
274.71016814036
 20
227.49043387031
 10
274.71016814036
 20
237.49043387031
 10
272.21016814036
 20
237.49043387031
  0
LWPOLYLINE
  5
72E
330
A
100
AcDbEntity
  8
LEVEL001
  6
Continuous
 62
     3
370
    30
100
AcDbPolyline
 90
        4
 70
     0
 43
0.0
 10
170.04338974559
 20
262.99043387031
 10
185.04338974559
 20
262.99043387031
 10
185.04338974559
 20
267.49043387031
 10
170.04338974559
 20
267.49043387031
  0
LINE
  5
734
330
A
100
AcDbEntity
  8
LEVEL001
  6
Continuous
 62
     3
370
    30
100
AcDbLine
 10
170.04338974559
 20
264.99043387031
 30
0.0
 11
185.04338974559
 21
264.99043387031
 31
0.0
  0
ARC
  5
735
330
A
100
AcDbEntity
  8
LEVEL001
  6
Continuous
 62
     3
370
    30
100
AcDbCircle
 10
157.04338974559
 20
266.18045874608
 30
0.0
 40
2.0
100
AcDbArc
 50
95.71059313764521
 51
180.0000000000195
  0
LWPOLYLINE
  5
736
330
A
100
AcDbEntity
  8
LEVEL001
  6
Continuous
 62
     3
370
    30
100
AcDbPolyline
 90
        4
 70
     0
 43
0.0
 10
156.84438230754
 20
268.1705331265
 10
170.04338974559
 20
269.49043387031
 10
170.04338974559
 20
261.49043387031
 10
156.84438230754
 20
262.81033461411
  0
ARC
  5
73C
330
A
100
AcDbEntity
  8
LEVEL001
  6
Continuous
 62
     3
370
    30
100
AcDbCircle
 10
157.04338974559
 20
264.80040899455
 30
0.0
 40
2.0
100
AcDbArc
 50
180.0000000004494
 51
264.2894068625399
  0
LWPOLYLINE
  5
73D
330
A
100
AcDbEntity
  8
LEVEL001
  6
Continuous
 62
     3
370
    30
100
AcDbPolyline
 90
        3
 70
     0
 43
0.0
 10
185.04338974559
 20
262.99043387031
 10
185.04338974559
 20
259.49043387031
 10
170.04338974559
 20
259.49043387031
  0
LINE
  5
742
330
A
100
AcDbEntity
  8
LEVEL001
  6
Continuous
 62
     3
370
    30
100
AcDbLine
 10
170.04338974559
 20
261.49043387031
 30
0.0
 11
185.04338974559
 21
261.49043387031
 31
0.0
  0
LINE
  5
743
330
A
100
AcDbEntity
  8
LEVEL001
  6
Continuous
 62
     3
370
    30
100
AcDbLine
 10
155.04338974559
 20
197.80040899453
 30
0.0
 11
155.04338974559
 21
266.18045874608
 31
0.0
  0
ARC
  5
744
330
A
100
AcDbEntity
  8
LEVEL001
  6
Continuous
 62
     3
370
    30
100
AcDbCircle
 10
157.04338974559
 20
197.80040899453
 30
0.0
 40
2.0
100
AcDbArc
 50
179.999999999987
 51
264.2894068623901
  0
LWPOLYLINE
  5
745
330
A
100
AcDbEntity
  8
LEVEL001
  6
Continuous
 62
     3
370
    30
100
AcDbPolyline
 90
        3
 70
     0
 43
0.0
 10
156.84438230754
 20
195.81033461411
 10
170.04338974559
 20
194.49043387031
 10
170.04338974559
 20
261.49043387031
  0
LINE
  5
74A
330
A
100
AcDbEntity
  8
LEVEL001
  6
Continuous
 62
     3
370
    30
100
AcDbLine
 10
155.04338974559
 20
197.9904338703099
 30
0.0
 11
170.04338974559
 21
197.9904338703099
 31
0.0
  0
LWPOLYLINE
  5
74B
330
A
100
AcDbEntity
  8
LEVEL001
  6
Continuous
 62
     3
370
    30
100
AcDbPolyline
 90
        4
 70
     0
 43
0.0
 10
170.04338974559
 20
217.49043387031
 10
185.04338974559
 20
217.49043387031
 10
185.04338974559
 20
247.49043387031
 10
170.04338974559
 20
247.49043387031
  0
LINE
  5
751
330
A
100
AcDbEntity
  8
LEVEL001
  6
Continuous
 62
     3
370
    30
100
AcDbLine
 10
170.04338974559
 20
237.49043387031
 30
0.0
 11
185.04338974559
 21
237.49043387031
 31
0.0
  0
LINE
  5
752
330
A
100
AcDbEntity
  8
LEVEL001
  6
Continuous
 62
     3
370
    30
100
AcDbLine
 10
185.04338974559
 20
227.49043387031
 30
0.0
 11
170.04338974559
 21
227.49043387031
 31
0.0
  0
ARC
  5
753
330
A
100
AcDbEntity
  8
LEVEL001
  6
Continuous
 62
     3
370
    30
100
AcDbCircle
 10
33.335721839418
 20
204.7675076164199
 30
0.0
 40
1.0
100
AcDbArc
 50
269.99999999868
 51
89.99999999867801
  0
LINE
  5
754
330
A
100
AcDbEntity
  8
LEVEL001
  6
Continuous
 62
     3
370
    30
100
AcDbLine
 10
33.335721839441
 20
205.7675076164199
 30
0.0
 11
32.300187933475
 21
205.76750761645
 31
0.0
  0
ARC
  5
755
330
A
100
AcDbEntity
  8
LEVEL001
  6
Continuous
 62
     3
370
    30
100
AcDbCircle
 10
32.300187933517
 20
207.26750761645
 30
0.0
 40
1.5
100
AcDbArc
 50
135.0000000003786
 51
269.99999999841
  0
ARC
  5
756
330
A
100
AcDbEntity
  8
LEVEL001
  6
Continuous
 62
     3
370
    30
100
AcDbCircle
 10
32.300187933637
 20
207.26750761657
 30
0.0
 40
3.5
100
AcDbArc
 50
135.0000000029102
 51
269.9999999966
  0
LINE
  5
757
330
A
100
AcDbEntity
  8
LEVEL001
  6
Continuous
 62
     3
370
    30
100
AcDbLine
 10
32.300187933429
 20
203.76750761645
 30
0.0
 11
33.335721839395
 21
203.7675076164199
 31
0.0
  0
ARC
  5
758
330
A
100
AcDbEntity
  8
LEVEL001
  6
Continuous
 62
     3
370
    30
100
AcDbCircle
 10
127.43117626882
 20
204.7675076164199
 30
0.0
 40
1.0
100
AcDbArc
 50
90.00000000131899
 51
270.00000000132
  0
LINE
  5
759
330
A
100
AcDbEntity
  8
LEVEL001
  6
Continuous
 62
     3
370
    30
100
AcDbLine
 10
127.43117626879
 20
205.7675076164199
 30
0.0
 11
128.46671017476
 21
205.76750761645
 31
0.0
  0
ARC
  5
75A
330
A
100
AcDbEntity
  8
LEVEL001
  6
Continuous
 62
     3
370
    30
100
AcDbCircle
 10
128.46671017474
 20
207.26750761643
 30
0.0
 40
1.5
100
AcDbArc
 50
270.00000000077
 51
45.00000000077263
  0
ARC
  5
75B
330
A
100
AcDbEntity
  8
LEVEL001
  6
Continuous
 62
     3
370
    30
100
AcDbCircle
 10
128.46671017461
 20
207.26750761657
 30
0.0
 40
3.5
100
AcDbArc
 50
270.00000000318
 51
44.99999999724556
  0
LINE
  5
75C
330
A
100
AcDbEntity
  8
LEVEL001
  6
Continuous
 62
     3
370
    30
100
AcDbLine
 10
128.4667101748
 20
203.76750761645
 30
0.0
 11
127.43117626884
 21
203.7675076164199
 31
0.0
  0
LINE
  5
75D
330
A
100
AcDbEntity
  8
LEVEL001
  6
Continuous
 62
     3
370
    30
100
AcDbLine
 10
74.726594804624
 20
254.64366195587
 30
0.0
 11
29.825314199357
 21
209.7423813506
 31
0.0
  0
ARC
  5
75E
330
A
100
AcDbEntity
  8
LEVEL001
  6
Continuous
 62
     3
370
    30
100
AcDbCircle
 10
80.38344905411801
 20
248.98680770637
 30
0.0
 40
8.0
100
AcDbArc
 50
45.00000000001083
 51
134.9999999999997
  0
LINE
  5
75F
330
A
100
AcDbEntity
  8
LEVEL001
  6
Continuous
 62
     3
370
    30
100
AcDbLine
 10
86.04030330360899
 20
254.64366195587
 30
0.0
 11
130.94158390888
 21
209.7423813506
 31
0.0
  0
LINE
  5
760
330
A
100
AcDbEntity
  8
LEVEL001
  6
Continuous
 62
     3
370
    30
100
AcDbLine
 10
31.23952776173
 20
208.32816778823
 30
0.0
 11
76.14080836699701
 21
253.22944839349
 31
0.0
  0
ARC
  5
761
330
A
100
AcDbEntity
  8
LEVEL001
  6
Continuous
 62
     3
370
    30
100
AcDbCircle
 10
80.383449054113
 20
248.98680770638
 30
0.0
 40
6.0
100
AcDbArc
 50
44.99999999994659
 51
134.9999999999997
  0
LINE
  5
762
330
A
100
AcDbEntity
  8
LEVEL001
  6
Continuous
 62
     3
370
    30
100
AcDbLine
 10
129.5273703465
 20
208.32816778823
 30
0.0
 11
84.626089741236
 21
253.22944839349
 31
0.0
  0
LINE
  5
7E1
330
A
100
AcDbEntity
  8
LEVEL001
  6
Continuous
 62
     6
370
    15
100
AcDbLine
 10
270.71016814036
 20
184.52821725162
 30
0.0
 11
278.71016814036
 21
184.52821725162
 31
0.0
  0
LINE
  5
7E2
330
A
100
AcDbEntity
  8
LEVEL001
  6
Continuous
 62
     6
370
    15
100
AcDbLine
 10
270.71016814036
 20
196.9904338703099
 30
0.0
 11
270.71016814036
 21
183.52821725162
 31
0.0
  0
LINE
  5
7E3
330
A
100
AcDbEntity
  8
LEVEL001
  6
Continuous
 62
     6
370
    15
100
AcDbLine
 10
278.71016814036
 20
193.4904338703099
 30
0.0
 11
278.71016814036
 21
183.52821725162
 31
0.0
  0
CIRCLE
  5
7E4
330
A
100
AcDbEntity
  8
LEVEL001
  6
Continuous
 62
     6
370
    15
100
AcDbCircle
 10
270.71016814036
 20
184.52821725162
 30
0.0
 40
0.4
  0
CIRCLE
  5
7E5
330
A
100
AcDbEntity
  8
LEVEL001
  6
Continuous
 62
     6
370
    15
100
AcDbCircle
 10
278.71016814036
 20
184.52821725162
 30
0.0
 40
0.4
  0
TEXT
  5
7E6
330
A
100
AcDbEntity
  8
LEVEL001
 62
     6
370
    15
100
AcDbText
 10
273.21016814036
 20
185.8139315373299
 30
0.0
 40
3.0
  1
８
 41
0.8
100
AcDbText
  0
LINE
  5
7E7
330
A
100
AcDbEntity
  8
LEVEL001
  6
Continuous
 62
     6
370
    15
100
AcDbLine
 10
198.00524076757
 20
269.49043387031
 30
0.0
 11
198.00524076757
 21
261.49043387031
 31
0.0
  0
LINE
  5
7E8
330
A
100
AcDbEntity
  8
LEVEL001
  6
Continuous
 62
     6
370
    15
100
AcDbLine
 10
202.71016814036
 20
269.49043387031
 30
0.0
 11
197.00524076757
 21
269.49043387031
 31
0.0
  0
LINE
  5
7E9
330
A
100
AcDbEntity
  8
LEVEL001
  6
Continuous
 62
     6
370
    15
100
AcDbLine
 10
206.21016814037
 20
261.49043387031
 30
0.0
 11
197.00524076757
 21
261.49043387031
 31
0.0
  0
CIRCLE
  5
7EA
330
A
100
AcDbEntity
  8
LEVEL001
  6
Continuous
 62
     6
370
    15
100
AcDbCircle
 10
198.00524076757
 20
269.49043387031
 30
0.0
 40
0.4
  0
CIRCLE
  5
7EB
330
A
100
AcDbEntity
  8
LEVEL001
  6
Continuous
 62
     6
370
    15
100
AcDbCircle
 10
198.00524076757
 20
261.49043387031
 30
0.0
 40
0.4
  0
TEXT
  5
7EC
330
A
100
AcDbEntity
  8
LEVEL001
 62
     6
370
    15
100
AcDbText
 10
196.71952648185
 20
263.99043387031
 30
0.0
 40
3.0
  1
８
 50
90.0
 41
0.8
100
AcDbText
  0
LINE
  5
7ED
330
A
100
AcDbEntity
  8
LEVEL001
  6
Continuous
 62
     6
370
    15
100
AcDbLine
 10
289.1862635798
 20
269.49043387031
 30
0.0
 11
289.1862635798
 21
194.49043387031
 31
0.0
  0
LINE
  5
7EE
330
A
100
AcDbEntity
  8
LEVEL001
  6
Continuous
 62
     6
370
    15
100
AcDbLine
 10
279.71016814036
 20
269.49043387031
 30
0.0
 11
290.1862635798
 21
269.49043387031
 31
0.0
  0
LINE
  5
7EF
330
A
100
AcDbEntity
  8
LEVEL001
  6
Continuous
 62
     6
370
    15
100
AcDbLine
 10
279.71016814036
 20
194.49043387031
 30
0.0
 11
290.1862635798
 21
194.49043387031
 31
0.0
  0
CIRCLE
  5
7F0
330
A
100
AcDbEntity
  8
LEVEL001
  6
Continuous
 62
     6
370
    15
100
AcDbCircle
 10
289.1862635798
 20
269.49043387031
 30
0.0
 40
0.4
  0
CIRCLE
  5
7F1
330
A
100
AcDbEntity
  8
LEVEL001
  6
Continuous
 62
     6
370
    15
100
AcDbCircle
 10
289.1862635798
 20
194.49043387031
 30
0.0
 40
0.4
  0
TEXT
  5
7F2
330
A
100
AcDbEntity
  8
LEVEL001
 62
     6
370
    15
100
AcDbText
 10
287.90054929409
 20
228.99043387031
 30
0.0
 40
3.0
  1
７５
 50
90.0
 41
0.8
100
AcDbText
  0
LINE
  5
7F3
330
A
100
AcDbEntity
  8
LEVEL001
  6
Continuous
 62
     6
370
    15
100
AcDbLine
 10
203.71016814036
 20
277.9496474106399
 30
0.0
 11
278.71016814036
 21
277.9496474106399
 31
0.0
  0
LINE
  5
7F4
330
A
100
AcDbEntity
  8
LEVEL001
  6
Continuous
 62
     6
370
    15
100
AcDbLine
 10
203.71016814036
 20
270.49043387031
 30
0.0
 11
203.71016814036
 21
278.94964741064
 31
0.0
  0
LINE
  5
7F5
330
A
100
AcDbEntity
  8
LEVEL001
  6
Continuous
 62
     6
370
    15
100
AcDbLine
 10
278.71016814036
 20
270.49043387031
 30
0.0
 11
278.71016814036
 21
278.94964741064
 31
0.0
  0
CIRCLE
  5
7F6
330
A
100
AcDbEntity
  8
LEVEL001
  6
Continuous
 62
     6
370
    15
100
AcDbCircle
 10
203.71016814036
 20
277.9496474106399
 30
0.0
 40
0.4
  0
CIRCLE
  5
7F7
330
A
100
AcDbEntity
  8
LEVEL001
  6
Continuous
 62
     6
370
    15
100
AcDbCircle
 10
278.71016814036
 20
277.9496474106399
 30
0.0
 40
0.4
  0
TEXT
  5
7F8
330
A
100
AcDbEntity
  8
LEVEL001
 62
     6
370
    15
100
AcDbText
 10
238.21016814036
 20
279.23536169636
 30
0.0
 40
3.0
  1
７５
 41
0.8
100
AcDbText
  0
LINE
  5
7F9
330
A
100
AcDbEntity
  8
LEVEL001
  6
Continuous
 62
     6
370
    15
100
AcDbLine
 10
22.094883584488
 20
212.52306449701
 30
0.0
 11
75.127892173475
 21
265.5560730859999
 31
0.0
  0
LINE
  5
7FA
330
A
100
AcDbEntity
  8
LEVEL001
  6
Continuous
 62
     6
370
    15
100
AcDbLine
 10
26.643333683939
 20
207.97461439755
 30
0.0
 11
21.387776803301
 21
213.23017127819
 31
0.0
  0
LINE
  5
7FB
330
A
100
AcDbEntity
  8
LEVEL001
  6
Continuous
 62
     6
370
    15
100
AcDbLine
 10
79.67634227293
 20
261.00762298655
 30
0.0
 11
74.42078539228799
 21
266.26317986719
 31
0.0
  0
CIRCLE
  5
7FC
330
A
100
AcDbEntity
  8
LEVEL001
  6
Continuous
 62
     6
370
    15
100
AcDbCircle
 10
22.094883584488
 20
212.52306449701
 30
0.0
 40
0.4
  0
CIRCLE
  5
7FD
330
A
100
AcDbEntity
  8
LEVEL001
  6
Continuous
 62
     6
370
    15
100
AcDbCircle
 10
75.127892173475
 20
265.5560730859999
 30
0.0
 40
0.4
  0
TEXT
  5
7FE
330
A
100
AcDbEntity
  8
LEVEL001
 62
     6
370
    15
100
AcDbText
 10
45.959737449532
 20
237.80213192443
 30
0.0
 40
3.0
  1
７５
 50
45.000000000004
 41
0.8
100
AcDbText
  0
LINE
  5
7FF
330
A
100
AcDbEntity
  8
LEVEL001
  6
Continuous
 62
     6
370
    15
100
AcDbLine
 10
27.33423079611
 20
195.93758944848
 30
0.0
 11
21.677376546618
 21
201.59444369797
 31
0.0
  0
LINE
  5
800
330
A
100
AcDbEntity
  8
LEVEL001
  6
Continuous
 62
     6
370
    15
100
AcDbLine
 10
31.236105494155
 20
199.8394641465199
 30
0.0
 11
26.627124014923
 21
195.2304826672899
 31
0.0
  0
LINE
  5
801
330
A
100
AcDbEntity
  8
LEVEL001
  6
Continuous
 62
     6
370
    15
100
AcDbLine
 10
25.579251244662
 20
205.49631839602
 30
0.0
 11
20.970269765431
 21
200.88733691679
 31
0.0
  0
CIRCLE
  5
802
330
A
100
AcDbEntity
  8
LEVEL001
  6
Continuous
 62
     6
370
    15
100
AcDbCircle
 10
27.33423079611
 20
195.93758944848
 30
0.0
 40
0.4
  0
CIRCLE
  5
803
330
A
100
AcDbEntity
  8
LEVEL001
  6
Continuous
 62
     6
370
    15
100
AcDbCircle
 10
21.677376546618
 20
201.59444369797
 30
0.0
 40
0.4
  0
TEXT
  5
804
330
A
100
AcDbEntity
  8
LEVEL001
 62
     6
370
    15
100
AcDbText
 10
24.152250280771
 20
200.53378352619
 30
0.0
 40
3.0
  1
８
 50
315.0
 41
0.8
100
AcDbText
  0
LINE
  5
805
330
A
100
AcDbEntity
  8
LEVEL001
  6
Continuous
 62
     6
370
    15
100
AcDbLine
 10
133.43266731228
 20
195.93758944848
 30
0.0
 11
139.08952156177
 21
201.59444369797
 31
0.0
  0
LINE
  5
806
330
A
100
AcDbEntity
  8
LEVEL001
  6
Continuous
 62
     6
370
    15
100
AcDbLine
 10
129.53079261423
 20
199.8394641465199
 30
0.0
 11
134.13977409347
 21
195.2304826672899
 31
0.0
  0
LINE
  5
807
330
A
100
AcDbEntity
  8
LEVEL001
  6
Continuous
 62
     6
370
    15
100
AcDbLine
 10
135.18764686373
 20
205.49631839602
 30
0.0
 11
139.79662834296
 21
200.88733691679
 31
0.0
  0
CIRCLE
  5
808
330
A
100
AcDbEntity
  8
LEVEL001
  6
Continuous
 62
     6
370
    15
100
AcDbCircle
 10
133.43266731228
 20
195.93758944848
 30
0.0
 40
0.4
  0
CIRCLE
  5
809
330
A
100
AcDbEntity
  8
LEVEL001
  6
Continuous
 62
     6
370
    15
100
AcDbCircle
 10
139.08952156177
 20
201.59444369797
 30
0.0
 40
0.4
  0
TEXT
  5
80A
330
A
100
AcDbEntity
  8
LEVEL001
 62
     6
370
    15
100
AcDbText
 10
134.49332748406
 20
198.4124631826299
 30
0.0
 40
3.0
  1
８
 50
45.0
 41
0.8
100
AcDbText
  0
LINE
  5
80B
330
A
100
AcDbEntity
  8
LEVEL001
  6
Continuous
 62
     6
370
    15
100
AcDbLine
 10
138.6720145239
 20
212.52306449701
 30
0.0
 11
85.63900593491
 21
265.5560730859999
 31
0.0
  0
LINE
  5
80C
330
A
100
AcDbEntity
  8
LEVEL001
  6
Continuous
 62
     6
370
    15
100
AcDbLine
 10
134.12356442445
 20
207.97461439756
 30
0.0
 11
139.37912130509
 21
213.23017127819
 31
0.0
  0
LINE
  5
80D
330
A
100
AcDbEntity
  8
LEVEL001
  6
Continuous
 62
     6
370
    15
100
AcDbLine
 10
81.09055583545901
 20
261.00762298655
 30
0.0
 11
86.34611271609699
 21
266.26317986719
 31
0.0
  0
CIRCLE
  5
80E
330
A
100
AcDbEntity
  8
LEVEL001
  6
Continuous
 62
     6
370
    15
100
AcDbCircle
 10
138.6720145239
 20
212.52306449701
 30
0.0
 40
0.4
  0
CIRCLE
  5
80F
330
A
100
AcDbEntity
  8
LEVEL001
  6
Continuous
 62
     6
370
    15
100
AcDbCircle
 10
85.63900593491
 20
265.5560730859999
 30
0.0
 40
0.4
  0
TEXT
  5
810
330
A
100
AcDbEntity
  8
LEVEL001
 62
     6
370
    15
100
AcDbText
 10
110.91807336233
 20
241.69121922095
 30
0.0
 40
3.0
  1
７５
 50
315.0
 41
0.8
100
AcDbText
  0
LINE
  5
92D
330
A
100
AcDbEntity
  8
LEVEL001
  6
Continuous
 62
     6
370
    15
100
AcDbLine
 10
295.18289520654
 20
133.9833868384699
 30
0.0
 11
295.18289520654
 21
146.51672017165
 31
0.0
  0
LINE
  5
92E
330
A
100
AcDbEntity
  8
LEVEL001
  6
Continuous
 62
     6
370
    15
100
AcDbLine
 10
286.18289520654
 20
133.9833868384699
 30
0.0
 11
296.18289520654
 21
133.9833868384699
 31
0.0
  0
LINE
  5
92F
330
A
100
AcDbEntity
  8
LEVEL001
  6
Continuous
 62
     6
370
    15
100
AcDbLine
 10
286.18289520654
 20
146.51672017165
 30
0.0
 11
296.18289520654
 21
146.51672017165
 31
0.0
  0
CIRCLE
  5
930
330
A
100
AcDbEntity
  8
LEVEL001
  6
Continuous
 62
     6
370
    15
100
AcDbCircle
 10
295.18289520654
 20
133.9833868384699
 30
0.0
 40
0.4
  0
CIRCLE
  5
931
330
A
100
AcDbEntity
  8
LEVEL001
  6
Continuous
 62
     6
370
    15
100
AcDbCircle
 10
295.18289520654
 20
146.51672017165
 30
0.0
 40
0.4
  0
TEXT
  5
932
330
A
100
AcDbEntity
  8
LEVEL001
 62
     6
370
    15
100
AcDbText
 10
294.18289520654
 20
135.62505350506
 30
0.0
 40
3.0
  1
２３.５
 50
90.0
 41
0.8
100
AcDbText
  0
LINE
  5
933
330
A
100
AcDbEntity
  8
LEVEL001
  6
Continuous
 62
     6
370
    15
100
AcDbLine
 10
295.18289520654
 20
57.823160422
 30
0.0
 11
295.18289520654
 21
45.28982708880994
 31
0.0
  0
LINE
  5
934
330
A
100
AcDbEntity
  8
LEVEL001
  6
Continuous
 62
     6
370
    15
100
AcDbLine
 10
286.18289520654
 20
57.823160422
 30
0.0
 11
296.18289520654
 21
57.823160422
 31
0.0
  0
LINE
  5
935
330
A
100
AcDbEntity
  8
LEVEL001
  6
Continuous
 62
     6
370
    15
100
AcDbLine
 10
286.18289520654
 20
45.28982708880994
 30
0.0
 11
296.18289520654
 21
45.28982708880994
 31
0.0
  0
CIRCLE
  5
936
330
A
100
AcDbEntity
  8
LEVEL001
  6
Continuous
 62
     6
370
    15
100
AcDbCircle
 10
295.18289520654
 20
57.823160422
 30
0.0
 40
0.4
  0
CIRCLE
  5
937
330
A
100
AcDbEntity
  8
LEVEL001
  6
Continuous
 62
     6
370
    15
100
AcDbCircle
 10
295.18289520654
 20
45.28982708880994
 30
0.0
 40
0.4
  0
TEXT
  5
938
330
A
100
AcDbEntity
  8
LEVEL001
 62
     6
370
    15
100
AcDbText
 10
294.18289520654
 20
46.93149375540997
 30
0.0
 40
3.0
  1
２３.５
 50
90.0
 41
0.8
100
AcDbText
  0
LINE
  5
940
330
A
100
AcDbEntity
  8
LEVEL001
  6
Continuous
 62
     6
370
    15
100
AcDbLine
 10
285.18289520654
 20
32.14559571534005
 30
0.0
 11
275.18289520654
 21
32.14559571534005
 31
0.0
  0
LINE
  5
941
330
A
100
AcDbEntity
  8
LEVEL001
  6
Continuous
 62
     6
370
    15
100
AcDbLine
 10
285.18289520654
 20
44.28982708880994
 30
0.0
 11
285.18289520654
 21
31.14559571534005
 31
0.0
  0
CIRCLE
  5
942
330
A
100
AcDbEntity
  8
LEVEL001
  6
Continuous
 62
     6
370
    15
100
AcDbCircle
 10
285.18289520654
 20
32.14559571534005
 30
0.0
 40
0.4
  0
TEXT
  5
943
330
A
100
AcDbEntity
  8
LEVEL001
 62
     6
370
    15
100
AcDbText
 10
276.18289520654
 20
33.14559571534005
 30
0.0
 40
3.0
  1
１５０
 41
0.8
100
AcDbText
  0
LINE
  5
944
330
A
100
AcDbEntity
  8
LEVEL001
  6
Continuous
 62
     6
370
    15
100
AcDbLine
 10
275.18289520654
 20
32.14559571534005
 30
0.0
 11
248.51622853987
 21
32.14559571534005
 31
0.0
  0
LINE
  5
945
330
A
100
AcDbEntity
  8
LEVEL001
  6
Continuous
 62
     6
370
    15
100
AcDbLine
 10
275.18289520654
 20
44.28982708880994
 30
0.0
 11
275.18289520654
 21
31.14559571534005
 31
0.0
  0
CIRCLE
  5
946
330
A
100
AcDbEntity
  8
LEVEL001
  6
Continuous
 62
     6
370
    15
100
AcDbCircle
 10
275.18289520654
 20
32.14559571534005
 30
0.0
 40
0.4
  0
TEXT
  5
947
330
A
100
AcDbEntity
  8
LEVEL001
 62
     6
370
    15
100
AcDbText
 10
257.8495618732
 20
33.14559571534005
 30
0.0
 40
3.0
  1
４００
 41
0.8
100
AcDbText
  0
LINE
  5
948
330
A
100
AcDbEntity
  8
LEVEL001
  6
Continuous
 62
     6
370
    15
100
AcDbLine
 10
248.51622853987
 20
32.14559571534005
 30
0.0
 11
221.8495618732
 21
32.14559571534005
 31
0.0
  0
LINE
  5
949
330
A
100
AcDbEntity
  8
LEVEL001
  6
Continuous
 62
     6
370
    15
100
AcDbLine
 10
248.51622853987
 20
44.28982708880994
 30
0.0
 11
248.51622853987
 21
31.14559571534005
 31
0.0
  0
CIRCLE
  5
94A
330
A
100
AcDbEntity
  8
LEVEL001
  6
Continuous
 62
     6
370
    15
100
AcDbCircle
 10
248.51622853987
 20
32.14559571534005
 30
0.0
 40
0.4
  0
TEXT
  5
94B
330
A
100
AcDbEntity
  8
LEVEL001
 62
     6
370
    15
100
AcDbText
 10
231.18289520654
 20
33.14559571534005
 30
0.0
 40
3.0
  1
４００
 41
0.8
100
AcDbText
  0
LINE
  5
94C
330
A
100
AcDbEntity
  8
LEVEL001
  6
Continuous
 62
     6
370
    15
100
AcDbLine
 10
221.8495618732
 20
32.14559571534005
 30
0.0
 11
195.18289520654
 21
32.14559571534005
 31
0.0
  0
LINE
  5
94D
330
A
100
AcDbEntity
  8
LEVEL001
  6
Continuous
 62
     6
370
    15
100
AcDbLine
 10
221.8495618732
 20
44.28982708880994
 30
0.0
 11
221.8495618732
 21
31.14559571534005
 31
0.0
  0
CIRCLE
  5
94E
330
A
100
AcDbEntity
  8
LEVEL001
  6
Continuous
 62
     6
370
    15
100
AcDbCircle
 10
221.8495618732
 20
32.14559571534005
 30
0.0
 40
0.4
  0
TEXT
  5
94F
330
A
100
AcDbEntity
  8
LEVEL001
 62
     6
370
    15
100
AcDbText
 10
204.51622853987
 20
33.14559571534005
 30
0.0
 40
3.0
  1
４００
 41
0.8
100
AcDbText
  0
LINE
  5
950
330
A
100
AcDbEntity
  8
LEVEL001
  6
Continuous
 62
     6
370
    15
100
AcDbLine
 10
195.18289520654
 20
32.14559571534005
 30
0.0
 11
168.51622853987
 21
32.14559571534005
 31
0.0
  0
LINE
  5
951
330
A
100
AcDbEntity
  8
LEVEL001
  6
Continuous
 62
     6
370
    15
100
AcDbLine
 10
195.18289520654
 20
44.28982708880994
 30
0.0
 11
195.18289520654
 21
31.14559571534005
 31
0.0
  0
CIRCLE
  5
952
330
A
100
AcDbEntity
  8
LEVEL001
  6
Continuous
 62
     6
370
    15
100
AcDbCircle
 10
195.18289520654
 20
32.14559571534005
 30
0.0
 40
0.4
  0
TEXT
  5
953
330
A
100
AcDbEntity
  8
LEVEL001
 62
     6
370
    15
100
AcDbText
 10
177.8495618732
 20
33.14559571534005
 30
0.0
 40
3.0
  1
４００
 41
0.8
100
AcDbText
  0
LINE
  5
954
330
A
100
AcDbEntity
  8
LEVEL001
  6
Continuous
 62
     6
370
    15
100
AcDbLine
 10
168.51622853987
 20
32.14559571534005
 30
0.0
 11
141.8495618732
 21
32.14559571534005
 31
0.0
  0
LINE
  5
955
330
A
100
AcDbEntity
  8
LEVEL001
  6
Continuous
 62
     6
370
    15
100
AcDbLine
 10
168.51622853987
 20
44.28982708880994
 30
0.0
 11
168.51622853987
 21
31.14559571534005
 31
0.0
  0
CIRCLE
  5
956
330
A
100
AcDbEntity
  8
LEVEL001
  6
Continuous
 62
     6
370
    15
100
AcDbCircle
 10
168.51622853987
 20
32.14559571534005
 30
0.0
 40
0.4
  0
TEXT
  5
957
330
A
100
AcDbEntity
  8
LEVEL001
 62
     6
370
    15
100
AcDbText
 10
151.18289520654
 20
33.14559571534005
 30
0.0
 40
3.0
  1
４００
 41
0.8
100
AcDbText
  0
LINE
  5
958
330
A
100
AcDbEntity
  8
LEVEL001
  6
Continuous
 62
     6
370
    15
100
AcDbLine
 10
141.8495618732
 20
32.14559571534005
 30
0.0
 11
115.18289520654
 21
32.14559571534005
 31
0.0
  0
LINE
  5
959
330
A
100
AcDbEntity
  8
LEVEL001
  6
Continuous
 62
     6
370
    15
100
AcDbLine
 10
141.8495618732
 20
44.28982708880994
 30
0.0
 11
141.8495618732
 21
31.14559571534005
 31
0.0
  0
CIRCLE
  5
95A
330
A
100
AcDbEntity
  8
LEVEL001
  6
Continuous
 62
     6
370
    15
100
AcDbCircle
 10
141.8495618732
 20
32.14559571534005
 30
0.0
 40
0.4
  0
TEXT
  5
95B
330
A
100
AcDbEntity
  8
LEVEL001
 62
     6
370
    15
100
AcDbText
 10
124.51622853987
 20
33.14559571534005
 30
0.0
 40
3.0
  1
４００
 41
0.8
100
AcDbText
  0
LINE
  5
95C
330
A
100
AcDbEntity
  8
LEVEL001
  6
Continuous
 62
     6
370
    15
100
AcDbLine
 10
115.18289520654
 20
32.14559571534005
 30
0.0
 11
88.51622853987
 21
32.14559571534005
 31
0.0
  0
LINE
  5
95D
330
A
100
AcDbEntity
  8
LEVEL001
  6
Continuous
 62
     6
370
    15
100
AcDbLine
 10
115.18289520654
 20
44.28982708880994
 30
0.0
 11
115.18289520654
 21
31.14559571534005
 31
0.0
  0
CIRCLE
  5
95E
330
A
100
AcDbEntity
  8
LEVEL001
  6
Continuous
 62
     6
370
    15
100
AcDbCircle
 10
115.18289520654
 20
32.14559571534005
 30
0.0
 40
0.4
  0
TEXT
  5
95F
330
A
100
AcDbEntity
  8
LEVEL001
 62
     6
370
    15
100
AcDbText
 10
97.849561873203
 20
33.14559571534005
 30
0.0
 40
3.0
  1
４００
 41
0.8
100
AcDbText
  0
LINE
  5
960
330
A
100
AcDbEntity
  8
LEVEL001
  6
Continuous
 62
     6
370
    15
100
AcDbLine
 10
88.51622853987
 20
32.14559571534005
 30
0.0
 11
78.22387003494601
 21
32.14559571534005
 31
0.0
  0
LINE
  5
961
330
A
100
AcDbEntity
  8
LEVEL001
  6
Continuous
 62
     6
370
    15
100
AcDbLine
 10
88.51622853987
 20
44.28982708880994
 30
0.0
 11
88.51622853987
 21
31.14559571534005
 31
0.0
  0
LINE
  5
962
330
A
100
AcDbEntity
  8
LEVEL001
  6
Continuous
 62
     6
370
    15
100
AcDbLine
 10
85.182895206537
 20
44.28982708880994
 30
0.0
 11
85.182895206537
 21
31.14559571534005
 31
0.0
  0
CIRCLE
  5
963
330
A
100
AcDbEntity
  8
LEVEL001
  6
Continuous
 62
     6
370
    15
100
AcDbCircle
 10
88.51622853987
 20
32.14559571534005
 30
0.0
 40
0.4
  0
CIRCLE
  5
964
330
A
100
AcDbEntity
  8
LEVEL001
  6
Continuous
 62
     6
370
    15
100
AcDbCircle
 10
85.182895206537
 20
32.14559571534005
 30
0.0
 40
0.4
  0
TEXT
  5
965
330
A
100
AcDbEntity
  8
LEVEL001
 62
     6
370
    15
100
AcDbText
 10
78.22387003494601
 20
33.08336090108003
 30
0.0
 40
3.0
  1
５０
 41
0.8
100
AcDbText
  0
LINE
  5
966
330
A
100
AcDbEntity
  8
LEVEL001
  6
Continuous
 62
     6
370
    15
100
AcDbLine
 10
285.18289520654
 20
87.52751700742999
 30
0.0
 11
85.182895206537
 21
87.52751700742999
 31
0.0
  0
LINE
  5
967
330
A
100
AcDbEntity
  8
LEVEL001
  6
Continuous
 62
     6
370
    15
100
AcDbLine
 10
285.18289520654
 20
84.15649375542001
 30
0.0
 11
285.18289520654
 21
88.52751700742999
 31
0.0
  0
LINE
  5
968
330
A
100
AcDbEntity
  8
LEVEL001
  6
Continuous
 62
     6
370
    15
100
AcDbLine
 10
85.182895206537
 20
84.15649375542001
 30
0.0
 11
85.182895206537
 21
88.52751700742999
 31
0.0
  0
CIRCLE
  5
969
330
A
100
AcDbEntity
  8
LEVEL001
  6
Continuous
 62
     6
370
    15
100
AcDbCircle
 10
285.18289520654
 20
87.52751700742999
 30
0.0
 40
0.4
  0
CIRCLE
  5
96A
330
A
100
AcDbEntity
  8
LEVEL001
  6
Continuous
 62
     6
370
    15
100
AcDbCircle
 10
85.182895206537
 20
87.52751700742999
 30
0.0
 40
0.4
  0
TEXT
  5
96B
330
A
100
AcDbEntity
  8
LEVEL001
 62
     6
370
    15
100
AcDbText
 10
179.93289520654
 20
88.52751700742999
 30
0.0
 40
3.0
  1
３０００
 41
0.8
100
AcDbText
  0
LINE
  5
96C
330
A
100
AcDbEntity
  8
LEVEL001
  6
Continuous
 62
     6
370
    15
100
AcDbLine
 10
85.182895206537
 20
101.75232555848
 30
0.0
 11
285.18289520654
 21
101.75232555848
 31
0.0
  0
LINE
  5
96D
330
A
100
AcDbEntity
  8
LEVEL001
  6
Continuous
 62
     6
370
    15
100
AcDbLine
 10
85.182895206537
 20
107.65005350505
 30
0.0
 11
85.182895206537
 21
100.75232555848
 31
0.0
  0
LINE
  5
96E
330
A
100
AcDbEntity
  8
LEVEL001
  6
Continuous
 62
     6
370
    15
100
AcDbLine
 10
285.18289520654
 20
107.65005350505
 30
0.0
 11
285.18289520654
 21
100.75232555848
 31
0.0
  0
CIRCLE
  5
96F
330
A
100
AcDbEntity
  8
LEVEL001
  6
Continuous
 62
     6
370
    15
100
AcDbCircle
 10
85.182895206537
 20
101.75232555848
 30
0.0
 40
0.4
  0
CIRCLE
  5
970
330
A
100
AcDbEntity
  8
LEVEL001
  6
Continuous
 62
     6
370
    15
100
AcDbCircle
 10
285.18289520654
 20
101.75232555848
 30
0.0
 40
0.4
  0
TEXT
  5
971
330
A
100
AcDbEntity
  8
LEVEL001
 62
     6
370
    15
100
AcDbText
 10
179.93289520654
 20
102.75232555848
 30
0.0
 40
3.0
  1
３０００
 41
0.8
100
AcDbText
  0
LINE
  5
979
330
A
100
AcDbEntity
  8
LEVEL001
  6
Continuous
 62
     6
370
    15
100
AcDbLine
 10
85.182895206537
 20
157.5135750785899
 30
0.0
 11
95.182895206537
 21
157.5135750785899
 31
0.0
  0
LINE
  5
97A
330
A
100
AcDbEntity
  8
LEVEL001
  6
Continuous
 62
     6
370
    15
100
AcDbLine
 10
85.182895206537
 20
147.51672017165
 30
0.0
 11
85.182895206537
 21
158.5135750785899
 31
0.0
  0
CIRCLE
  5
97B
330
A
100
AcDbEntity
  8
LEVEL001
  6
Continuous
 62
     6
370
    15
100
AcDbCircle
 10
85.182895206537
 20
157.5135750785899
 30
0.0
 40
0.4
  0
TEXT
  5
97C
330
A
100
AcDbEntity
  8
LEVEL001
 62
     6
370
    15
100
AcDbText
 10
86.182895206537
 20
158.5135750785899
 30
0.0
 40
3.0
  1
１５０
 41
0.8
100
AcDbText
  0
LINE
  5
97D
330
A
100
AcDbEntity
  8
LEVEL001
  6
Continuous
 62
     6
370
    15
100
AcDbLine
 10
95.182895206537
 20
157.5135750785899
 30
0.0
 11
121.8495618732
 21
157.5135750785899
 31
0.0
  0
LINE
  5
97E
330
A
100
AcDbEntity
  8
LEVEL001
  6
Continuous
 62
     6
370
    15
100
AcDbLine
 10
95.182895206537
 20
147.51672017165
 30
0.0
 11
95.182895206537
 21
158.5135750785899
 31
0.0
  0
CIRCLE
  5
97F
330
A
100
AcDbEntity
  8
LEVEL001
  6
Continuous
 62
     6
370
    15
100
AcDbCircle
 10
95.182895206537
 20
157.5135750785899
 30
0.0
 40
0.4
  0
TEXT
  5
980
330
A
100
AcDbEntity
  8
LEVEL001
 62
     6
370
    15
100
AcDbText
 10
104.51622853987
 20
158.5135750785899
 30
0.0
 40
3.0
  1
４００
 41
0.8
100
AcDbText
  0
LINE
  5
981
330
A
100
AcDbEntity
  8
LEVEL001
  6
Continuous
 62
     6
370
    15
100
AcDbLine
 10
121.8495618732
 20
157.5135750785899
 30
0.0
 11
148.51622853987
 21
157.5135750785899
 31
0.0
  0
LINE
  5
982
330
A
100
AcDbEntity
  8
LEVEL001
  6
Continuous
 62
     6
370
    15
100
AcDbLine
 10
121.8495618732
 20
147.51672017165
 30
0.0
 11
121.8495618732
 21
158.5135750785899
 31
0.0
  0
CIRCLE
  5
983
330
A
100
AcDbEntity
  8
LEVEL001
  6
Continuous
 62
     6
370
    15
100
AcDbCircle
 10
121.8495618732
 20
157.5135750785899
 30
0.0
 40
0.4
  0
TEXT
  5
984
330
A
100
AcDbEntity
  8
LEVEL001
 62
     6
370
    15
100
AcDbText
 10
131.18289520654
 20
158.5135750785899
 30
0.0
 40
3.0
  1
４００
 41
0.8
100
AcDbText
  0
LINE
  5
985
330
A
100
AcDbEntity
  8
LEVEL001
  6
Continuous
 62
     6
370
    15
100
AcDbLine
 10
148.51622853987
 20
157.5135750785899
 30
0.0
 11
175.18289520654
 21
157.5135750785899
 31
0.0
  0
LINE
  5
986
330
A
100
AcDbEntity
  8
LEVEL001
  6
Continuous
 62
     6
370
    15
100
AcDbLine
 10
148.51622853987
 20
147.51672017165
 30
0.0
 11
148.51622853987
 21
158.5135750785899
 31
0.0
  0
CIRCLE
  5
987
330
A
100
AcDbEntity
  8
LEVEL001
  6
Continuous
 62
     6
370
    15
100
AcDbCircle
 10
148.51622853987
 20
157.5135750785899
 30
0.0
 40
0.4
  0
TEXT
  5
988
330
A
100
AcDbEntity
  8
LEVEL001
 62
     6
370
    15
100
AcDbText
 10
157.8495618732
 20
158.5135750785899
 30
0.0
 40
3.0
  1
４００
 41
0.8
100
AcDbText
  0
LINE
  5
989
330
A
100
AcDbEntity
  8
LEVEL001
  6
Continuous
 62
     6
370
    15
100
AcDbLine
 10
175.18289520654
 20
157.5135750785899
 30
0.0
 11
201.8495618732
 21
157.5135750785899
 31
0.0
  0
LINE
  5
98A
330
A
100
AcDbEntity
  8
LEVEL001
  6
Continuous
 62
     6
370
    15
100
AcDbLine
 10
175.18289520654
 20
147.51672017165
 30
0.0
 11
175.18289520654
 21
158.5135750785899
 31
0.0
  0
CIRCLE
  5
98B
330
A
100
AcDbEntity
  8
LEVEL001
  6
Continuous
 62
     6
370
    15
100
AcDbCircle
 10
175.18289520654
 20
157.5135750785899
 30
0.0
 40
0.4
  0
TEXT
  5
98C
330
A
100
AcDbEntity
  8
LEVEL001
 62
     6
370
    15
100
AcDbText
 10
184.51622853987
 20
158.5135750785899
 30
0.0
 40
3.0
  1
４００
 41
0.8
100
AcDbText
  0
LINE
  5
98D
330
A
100
AcDbEntity
  8
LEVEL001
  6
Continuous
 62
     6
370
    15
100
AcDbLine
 10
201.8495618732
 20
157.5135750785899
 30
0.0
 11
228.51622853987
 21
157.5135750785899
 31
0.0
  0
LINE
  5
98E
330
A
100
AcDbEntity
  8
LEVEL001
  6
Continuous
 62
     6
370
    15
100
AcDbLine
 10
201.8495618732
 20
147.51672017165
 30
0.0
 11
201.8495618732
 21
158.5135750785899
 31
0.0
  0
CIRCLE
  5
98F
330
A
100
AcDbEntity
  8
LEVEL001
  6
Continuous
 62
     6
370
    15
100
AcDbCircle
 10
201.8495618732
 20
157.5135750785899
 30
0.0
 40
0.4
  0
TEXT
  5
990
330
A
100
AcDbEntity
  8
LEVEL001
 62
     6
370
    15
100
AcDbText
 10
211.18289520654
 20
158.5135750785899
 30
0.0
 40
3.0
  1
４００
 41
0.8
100
AcDbText
  0
LINE
  5
991
330
A
100
AcDbEntity
  8
LEVEL001
  6
Continuous
 62
     6
370
    15
100
AcDbLine
 10
228.51622853987
 20
157.5135750785899
 30
0.0
 11
255.18289520654
 21
157.5135750785899
 31
0.0
  0
LINE
  5
992
330
A
100
AcDbEntity
  8
LEVEL001
  6
Continuous
 62
     6
370
    15
100
AcDbLine
 10
228.51622853987
 20
147.51672017165
 30
0.0
 11
228.51622853987
 21
158.5135750785899
 31
0.0
  0
CIRCLE
  5
993
330
A
100
AcDbEntity
  8
LEVEL001
  6
Continuous
 62
     6
370
    15
100
AcDbCircle
 10
228.51622853987
 20
157.5135750785899
 30
0.0
 40
0.4
  0
TEXT
  5
994
330
A
100
AcDbEntity
  8
LEVEL001
 62
     6
370
    15
100
AcDbText
 10
237.8495618732
 20
158.5135750785899
 30
0.0
 40
3.0
  1
４００
 41
0.8
100
AcDbText
  0
LINE
  5
995
330
A
100
AcDbEntity
  8
LEVEL001
  6
Continuous
 62
     6
370
    15
100
AcDbLine
 10
255.18289520654
 20
157.5135750785899
 30
0.0
 11
281.8495618732
 21
157.5135750785899
 31
0.0
  0
LINE
  5
996
330
A
100
AcDbEntity
  8
LEVEL001
  6
Continuous
 62
     6
370
    15
100
AcDbLine
 10
255.18289520654
 20
147.51672017165
 30
0.0
 11
255.18289520654
 21
158.5135750785899
 31
0.0
  0
CIRCLE
  5
997
330
A
100
AcDbEntity
  8
LEVEL001
  6
Continuous
 62
     6
370
    15
100
AcDbCircle
 10
255.18289520654
 20
157.5135750785899
 30
0.0
 40
0.4
  0
TEXT
  5
998
330
A
100
AcDbEntity
  8
LEVEL001
 62
     6
370
    15
100
AcDbText
 10
264.51622853987
 20
158.5135750785899
 30
0.0
 40
3.0
  1
４００
 41
0.8
100
AcDbText
  0
LINE
  5
999
330
A
100
AcDbEntity
  8
LEVEL001
  6
Continuous
 62
     6
370
    15
100
AcDbLine
 10
281.8495618732
 20
157.5135750785899
 30
0.0
 11
292.6994215196
 21
157.5135750785899
 31
0.0
  0
LINE
  5
99A
330
A
100
AcDbEntity
  8
LEVEL001
  6
Continuous
 62
     6
370
    15
100
AcDbLine
 10
281.8495618732
 20
147.51672017165
 30
0.0
 11
281.8495618732
 21
158.5135750785899
 31
0.0
  0
LINE
  5
99B
330
A
100
AcDbEntity
  8
LEVEL001
  6
Continuous
 62
     6
370
    15
100
AcDbLine
 10
285.18289520654
 20
147.51672017165
 30
0.0
 11
285.18289520654
 21
158.5135750785899
 31
0.0
  0
CIRCLE
  5
99C
330
A
100
AcDbEntity
  8
LEVEL001
  6
Continuous
 62
     6
370
    15
100
AcDbCircle
 10
281.8495618732
 20
157.5135750785899
 30
0.0
 40
0.4
  0
CIRCLE
  5
99D
330
A
100
AcDbEntity
  8
LEVEL001
  6
Continuous
 62
     6
370
    15
100
AcDbCircle
 10
285.18289520654
 20
157.5135750785899
 30
0.0
 40
0.4
  0
TEXT
  5
99E
330
A
100
AcDbEntity
  8
LEVEL001
 62
     6
370
    15
100
AcDbText
 10
287.1994215196
 20
158.53237962458
 30
0.0
 40
3.0
  1
５０
 41
0.8
100
AcDbText
  0
LINE
  5
99F
330
A
100
AcDbEntity
  8
LEVEL001
  6
Continuous
 62
     6
370
    15
100
AcDbLine
 10
66.55410724038801
 20
133.98338683838
 30
0.0
 11
66.55410724038801
 21
146.51672017165
 31
0.0
  0
LINE
  5
9A0
330
A
100
AcDbEntity
  8
LEVEL001
  6
Continuous
 62
     6
370
    15
100
AcDbLine
 10
61.31517902512
 20
133.98338683838
 30
0.0
 11
67.554107240388
 21
133.98338683838
 31
0.0
  0
LINE
  5
9A1
330
A
100
AcDbEntity
  8
LEVEL001
  6
Continuous
 62
     6
370
    15
100
AcDbLine
 10
58.77419089815
 20
146.51672017165
 30
0.0
 11
67.554107240388
 21
146.51672017165
 31
0.0
  0
CIRCLE
  5
9A2
330
A
100
AcDbEntity
  8
LEVEL001
  6
Continuous
 62
     6
370
    15
100
AcDbCircle
 10
66.55410724038801
 20
133.98338683838
 30
0.0
 40
0.4
  0
CIRCLE
  5
9A3
330
A
100
AcDbEntity
  8
LEVEL001
  6
Continuous
 62
     6
370
    15
100
AcDbCircle
 10
66.55410724038801
 20
146.51672017165
 30
0.0
 40
0.4
  0
TEXT
  5
9A4
330
A
100
AcDbEntity
  8
LEVEL001
 62
     6
370
    15
100
AcDbText
 10
65.554107240388
 20
135.62505350501
 30
0.0
 40
3.0
  1
２３.５
 50
90.0
 41
0.8
100
AcDbText
  0
LINE
  5
9A5
330
A
100
AcDbEntity
  8
LEVEL001
  6
Continuous
 62
     6
370
    15
100
AcDbLine
 10
73.524263430402
 20
111.0500535050499
 30
0.0
 11
73.524263430402
 21
146.51672017165
 31
0.0
  0
LINE
  5
9A6
330
A
100
AcDbEntity
  8
LEVEL001
  6
Continuous
 62
     6
370
    15
100
AcDbLine
 10
56.64085756496501
 20
111.0500535050499
 30
0.0
 11
74.524263430402
 21
111.0500535050499
 31
0.0
  0
LINE
  5
9A7
330
A
100
AcDbEntity
  8
LEVEL001
  6
Continuous
 62
     6
370
    15
100
AcDbLine
 10
67.57419089825799
 20
146.51672017165
 30
0.0
 11
74.524263430402
 21
146.51672017165
 31
0.0
  0
CIRCLE
  5
9A8
330
A
100
AcDbEntity
  8
LEVEL001
  6
Continuous
 62
     6
370
    15
100
AcDbCircle
 10
73.524263430402
 20
111.0500535050499
 30
0.0
 40
0.4
  0
CIRCLE
  5
9A9
330
A
100
AcDbEntity
  8
LEVEL001
  6
Continuous
 62
     6
370
    15
100
AcDbCircle
 10
73.524263430402
 20
146.51672017165
 30
0.0
 40
0.4
  0
TEXT
  5
9AA
330
A
100
AcDbEntity
  8
LEVEL001
 62
     6
370
    15
100
AcDbText
 10
72.524263430402
 20
124.15838683835
 30
0.0
 40
3.0
  1
６６.５
 50
90.0
 41
0.8
100
AcDbText
  0
LINE
  5
9AB
330
A
100
AcDbEntity
  8
LEVEL001
  6
Continuous
 62
     6
370
    15
100
AcDbLine
 10
66.55410724038801
 20
57.82316042209004
 30
0.0
 11
66.55410724038801
 21
45.28982708880994
 31
0.0
  0
LINE
  5
9AC
330
A
100
AcDbEntity
  8
LEVEL001
  6
Continuous
 62
     6
370
    15
100
AcDbLine
 10
61.31517902512
 20
57.82316042209004
 30
0.0
 11
67.554107240388
 21
57.82316042209004
 31
0.0
  0
LINE
  5
9AD
330
A
100
AcDbEntity
  8
LEVEL001
  6
Continuous
 62
     6
370
    15
100
AcDbLine
 10
58.77419089815
 20
45.28982708880994
 30
0.0
 11
67.554107240388
 21
45.28982708880994
 31
0.0
  0
CIRCLE
  5
9AE
330
A
100
AcDbEntity
  8
LEVEL001
  6
Continuous
 62
     6
370
    15
100
AcDbCircle
 10
66.55410724038801
 20
57.82316042209004
 30
0.0
 40
0.4
  0
CIRCLE
  5
9AF
330
A
100
AcDbEntity
  8
LEVEL001
  6
Continuous
 62
     6
370
    15
100
AcDbCircle
 10
66.55410724038801
 20
45.28982708880994
 30
0.0
 40
0.4
  0
TEXT
  5
9B0
330
A
100
AcDbEntity
  8
LEVEL001
 62
     6
370
    15
100
AcDbText
 10
65.554107240388
 20
46.93149375544999
 30
0.0
 40
3.0
  1
２３.５
 50
90.0
 41
0.8
100
AcDbText
  0
LINE
  5
9B1
330
A
100
AcDbEntity
  8
LEVEL001
  6
Continuous
 62
     6
370
    15
100
AcDbLine
 10
73.524263430402
 20
80.75649375542003
 30
0.0
 11
73.524263430402
 21
45.28982708880994
 31
0.0
  0
LINE
  5
9B2
330
A
100
AcDbEntity
  8
LEVEL001
  6
Continuous
 62
     6
370
    15
100
AcDbLine
 10
56.64085756496501
 20
80.75649375542003
 30
0.0
 11
74.524263430402
 21
80.75649375542003
 31
0.0
  0
LINE
  5
9B3
330
A
100
AcDbEntity
  8
LEVEL001
  6
Continuous
 62
     6
370
    15
100
AcDbLine
 10
67.57419089825799
 20
45.28982708880994
 30
0.0
 11
74.524263430402
 21
45.28982708880994
 31
0.0
  0
CIRCLE
  5
9B4
330
A
100
AcDbEntity
  8
LEVEL001
  6
Continuous
 62
     6
370
    15
100
AcDbCircle
 10
73.524263430402
 20
80.75649375542003
 30
0.0
 40
0.4
  0
CIRCLE
  5
9B5
330
A
100
AcDbEntity
  8
LEVEL001
  6
Continuous
 62
     6
370
    15
100
AcDbCircle
 10
73.524263430402
 20
45.28982708880994
 30
0.0
 40
0.4
  0
TEXT
  5
9B6
330
A
100
AcDbEntity
  8
LEVEL001
 62
     6
370
    15
100
AcDbText
 10
72.524263430402
 20
58.39816042211999
 30
0.0
 40
3.0
  1
６６.５
 50
90.0
 41
0.8
100
AcDbText
  0
HATCH
  5
AC3
330
A
100
AcDbEntity
  8
LEVEL001
  6
Continuous
100
AcDbHatch
 10
0.0
 20
0.0
 30
0.0
210
0.0
220
0.0
230
1.0
  2
SOLID
 70
     1
 71
     0
 91
        9
 92
        7
 72
     0
 73
     1
 93
        6
 10
324.45000000004
 20
280.475
 10
319.05000000004
 20
280.475
 10
312.65000000004
 20
270.875
 10
319.05000000004
 20
261.275
 10
324.45000000004
 20
261.275
 10
318.05000000004
 20
270.875
 97
        0
 92
        7
 72
     0
 73
     1
 93
        6
 10
332.55000000004
 20
280.475
 10
327.15000000004
 20
280.475
 10
320.75000000004
 20
270.875
 10
327.15000000004
 20
261.275
 10
332.55000000004
 20
261.275
 10
326.15000000004
 20
270.875
 97
        0
 92
        7
 72
     0
 73
     1
 93
        3
 10
333.35000000004
 20
270.875
 10
328.85000000004
 20
270.875
 10
333.35000000004
 20
263.675
 97
        0
 92
        7
 72
     1
 73
     1
 93
        6
 10
344.15000000004
 20
272.0750000000001
 42
0.0
 10
336.95000000004
 20
272.0750000000001
 42
0.0
 10
336.95000000004
 20
261.275
 42
0.0
 10
340.55000000004
 20
261.275
 42
0.0
 10
340.55000000004
 20
263.075
 42
0.0
 10
344.15000000004
 20
263.075
 42
1.0
 97
        0
 92
       22
 72
     1
 73
     1
 93
        4
 10
344.15000000004
 20
268.4749999999999
 42
-1.0
 10
344.15000000004
 20
266.6749999999999
 42
0.0
 10
340.55000000004
 20
266.6749999999999
 42
0.0
 10
340.55000000004
 20
268.475
 42
0.0
 97
        0
 92
        7
 72
     0
 73
     1
 93
        4
 10
358.55000000004
 20
272.0750000000001
 10
353.15000000004
 20
272.0750000000001
 10
345.95000000004
 20
261.275
 10
351.35000000004
 20
261.275
 97
        0
 92
       23
 72
     0
 73
     1
 93
        3
 10
357.35000000004
 20
268.11166923472
 10
352.79222051023
 20
261.275
 10
357.35000000004
 20
261.275
 97
        0
 92
        7
 72
     0
 73
     1
 93
       22
 10
371.15000000004
 20
268.475
 10
374.75000000004
 20
268.475
 10
374.75000000004
 20
261.275
 10
385.55000000004
 20
261.275
 10
385.55000000004
 20
264.875
 10
378.35000000004
 20
264.875
 10
378.35000000004
 20
265.775
 10
384.65000000004
 20
265.775
 10
384.65000000004
 20
267.575
 10
378.35000000004
 20
267.575
 10
378.35000000004
 20
268.475
 10
385.55000000004
 20
268.475
 10
385.55000000004
 20
272.0750000000001
 10
363.95000000004
 20
272.0750000000001
 10
363.95000000004
 20
268.475
 10
367.55000000004
 20
268.475
 10
367.55000000004
 20
264.875
 10
362.15000000004
 20
264.875
 10
362.15000000004
 20
272.0750000000001
 10
358.55000000004
 20
272.0750000000001
 10
358.55000000004
 20
261.275
 10
371.15000000004
 20
261.275
 97
        0
 92
        7
 72
     1
 73
     1
 93
        8
 10
396.35000000004
 20
264.875
 42
0.0
 10
390.95000000004
 20
264.875
 42
-1.0
 10
390.95000000004
 20
268.475
 42
0.0
 10
396.35000000004
 20
268.475
 42
0.0
 10
396.35000000004
 20
272.0750000000001
 42
0.0
 10
390.95000000004
 20
272.0750000000001
 42
1.0
 10
390.95000000004
 20
261.2750000000001
 42
0.0
 10
396.35000000004
 20
261.275
 42
0.0
 97
        0
 75
     1
 76
     1
 47
0.1768692574943107
 98
        9
 10
316.3028085384976
 20
271.1438256596732
 10
326.0377771801086
 20
271.1438256596732
 10
331.5247606487755
 20
269.3751313677205
 10
342.1447340622563
 20
269.3751313677205
 10
342.1447340622563
 20
269.3751313677205
 10
352.7647032832892
 20
264.599661457338
 10
355.7736943529599
 20
263.1847069148023
 10
364.6236666075974
 20
263.0078381538772
 10
394.359579588001
 20
263.0078381538772
1001
GradientColor1ACI
1070
     5
1001
GradientColor2ACI
1070
     2
1001
ACAD
1010
0.0
1020
0.0
1030
0.0
  0
LWPOLYLINE
  5
AC4
330
A
100
AcDbEntity
  8
LEVEL001
  6
Continuous
 62
     3
100
AcDbPolyline
 90
        6
 70
     0
 43
0.0
 10
344.15000000004
 20
272.0750000000001
 10
336.95000000004
 20
272.0750000000001
 10
336.95000000004
 20
261.275
 10
340.55000000004
 20
261.275
 10
340.55000000004
 20
263.075
 10
344.15000000004
 20
263.075
  0
ARC
  5
AC5
330
A
100
AcDbEntity
  8
LEVEL001
  6
Continuous
 62
     3
100
AcDbCircle
 10
344.15000000004
 20
267.575
 30
0.0
 40
4.5
100
AcDbArc
 50
270.0
 51
90.0
  0
LINE
  5
AC6
330
A
100
AcDbEntity
  8
LEVEL001
  6
Continuous
 62
     3
100
AcDbLine
 10
340.55000000004
 20
266.6749999999999
 30
0.0
 11
344.15000000004
 21
266.6749999999999
 31
0.0
  0
ARC
  5
AC7
330
A
100
AcDbEntity
  8
LEVEL001
  6
Continuous
 62
     3
100
AcDbCircle
 10
344.15000000004
 20
267.575
 30
0.0
 40
0.9
100
AcDbArc
 50
270.0
 51
90.0
  0
LINE
  5
AC8
330
A
100
AcDbEntity
  8
LEVEL001
  6
Continuous
 62
     3
100
AcDbLine
 10
344.15000000004
 20
268.475
 30
0.0
 11
340.55000000004
 21
268.475
 31
0.0
  0
LINE
  5
AC9
330
A
100
AcDbEntity
  8
LEVEL001
  6
Continuous
 62
     3
100
AcDbLine
 10
340.55000000004
 20
268.475
 30
0.0
 11
340.55000000004
 21
266.6749999999999
 31
0.0
  0
LWPOLYLINE
  5
ACA
330
A
100
AcDbEntity
  8
LEVEL001
  6
Continuous
 62
     3
100
AcDbPolyline
 90
       26
 70
     0
 43
0.0
 10
345.95000000004
 20
261.275
 10
353.15000000004
 20
272.0750000000001
 10
362.15000000004
 20
272.0750000000001
 10
362.15000000004
 20
264.875
 10
367.55000000004
 20
264.875
 10
367.55000000004
 20
268.475
 10
363.95000000004
 20
268.475
 10
363.95000000004
 20
272.0750000000001
 10
385.55000000004
 20
272.0750000000001
 10
385.55000000004
 20
268.475
 10
378.35000000004
 20
268.475
 10
378.35000000004
 20
267.575
 10
384.65000000004
 20
267.575
 10
384.65000000004
 20
265.775
 10
378.35000000004
 20
265.775
 10
378.35000000004
 20
264.875
 10
385.55000000004
 20
264.875
 10
385.55000000004
 20
261.275
 10
374.75000000004
 20
261.275
 10
374.75000000004
 20
268.475
 10
371.15000000004
 20
268.475
 10
371.15000000004
 20
261.275
 10
358.55000000004
 20
261.275
 10
358.55000000004
 20
272.0750000000001
 10
351.35000000004
 20
261.275
 10
345.95000000004
 20
261.275
  0
LWPOLYLINE
  5
ACB
330
A
100
AcDbEntity
  8
LEVEL001
  6
Continuous
 62
     3
100
AcDbPolyline
 90
        4
 70
     0
 43
0.0
 10
357.35000000004
 20
268.11166923472
 10
352.79222051023
 20
261.275
 10
357.35000000004
 20
261.275
 10
357.35000000004
 20
268.11166923472
  0
ARC
  5
ACC
330
A
100
AcDbEntity
  8
LEVEL001
  6
Continuous
 62
     3
100
AcDbCircle
 10
390.95000000004
 20
266.6749999999999
 30
0.0
 40
5.4
100
AcDbArc
 50
90.0
 51
270.0
  0
ARC
  5
ACD
330
A
100
AcDbEntity
  8
LEVEL001
  6
Continuous
 62
     3
100
AcDbCircle
 10
390.95000000004
 20
266.6749999999999
 30
0.0
 40
1.8
100
AcDbArc
 50
90.0
 51
270.0
  0
LWPOLYLINE
  5
ACE
330
A
100
AcDbEntity
  8
LEVEL001
  6
Continuous
 62
     3
100
AcDbPolyline
 90
        4
 70
     0
 43
0.0
 10
390.95000000004
 20
272.0750000000001
 10
396.35000000004
 20
272.0750000000001
 10
396.35000000004
 20
268.475
 10
390.95000000004
 20
268.475
  0
LINE
  5
ACF
330
A
100
AcDbEntity
  8
LEVEL001
  6
Continuous
 62
     3
100
AcDbLine
 10
336.95000000004
 20
272.0750000000001
 30
0.0
 11
336.95000000004
 21
261.275
 31
0.0
  0
LINE
  5
AD0
330
A
100
AcDbEntity
  8
LEVEL001
  6
Continuous
 62
     3
100
AcDbLine
 10
336.95000000004
 20
261.275
 30
0.0
 11
340.55000000004
 21
261.275
 31
0.0
  0
LINE
  5
AD1
330
A
100
AcDbEntity
  8
LEVEL001
  6
Continuous
 62
     3
100
AcDbLine
 10
340.55000000004
 20
261.275
 30
0.0
 11
340.55000000004
 21
263.075
 31
0.0
  0
LINE
  5
AD2
330
A
100
AcDbEntity
  8
LEVEL001
  6
Continuous
 62
     3
100
AcDbLine
 10
340.55000000004
 20
263.075
 30
0.0
 11
344.15000000004
 21
263.075
 31
0.0
  0
ARC
  5
AD3
330
A
100
AcDbEntity
  8
LEVEL001
  6
Continuous
 62
     3
100
AcDbCircle
 10
344.15000000004
 20
267.575
 30
0.0
 40
4.5
100
AcDbArc
 50
270.0
 51
90.0
  0
LINE
  5
AD4
330
A
100
AcDbEntity
  8
LEVEL001
  6
Continuous
 62
     3
100
AcDbLine
 10
344.15000000004
 20
272.0750000000001
 30
0.0
 11
336.95000000004
 21
272.0750000000001
 31
0.0
  0
LINE
  5
AD5
330
A
100
AcDbEntity
  8
LEVEL001
  6
Continuous
 62
     3
100
AcDbLine
 10
340.55000000004
 20
268.475
 30
0.0
 11
340.55000000004
 21
266.6749999999999
 31
0.0
  0
LINE
  5
AD6
330
A
100
AcDbEntity
  8
LEVEL001
  6
Continuous
 62
     3
100
AcDbLine
 10
340.55000000004
 20
266.6749999999999
 30
0.0
 11
344.15000000004
 21
266.6749999999999
 31
0.0
  0
ARC
  5
AD7
330
A
100
AcDbEntity
  8
LEVEL001
  6
Continuous
 62
     3
100
AcDbCircle
 10
344.15000000004
 20
267.575
 30
0.0
 40
0.9
100
AcDbArc
 50
270.0
 51
90.0
  0
LINE
  5
AD8
330
A
100
AcDbEntity
  8
LEVEL001
  6
Continuous
 62
     3
100
AcDbLine
 10
344.15000000004
 20
268.475
 30
0.0
 11
340.55000000004
 21
268.475
 31
0.0
  0
LINE
  5
AD9
330
A
100
AcDbEntity
  8
LEVEL001
  6
Continuous
 62
     3
100
AcDbLine
 10
353.15000000004
 20
272.0750000000001
 30
0.0
 11
345.95000000004
 21
261.275
 31
0.0
  0
LINE
  5
ADA
330
A
100
AcDbEntity
  8
LEVEL001
  6
Continuous
 62
     3
100
AcDbLine
 10
345.95000000004
 20
261.275
 30
0.0
 11
351.35000000004
 21
261.275
 31
0.0
  0
LINE
  5
ADB
330
A
100
AcDbEntity
  8
LEVEL001
  6
Continuous
 62
     3
100
AcDbLine
 10
351.35000000004
 20
261.275
 30
0.0
 11
358.55000000004
 21
272.0750000000001
 31
0.0
  0
LINE
  5
ADC
330
A
100
AcDbEntity
  8
LEVEL001
  6
Continuous
 62
     3
100
AcDbLine
 10
358.55000000004
 20
272.0750000000001
 30
0.0
 11
353.15000000004
 21
272.0750000000001
 31
0.0
  0
LINE
  5
ADD
330
A
100
AcDbEntity
  8
LEVEL001
  6
Continuous
 62
     3
100
AcDbLine
 10
357.35000000004
 20
261.275
 30
0.0
 11
357.35000000004
 21
268.11166923472
 31
0.0
  0
LINE
  5
ADE
330
A
100
AcDbEntity
  8
LEVEL001
  6
Continuous
 62
     3
100
AcDbLine
 10
357.35000000004
 20
268.11166923472
 30
0.0
 11
352.79222051023
 21
261.275
 31
0.0
  0
LINE
  5
ADF
330
A
100
AcDbEntity
  8
LEVEL001
  6
Continuous
 62
     3
100
AcDbLine
 10
352.79222051023
 20
261.275
 30
0.0
 11
357.35000000004
 21
261.275
 31
0.0
  0
LINE
  5
AE0
330
A
100
AcDbEntity
  8
LEVEL001
  6
Continuous
 62
     3
100
AcDbLine
 10
358.55000000004
 20
261.275
 30
0.0
 11
371.15000000004
 21
261.275
 31
0.0
  0
LINE
  5
AE1
330
A
100
AcDbEntity
  8
LEVEL001
  6
Continuous
 62
     3
100
AcDbLine
 10
371.15000000004
 20
261.275
 30
0.0
 11
371.15000000004
 21
268.475
 31
0.0
  0
LINE
  5
AE2
330
A
100
AcDbEntity
  8
LEVEL001
  6
Continuous
 62
     3
100
AcDbLine
 10
371.15000000004
 20
268.475
 30
0.0
 11
374.75000000004
 21
268.475
 31
0.0
  0
LINE
  5
AE3
330
A
100
AcDbEntity
  8
LEVEL001
  6
Continuous
 62
     3
100
AcDbLine
 10
374.75000000004
 20
268.475
 30
0.0
 11
374.75000000004
 21
261.275
 31
0.0
  0
LINE
  5
AE4
330
A
100
AcDbEntity
  8
LEVEL001
  6
Continuous
 62
     3
100
AcDbLine
 10
374.75000000004
 20
261.275
 30
0.0
 11
385.55000000004
 21
261.275
 31
0.0
  0
LINE
  5
AE5
330
A
100
AcDbEntity
  8
LEVEL001
  6
Continuous
 62
     3
100
AcDbLine
 10
385.55000000004
 20
261.275
 30
0.0
 11
385.55000000004
 21
264.875
 31
0.0
  0
LINE
  5
AE6
330
A
100
AcDbEntity
  8
LEVEL001
  6
Continuous
 62
     3
100
AcDbLine
 10
385.55000000004
 20
264.875
 30
0.0
 11
378.35000000004
 21
264.875
 31
0.0
  0
LINE
  5
AE7
330
A
100
AcDbEntity
  8
LEVEL001
  6
Continuous
 62
     3
100
AcDbLine
 10
378.35000000004
 20
264.875
 30
0.0
 11
378.35000000004
 21
265.775
 31
0.0
  0
LINE
  5
AE8
330
A
100
AcDbEntity
  8
LEVEL001
  6
Continuous
 62
     3
100
AcDbLine
 10
378.35000000004
 20
265.775
 30
0.0
 11
384.65000000004
 21
265.775
 31
0.0
  0
LINE
  5
AE9
330
A
100
AcDbEntity
  8
LEVEL001
  6
Continuous
 62
     3
100
AcDbLine
 10
384.65000000004
 20
265.775
 30
0.0
 11
384.65000000004
 21
267.575
 31
0.0
  0
LINE
  5
AEA
330
A
100
AcDbEntity
  8
LEVEL001
  6
Continuous
 62
     3
100
AcDbLine
 10
384.65000000004
 20
267.575
 30
0.0
 11
378.35000000004
 21
267.575
 31
0.0
  0
LINE
  5
AEB
330
A
100
AcDbEntity
  8
LEVEL001
  6
Continuous
 62
     3
100
AcDbLine
 10
378.35000000004
 20
267.575
 30
0.0
 11
378.35000000004
 21
268.475
 31
0.0
  0
LINE
  5
AEC
330
A
100
AcDbEntity
  8
LEVEL001
  6
Continuous
 62
     3
100
AcDbLine
 10
378.35000000004
 20
268.475
 30
0.0
 11
385.55000000004
 21
268.475
 31
0.0
  0
LINE
  5
AED
330
A
100
AcDbEntity
  8
LEVEL001
  6
Continuous
 62
     3
100
AcDbLine
 10
385.55000000004
 20
268.475
 30
0.0
 11
385.55000000004
 21
272.0750000000001
 31
0.0
  0
LINE
  5
AEE
330
A
100
AcDbEntity
  8
LEVEL001
  6
Continuous
 62
     3
100
AcDbLine
 10
385.55000000004
 20
272.0750000000001
 30
0.0
 11
363.95000000004
 21
272.0750000000001
 31
0.0
  0
LINE
  5
AEF
330
A
100
AcDbEntity
  8
LEVEL001
  6
Continuous
 62
     3
100
AcDbLine
 10
363.95000000004
 20
272.0750000000001
 30
0.0
 11
363.95000000004
 21
268.475
 31
0.0
  0
LINE
  5
AF0
330
A
100
AcDbEntity
  8
LEVEL001
  6
Continuous
 62
     3
100
AcDbLine
 10
363.95000000004
 20
268.475
 30
0.0
 11
367.55000000004
 21
268.475
 31
0.0
  0
LINE
  5
AF1
330
A
100
AcDbEntity
  8
LEVEL001
  6
Continuous
 62
     3
100
AcDbLine
 10
367.55000000004
 20
268.475
 30
0.0
 11
367.55000000004
 21
264.875
 31
0.0
  0
LINE
  5
AF2
330
A
100
AcDbEntity
  8
LEVEL001
  6
Continuous
 62
     3
100
AcDbLine
 10
367.55000000004
 20
264.875
 30
0.0
 11
362.15000000004
 21
264.875
 31
0.0
  0
LINE
  5
AF3
330
A
100
AcDbEntity
  8
LEVEL001
  6
Continuous
 62
     3
100
AcDbLine
 10
362.15000000004
 20
264.875
 30
0.0
 11
362.15000000004
 21
272.0750000000001
 31
0.0
  0
LINE
  5
AF4
330
A
100
AcDbEntity
  8
LEVEL001
  6
Continuous
 62
     3
100
AcDbLine
 10
362.15000000004
 20
272.0750000000001
 30
0.0
 11
358.55000000004
 21
272.0750000000001
 31
0.0
  0
LINE
  5
AF5
330
A
100
AcDbEntity
  8
LEVEL001
  6
Continuous
 62
     3
100
AcDbLine
 10
358.55000000004
 20
272.0750000000001
 30
0.0
 11
358.55000000004
 21
261.275
 31
0.0
  0
LINE
  5
AF6
330
A
100
AcDbEntity
  8
LEVEL001
  6
Continuous
 62
     3
100
AcDbLine
 10
390.95000000004
 20
261.275
 30
0.0
 11
396.35000000004
 21
261.275
 31
0.0
  0
LINE
  5
AF7
330
A
100
AcDbEntity
  8
LEVEL001
  6
Continuous
 62
     3
100
AcDbLine
 10
396.35000000004
 20
261.275
 30
0.0
 11
396.35000000004
 21
264.875
 31
0.0
  0
LINE
  5
AF8
330
A
100
AcDbEntity
  8
LEVEL001
  6
Continuous
 62
     3
100
AcDbLine
 10
396.35000000004
 20
264.875
 30
0.0
 11
390.95000000004
 21
264.875
 31
0.0
  0
ARC
  5
AF9
330
A
100
AcDbEntity
  8
LEVEL001
  6
Continuous
 62
     3
100
AcDbCircle
 10
390.95000000004
 20
266.6749999999999
 30
0.0
 40
1.8
100
AcDbArc
 50
90.0
 51
270.0
  0
LINE
  5
AFA
330
A
100
AcDbEntity
  8
LEVEL001
  6
Continuous
 62
     3
100
AcDbLine
 10
390.95000000004
 20
268.475
 30
0.0
 11
396.35000000004
 21
268.475
 31
0.0
  0
LINE
  5
AFB
330
A
100
AcDbEntity
  8
LEVEL001
  6
Continuous
 62
     3
100
AcDbLine
 10
396.35000000004
 20
268.475
 30
0.0
 11
396.35000000004
 21
272.0750000000001
 31
0.0
  0
LINE
  5
AFC
330
A
100
AcDbEntity
  8
LEVEL001
  6
Continuous
 62
     3
100
AcDbLine
 10
396.35000000004
 20
272.0750000000001
 30
0.0
 11
390.95000000004
 21
272.0750000000001
 31
0.0
  0
ARC
  5
AFD
330
A
100
AcDbEntity
  8
LEVEL001
  6
Continuous
 62
     3
100
AcDbCircle
 10
390.95000000004
 20
266.6749999999999
 30
0.0
 40
5.4
100
AcDbArc
 50
90.0
 51
270.0
  0
TEXT
  5
AFE
330
A
100
AcDbEntity
  8
LEVEL001
 62
     3
100
AcDbText
 10
336.95000000004
 20
273.875
 30
0.0
 40
3.75
  1
ケージーパルテック株式会社
 41
0.8
100
AcDbText
  0
LWPOLYLINE
  5
AFF
330
A
100
AcDbEntity
  8
LEVEL001
  6
Continuous
 62
     3
100
AcDbPolyline
 90
        4
 70
     0
 43
0.0
 10
333.35000000004
 20
263.675
 10
328.85000000004
 20
270.875
 10
333.35000000004
 20
270.875
 10
333.35000000004
 20
263.675
  0
LINE
  5
B00
330
A
100
AcDbEntity
  8
LEVEL001
  6
Continuous
 62
     3
100
AcDbLine
 10
328.85000000004
 20
270.875
 30
0.0
 11
333.35000000004
 21
263.675
 31
0.0
  0
LINE
  5
B01
330
A
100
AcDbEntity
  8
LEVEL001
  6
Continuous
 62
     3
100
AcDbLine
 10
333.35000000004
 20
263.675
 30
0.0
 11
333.35000000004
 21
270.875
 31
0.0
  0
LINE
  5
B02
330
A
100
AcDbEntity
  8
LEVEL001
  6
Continuous
 62
     3
100
AcDbLine
 10
333.35000000004
 20
270.875
 30
0.0
 11
328.85000000004
 21
270.875
 31
0.0
  0
LWPOLYLINE
  5
B03
330
A
100
AcDbEntity
  8
LEVEL001
  6
Continuous
 62
     3
100
AcDbPolyline
 90
        3
 70
     0
 43
0.0
 10
319.05000000004
 20
280.475
 10
312.65000000004
 20
270.875
 10
319.05000000004
 20
261.275
  0
LWPOLYLINE
  5
B04
330
A
100
AcDbEntity
  8
LEVEL001
  6
Continuous
 62
     3
100
AcDbPolyline
 90
        3
 70
     0
 43
0.0
 10
324.45000000004
 20
261.275
 10
318.05000000004
 20
270.875
 10
324.45000000004
 20
280.475
  0
LWPOLYLINE
  5
B05
330
A
100
AcDbEntity
  8
LEVEL001
  6
Continuous
 62
     3
100
AcDbPolyline
 90
        3
 70
     0
 43
0.0
 10
327.15000000004
 20
280.475
 10
320.75000000004
 20
270.875
 10
327.15000000004
 20
261.275
  0
LWPOLYLINE
  5
B06
330
A
100
AcDbEntity
  8
LEVEL001
  6
Continuous
 62
     3
100
AcDbPolyline
 90
        3
 70
     0
 43
0.0
 10
332.55000000004
 20
261.275
 10
326.15000000004
 20
270.875
 10
332.55000000004
 20
280.475
  0
LWPOLYLINE
  5
B07
330
A
100
AcDbEntity
  8
LEVEL001
  6
Continuous
 62
     3
100
AcDbPolyline
 90
        3
 70
     0
 43
0.0
 10
319.05000000004
 20
261.275
 10
312.65000000004
 20
270.875
 10
319.05000000004
 20
280.475
  0
LINE
  5
B08
330
A
100
AcDbEntity
  8
LEVEL001
  6
Continuous
 62
     3
100
AcDbLine
 10
319.05000000004
 20
280.475
 30
0.0
 11
324.45000000004
 21
280.475
 31
0.0
  0
LWPOLYLINE
  5
B09
330
A
100
AcDbEntity
  8
LEVEL001
  6
Continuous
 62
     3
100
AcDbPolyline
 90
        3
 70
     0
 43
0.0
 10
324.45000000004
 20
280.475
 10
318.05000000004
 20
270.875
 10
324.45000000004
 20
261.275
  0
LINE
  5
B0A
330
A
100
AcDbEntity
  8
LEVEL001
  6
Continuous
 62
     3
100
AcDbLine
 10
324.45000000004
 20
261.275
 30
0.0
 11
319.05000000004
 21
261.275
 31
0.0
  0
LWPOLYLINE
  5
B0B
330
A
100
AcDbEntity
  8
LEVEL001
  6
Continuous
 62
     3
100
AcDbPolyline
 90
        3
 70
     0
 43
0.0
 10
327.15000000004
 20
261.275
 10
320.75000000004
 20
270.875
 10
327.15000000004
 20
280.475
  0
LINE
  5
B0C
330
A
100
AcDbEntity
  8
LEVEL001
  6
Continuous
 62
     3
100
AcDbLine
 10
327.15000000004
 20
280.475
 30
0.0
 11
332.55000000004
 21
280.475
 31
0.0
  0
LWPOLYLINE
  5
B0D
330
A
100
AcDbEntity
  8
LEVEL001
  6
Continuous
 62
     3
100
AcDbPolyline
 90
        3
 70
     0
 43
0.0
 10
332.55000000004
 20
280.475
 10
326.15000000004
 20
270.875
 10
332.55000000004
 20
261.275
  0
LINE
  5
B0E
330
A
100
AcDbEntity
  8
LEVEL001
  6
Continuous
 62
     3
100
AcDbLine
 10
332.55000000004
 20
261.275
 30
0.0
 11
327.15000000004
 21
261.275
 31
0.0
  0
ENDSEC
  0
SECTION
  2
OBJECTS
  0
DICTIONARY
  5
3C
330
0
100
AcDbDictionary
281
     1
  3
ACAD_CIP_PREVIOUS_PRODUCT_INFO
350
A29
  3
ACAD_COLOR
350
9BC
  3
ACAD_GROUP
350
3D
  3
ACAD_LAYOUT
350
9BF
  3
ACAD_MATERIAL
350
9BB
  3
ACAD_MLEADERSTYLE
350
A24
  3
ACAD_MLINESTYLE
350
3E
  3
ACAD_PLOTSETTINGS
350
9C0
  3
ACAD_PLOTSTYLENAME
350
9B9
  3
ACAD_SCALELIST
350
A12
  3
ACAD_TABLESTYLE
350
9BD
  3
ACAD_VISUALSTYLE
350
9F9
  3
ACDB_RECOMPOSE_DATA
350
B77
  3
AcDbVariableDictionary
350
9C7
  3
DWGPROPS
350
B78
  0
DICTIONARY
  5
B18
330
67
100
AcDbDictionary
280
     1
281
     1
  3
ACAD_LAYERSTATES
360
B19
  0
DICTIONARY
  5
B0F
330
38
100
AcDbDictionary
280
     1
281
     1
  3
ADSK_XREC_LAYER_RECONCILED
360
B10
  0
DICTIONARY
  5
B11
330
39
100
AcDbDictionary
280
     1
281
     1
  3
ADSK_XREC_LAYER_RECONCILED
360
B12
  0
DICTIONARY
  5
B13
330
3A
100
AcDbDictionary
280
     1
281
     1
  3
ADSK_XREC_LAYER_RECONCILED
360
B14
  0
DICTIONARY
  5
A2C
330
A
100
AcDbDictionary
280
     1
281
     1
  3
ACAD_SORTENTS
360
A2D
  0
XRECORD
  5
A29
102
{ACAD_REACTORS
330
3C
102
}
330
3C
100
AcDbXrecord
280
     1
300
ACDLT
300
2012
300
ACDLT_F_S
  0
DICTIONARY
  5
9BC
102
{ACAD_REACTORS
330
3C
102
}
330
3C
100
AcDbDictionary
281
     1
  0
DICTIONARY
  5
3D
102
{ACAD_REACTORS
330
3C
102
}
330
0
100
AcDbDictionary
281
     1
  0
DICTIONARY
  5
9BF
102
{ACAD_REACTORS
330
3C
102
}
330
3C
100
AcDbDictionary
281
     1
  3
Model
350
9C1
  3
レイアウト1
350
9C2
  0
DICTIONARY
  5
9BB
102
{ACAD_REACTORS
330
3C
102
}
330
3C
100
AcDbDictionary
281
     1
  3
ByBlock
350
9E9
  3
ByLayer
350
9E1
  3
Global
350
9F1
  0
DICTIONARY
  5
A24
102
{ACAD_REACTORS
330
3C
102
}
330
3C
100
AcDbDictionary
281
     1
  3
Standard
350
A25
  0
DICTIONARY
  5
3E
102
{ACAD_REACTORS
330
3C
102
}
330
0
100
AcDbDictionary
281
     1
  3
STANDARD
350
3F
  0
DICTIONARY
  5
9C0
102
{ACAD_REACTORS
330
3C
102
}
330
3C
100
AcDbDictionary
281
     1
  0
ACDBDICTIONARYWDFLT
  5
9B9
102
{ACAD_REACTORS
330
3C
102
}
330
3C
100
AcDbDictionary
281
     1
  3
Normal
350
9BA
100
AcDbDictionaryWithDefault
340
9BA
  0
DICTIONARY
  5
A12
102
{ACAD_REACTORS
330
3C
102
}
330
3C
100
AcDbDictionary
281
     1
  3
A0
350
A13
  3
A1
350
A14
  3
A2
350
A15
  3
A3
350
A16
  3
A4
350
A17
  3
A5
350
A18
  3
A6
350
A19
  3
A7
350
A1A
  3
A8
350
A1B
  3
A9
350
A1C
  3
B0
350
A1D
  3
B1
350
A1E
  3
B2
350
A1F
  3
B3
350
A20
  3
B4
350
A21
  3
B5
350
A22
  3
B6
350
A23
  0
DICTIONARY
  5
9BD
102
{ACAD_REACTORS
330
3C
102
}
330
3C
100
AcDbDictionary
281
     1
  3
Standard
350
9BE
  0
DICTIONARY
  5
9F9
102
{ACAD_REACTORS
330
3C
102
}
330
3C
100
AcDbDictionary
281
     1
  3
2dWireframe
350
9FF
  3
Basic
350
9FE
  3
Brighten
350
A05
  3
ColorChange
350
A09
  3
Conceptual
350
A02
  3
Dim
350
A04
  3
EdgeColorOff
350
A11
  3
Facepattern
350
A08
  3
Flat
350
9FA
  3
FlatWithEdges
350
9FB
  3
Gouraud
350
9FC
  3
GouraudWithEdges
350
9FD
  3
Hidden
350
A01
  3
JitterOff
350
A0F
  3
Linepattern
350
A07
  3
OverhangOff
350
A10
  3
Realistic
350
A03
  3
Shaded
350
A0E
  3
Shaded with edges
350
A0D
  3
Shades of Gray
350
A0A
  3
Sketchy
350
A0B
  3
Thicken
350
A06
  3
Wireframe
350
A00
  3
X-Ray
350
A0C
  0
XRECORD
  5
B77
102
{ACAD_REACTORS
330
3C
102
}
330
3C
100
AcDbXrecord
280
     1
 90
        1
330
9BE
  0
DICTIONARY
  5
9C7
102
{ACAD_REACTORS
330
3C
102
}
330
3C
100
AcDbDictionary
281
     1
  3
CANNOSCALE
350
B24
  3
CMLEADERSTYLE
350
B22
  3
CTABLESTYLE
350
9C8
  3
DIMASSOC
350
9DE
  3
INDEXCTL
350
B71
  3
LAYEREVAL
350
B26
  3
LAYERNOTIFY
350
B27
  3
LIGHTINGUNITS
350
B25
  3
MSLTSCALE
350
B23
  3
PROJECTNAME
350
9DF
  3
SORTENTS
350
B70
  3
XCLIPFRAME
350
B72
  0
XRECORD
  5
B78
102
{ACAD_REACTORS
330
3C
102
}
330
3C
100
AcDbXrecord
280
     1
  1
DWGPROPS COOKIE
  2

  3

  4

  6

  7

  8
kg-paltec
  9

300
=
301
=
302
=
303
=
304
=
305
=
306
=
307
=
308
=
309
=
 40
0.0102951851851852
 41
2451212.682759178
 42
2458321.631133426
  1

 90
        0
  0
DICTIONARY
  5
B19
102
{ACAD_REACTORS
330
B18
102
}
330
B18
100
AcDbDictionary
281
     1
  0
XRECORD
  5
B10
102
{ACAD_REACTORS
330
B0F
102
}
330
B0F
100
AcDbXrecord
280
     1
290
     1
  0
XRECORD
  5
B12
102
{ACAD_REACTORS
330
B11
102
}
330
B11
100
AcDbXrecord
280
     1
290
     1
  0
XRECORD
  5
B14
102
{ACAD_REACTORS
330
B13
102
}
330
B13
100
AcDbXrecord
280
     1
290
     1
  0
SORTENTSTABLE
  5
A2D
102
{ACAD_REACTORS
330
A2C
102
}
330
A2C
100
AcDbSortentsTable
330
A
331
7E9
  5
7F2
331
800
  5
809
331
75E
  5
767
331
647
  5
657
331
666
  5
66F
331
6EA
  5
6FC
331
6EB
  5
702
331
6A5
  5
6BE
331
667
  5
670
331
75F
  5
768
331
7EA
  5
7F3
331
801
  5
80A
331
402
  5
40B
331
34B
  5
37B
331
930
  5
940
331
7EB
  5
7F4
331
802
  5
80B
331
722
  5
743
331
760
  5
769
331
6A6
  5
6BF
331
6EC
  5
708
331
403
  5
40C
331
931
  5
941
331
950
  5
959
331
803
  5
80C
331
761
  5
76A
331
742
  5
754
331
6C6
  5
6E7
331
7EC
  5
7F5
331
404
  5
40D
331
951
  5
95A
331
932
  5
942
331
7ED
  5
7F6
331
804
  5
80D
331
762
  5
76B
331
6C7
  5
6E8
331
743
  5
755
331
405
  5
40E
331
933
  5
943
331
952
  5
95B
331
805
  5
80E
331
744
  5
756
331
7EE
  5
7F7
331
406
  5
40F
331
953
  5
95C
331
934
  5
944
331
7EF
  5
7F8
331
806
  5
80F
331
745
  5
757
331
407
  5
410
331
3E8
  5
3F1
331
935
  5
945
331
954
  5
95D
331
807
  5
810
331
7F0
  5
7F9
331
3E9
  5
3F2
331
408
  5
411
331
955
  5
95E
331
936
  5
946
331
7F1
  5
7FA
331
808
  5
811
331
409
  5
412
331
3EA
  5
3F3
331
937
  5
947
331
7F2
  5
7FB
331
809
  5
812
331
956
  5
95F
331
3EB
  5
3F4
331
40A
  5
413
331
957
  5
960
331
7F3
  5
7FC
331
80A
  5
813
331
938
  5
948
331
40B
  5
414
331
3EC
  5
3F5
331
7F4
  5
7FD
331
80B
  5
814
331
958
  5
961
331
3ED
  5
3F6
331
40C
  5
415
331
959
  5
962
331
7F5
  5
7FE
331
80C
  5
815
331
40D
  5
416
331
3EE
  5
3F7
331
7F6
  5
7FF
331
80D
  5
816
331
95A
  5
963
331
3EF
  5
3F8
331
40E
  5
417
331
95B
  5
964
331
7F7
  5
800
331
80E
  5
817
331
40F
  5
418
331
3F0
  5
3F9
331
95C
  5
965
331
80F
  5
818
331
410
  5
419
331
3F1
  5
3FA
331
95D
  5
966
331
810
  5
819
331
411
  5
420
331
3F2
  5
3FB
331
95E
  5
967
331
412
  5
421
331
3F3
  5
402
331
95F
  5
968
331
940
  5
949
331
413
  5
422
331
3F4
  5
403
331
960
  5
969
331
941
  5
94A
331
2B2
  5
2BB
331
414
  5
423
331
3F5
  5
404
331
942
  5
94B
331
961
  5
96A
331
3F6
  5
405
331
415
  5
424
331
962
  5
96B
331
943
  5
94C
331
416
  5
425
331
3F7
  5
406
331
944
  5
94D
331
963
  5
96C
331
3F8
  5
407
331
341
  5
357
331
964
  5
96D
331
945
  5
94E
331
3F9
  5
408
331
342
  5
358
331
946
  5
94F
331
965
  5
96E
331
3FA
  5
409
331
343
  5
359
331
966
  5
96F
331
947
  5
950
331
344
  5
375
331
3FB
  5
40A
331
948
  5
951
331
967
  5
970
331
2B9
  5
2C2
331
949
  5
952
331
94A
  5
953
331
968
  5
971
331
94B
  5
954
331
988
  5
991
331
969
  5
979
331
94C
  5
955
331
92D
  5
936
331
9A8
  5
9B1
331
96A
  5
97A
331
989
  5
992
331
94D
  5
956
331
92E
  5
937
331
98A
  5
993
331
9A9
  5
9B2
331
96B
  5
97B
331
608
  5
616
331
94E
  5
957
331
92F
  5
938
331
9AA
  5
9B3
331
96C
  5
97C
331
98B
  5
994
331
609
  5
618
331
628
  5
631
331
94F
  5
958
331
96D
  5
97D
331
98C
  5
995
331
9AB
  5
9B4
331
2C0
  5
2C9
331
629
  5
632
331
60A
  5
61A
331
9AC
  5
9B5
331
96E
  5
97E
331
2C1
  5
2CA
331
98D
  5
996
331
649
  5
659
331
668
  5
671
331
62A
  5
633
331
96F
  5
97F
331
98E
  5
997
331
9AD
  5
9B6
331
62B
  5
634
331
64A
  5
65A
331
669
  5
67A
331
60C
  5
61C
331
98F
  5
998
331
9AE
  5
A2B
331
970
  5
980
331
64B
  5
65B
331
66A
  5
67B
331
60D
  5
61D
331
62C
  5
63D
331
971
  5
981
331
990
  5
999
331
9AF
  5
A2E
331
62D
  5
644
331
66B
  5
684
331
6D0
  5
6E9
331
60E
  5
61E
331
991
  5
99A
331
9B0
  5
A2F
331
64D
  5
65C
331
66C
  5
685
331
6D1
  5
6EA
331
62E
  5
645
331
9B1
  5
A30
331
992
  5
99B
331
684
  5
6A5
331
6F1
  5
709
331
708
  5
711
331
62F
  5
646
331
66D
  5
68E
331
610
  5
61F
331
993
  5
99C
331
9B2
  5
A31
331
6F2
  5
70A
331
709
  5
712
331
64F
  5
65D
331
66E
  5
68F
331
685
  5
6A6
331
728
  5
744
331
630
  5
647
331
9B3
  5
A32
331
994
  5
99D
331
6F3
  5
70B
331
70A
  5
713
331
631
  5
649
331
66F
  5
698
331
612
  5
620
331
995
  5
99E
331
9B4
  5
A33
331
2AA
  5
2B3
331
6F4
  5
70C
331
70B
  5
714
331
651
  5
65E
331
670
  5
699
331
632
  5
64A
331
9B5
  5
A34
331
996
  5
99F
331
74A
  5
758
331
6AF
  5
6C0
331
6F5
  5
70D
331
70C
  5
715
331
614
  5
621
331
633
  5
64B
331
671
  5
69A
331
997
  5
9A0
331
9B6
  5
A35
331
74B
  5
759
331
6B0
  5
6C1
331
6F6
  5
70E
331
70D
  5
71A
331
653
  5
65F
331
634
  5
64D
331
979
  5
982
331
998
  5
9A1
331
616
  5
622
331
70E
  5
71B
331
999
  5
9A2
331
97A
  5
983
331
70F
  5
71C
331
600
  5
612
331
655
  5
660
331
72E
  5
745
331
97B
  5
984
331
99A
  5
9A3
331
6DA
  5
6EB
331
618
  5
623
331
710
  5
722
331
99B
  5
9A4
331
97C
  5
985
331
711
  5
728
331
657
  5
661
331
6DB
  5
6EC
331
97D
  5
986
331
99C
  5
9A5
331
61A
  5
624
331
68E
  5
6AF
331
712
  5
72E
331
97E
  5
987
331
99D
  5
9A6
331
751
  5
75A
331
6FC
  5
70F
331
713
  5
734
331
659
  5
662
331
68F
  5
6B0
331
97F
  5
988
331
99E
  5
9A7
331
714
  5
735
331
65A
  5
663
331
61C
  5
625
331
698
  5
6B9
331
752
  5
75B
331
980
  5
989
331
99F
  5
9A8
331
753
  5
75C
331
715
  5
736
331
65B
  5
664
331
67A
  5
69B
331
61D
  5
626
331
699
  5
6BA
331
734
  5
74A
331
9A0
  5
9A9
331
981
  5
98A
331
735
  5
74B
331
65C
  5
665
331
67B
  5
69C
331
69A
  5
6BB
331
607
  5
614
331
61E
  5
627
331
63D
  5
64F
331
6B9
  5
6C2
331
754
  5
75D
331
982
  5
98B
331
9A1
  5
9AA
331
736
  5
751
331
6BA
  5
6C3
331
755
  5
75E
331
65D
  5
666
331
61F
  5
628
331
69B
  5
6BC
331
9A2
  5
9AB
331
983
  5
98C
331
7E1
  5
7EA
331
7F8
  5
801
331
65E
  5
667
331
620
  5
629
331
69C
  5
6BD
331
6BB
  5
6C4
331
756
  5
75F
331
984
  5
98D
331
9A3
  5
9AC
331
7E2
  5
7EB
331
7F9
  5
802
331
6BC
  5
6C5
331
702
  5
710
331
757
  5
760
331
65F
  5
668
331
621
  5
62A
331
9A4
  5
9AD
331
985
  5
98E
331
7E3
  5
7EC
331
7FA
  5
803
331
758
  5
761
331
71A
  5
73C
331
6E4
  5
6F1
331
622
  5
62B
331
660
  5
669
331
986
  5
98F
331
9A5
  5
9AE
331
7E4
  5
7ED
331
7FB
  5
804
331
759
  5
762
331
71B
  5
73D
331
661
  5
66A
331
6E5
  5
6F2
331
623
  5
62C
331
9A6
  5
9AF
331
987
  5
990
331
7E5
  5
7EE
331
7FC
  5
805
331
75A
  5
763
331
71C
  5
742
331
662
  5
66B
331
6E6
  5
6F3
331
624
  5
62D
331
9A7
  5
9B0
331
73C
  5
752
331
75B
  5
764
331
7E6
  5
7EF
331
7FD
  5
806
331
625
  5
62E
331
644
  5
651
331
663
  5
66C
331
6E7
  5
6F4
331
7E7
  5
7F0
331
7FE
  5
807
331
75C
  5
765
331
73D
  5
753
331
664
  5
66D
331
6E8
  5
6F5
331
626
  5
62F
331
645
  5
653
331
6E9
  5
6F6
331
627
  5
630
331
646
  5
655
331
665
  5
66E
331
75D
  5
766
331
7E8
  5
7F1
331
7FF
  5
808
  0
LAYOUT
  5
9C1
102
{ACAD_XDICTIONARY
360
B1E
102
}
102
{ACAD_REACTORS
330
9BF
102
}
330
9BF
100
AcDbPlotSettings
  1

  2
クセロPDF2
  4

  6

 40
0.0
 41
0.0
 42
0.0
 43
0.0
 44
0.0
 45
0.0
 46
0.0
 47
0.0
 48
0.0
 49
0.0
140
0.0
141
0.0
142
1.0
143
1.0
 70
  1712
 72
     0
 73
     0
 74
     0
  7

 75
     0
147
1.0
148
0.0
149
0.0
100
AcDbLayout
  1
Model
 70
     1
 71
     0
 10
0.0
 20
0.0
 11
12.0
 21
9.0
 12
0.0
 22
0.0
 32
0.0
 14
0.0
 24
0.0
 34
0.0
 15
0.0
 25
0.0
 35
0.0
146
0.0
 13
0.0
 23
0.0
 33
0.0
 16
1.0
 26
0.0
 36
0.0
 17
0.0
 27
1.0
 37
0.0
 76
     0
330
A
331
9D8
  0
LAYOUT
  5
9C2
102
{ACAD_XDICTIONARY
360
B7B
102
}
102
{ACAD_REACTORS
330
9BF
102
}
330
9BF
100
AcDbPlotSettings
  1

  2
クセロPDF2
  4

  6

 40
0.0
 41
0.0
 42
0.0
 43
0.0
 44
0.0
 45
0.0
 46
0.0
 47
0.0
 48
0.0
 49
0.0
140
0.0
141
0.0
142
1.0
143
1.0
 70
   688
 72
     0
 73
     0
 74
     5
  7

 75
    16
147
1.0
148
0.0
149
0.0
100
AcDbLayout
  1
レイアウト1
 70
     1
 71
     1
 10
0.0
 20
0.0
 11
12.0
 21
9.0
 12
0.0
 22
0.0
 32
0.0
 14
1.000000000000000E+20
 24
1.000000000000000E+20
 34
1.000000000000000E+20
 15
-1.000000000000000E+20
 25
-1.000000000000000E+20
 35
-1.000000000000000E+20
146
0.0
 13
0.0
 23
0.0
 33
0.0
 16
1.0
 26
0.0
 36
0.0
 17
0.0
 27
1.0
 37
0.0
 76
     0
330
B
  0
MATERIAL
  5
9E9
102
{ACAD_XDICTIONARY
360
9EA
102
}
102
{ACAD_REACTORS
330
9BB
102
}
330
9BB
100
AcDbMaterial
  1
ByBlock
 72
     0
 43
0.0208333333333333
 43
0.0
 43
0.0
 43
0.0
 43
0.0
 43
0.0208333333333333
 43
0.0
 43
0.0
 43
0.0
 43
0.0
 43
1.0
 43
0.0
 43
0.0
 43
0.0
 43
0.0
 43
1.0
 77
     0
 47
0.0208333333333333
 47
0.0
 47
0.0
 47
0.0
 47
0.0
 47
0.0208333333333333
 47
0.0
 47
0.0
 47
0.0
 47
0.0
 47
1.0
 47
0.0
 47
0.0
 47
0.0
 47
0.0
 47
1.0
171
     0
 49
0.0208333333333333
 49
0.0
 49
0.0
 49
0.0
 49
0.0
 49
0.0208333333333333
 49
0.0
 49
0.0
 49
0.0
 49
0.0
 49
1.0
 49
0.0
 49
0.0
 49
0.0
 49
0.0
 49
1.0
175
     0
142
0.0208333333333333
142
0.0
142
0.0
142
0.0
142
0.0
142
0.0208333333333333
142
0.0
142
0.0
142
0.0
142
0.0
142
1.0
142
0.0
142
0.0
142
0.0
142
0.0
142
1.0
179
     0
144
0.0208333333333333
144
0.0
144
0.0
144
0.0
144
0.0
144
0.0208333333333333
144
0.0
144
0.0
144
0.0
144
0.0
144
1.0
144
0.0
144
0.0
144
0.0
144
0.0
144
1.0
147
0.0208333333333333
147
0.0
147
0.0
147
0.0
147
0.0
147
0.0208333333333333
147
0.0
147
0.0
147
0.0
147
0.0
147
1.0
147
0.0
147
0.0
147
0.0
147
0.0
147
1.0
  0
MATERIAL
  5
9E1
102
{ACAD_XDICTIONARY
360
9E2
102
}
102
{ACAD_REACTORS
330
9BB
102
}
330
9BB
100
AcDbMaterial
  1
ByLayer
 72
     0
 43
0.0208333333333333
 43
0.0
 43
0.0
 43
0.0
 43
0.0
 43
0.0208333333333333
 43
0.0
 43
0.0
 43
0.0
 43
0.0
 43
1.0
 43
0.0
 43
0.0
 43
0.0
 43
0.0
 43
1.0
 77
     0
 47
0.0208333333333333
 47
0.0
 47
0.0
 47
0.0
 47
0.0
 47
0.0208333333333333
 47
0.0
 47
0.0
 47
0.0
 47
0.0
 47
1.0
 47
0.0
 47
0.0
 47
0.0
 47
0.0
 47
1.0
171
     0
 49
0.0208333333333333
 49
0.0
 49
0.0
 49
0.0
 49
0.0
 49
0.0208333333333333
 49
0.0
 49
0.0
 49
0.0
 49
0.0
 49
1.0
 49
0.0
 49
0.0
 49
0.0
 49
0.0
 49
1.0
175
     0
142
0.0208333333333333
142
0.0
142
0.0
142
0.0
142
0.0
142
0.0208333333333333
142
0.0
142
0.0
142
0.0
142
0.0
142
1.0
142
0.0
142
0.0
142
0.0
142
0.0
142
1.0
179
     0
144
0.0208333333333333
144
0.0
144
0.0
144
0.0
144
0.0
144
0.0208333333333333
144
0.0
144
0.0
144
0.0
144
0.0
144
1.0
144
0.0
144
0.0
144
0.0
144
0.0
144
1.0
147
0.0208333333333333
147
0.0
147
0.0
147
0.0
147
0.0
147
0.0208333333333333
147
0.0
147
0.0
147
0.0
147
0.0
147
1.0
147
0.0
147
0.0
147
0.0
147
0.0
147
1.0
  0
MATERIAL
  5
9F1
102
{ACAD_XDICTIONARY
360
9F2
102
}
102
{ACAD_REACTORS
330
9BB
102
}
330
9BB
100
AcDbMaterial
  1
Global
 72
     0
 43
0.0208333333333333
 43
0.0
 43
0.0
 43
0.0
 43
0.0
 43
0.0208333333333333
 43
0.0
 43
0.0
 43
0.0
 43
0.0
 43
1.0
 43
0.0
 43
0.0
 43
0.0
 43
0.0
 43
1.0
 77
     0
 47
0.0208333333333333
 47
0.0
 47
0.0
 47
0.0
 47
0.0
 47
0.0208333333333333
 47
0.0
 47
0.0
 47
0.0
 47
0.0
 47
1.0
 47
0.0
 47
0.0
 47
0.0
 47
0.0
 47
1.0
171
     0
 49
0.0208333333333333
 49
0.0
 49
0.0
 49
0.0
 49
0.0
 49
0.0208333333333333
 49
0.0
 49
0.0
 49
0.0
 49
0.0
 49
1.0
 49
0.0
 49
0.0
 49
0.0
 49
0.0
 49
1.0
175
     0
142
0.0208333333333333
142
0.0
142
0.0
142
0.0
142
0.0
142
0.0208333333333333
142
0.0
142
0.0
142
0.0
142
0.0
142
1.0
142
0.0
142
0.0
142
0.0
142
0.0
142
1.0
179
     0
144
0.0208333333333333
144
0.0
144
0.0
144
0.0
144
0.0
144
0.0208333333333333
144
0.0
144
0.0
144
0.0
144
0.0
144
1.0
144
0.0
144
0.0
144
0.0
144
0.0
144
1.0
147
0.0208333333333333
147
0.0
147
0.0
147
0.0
147
0.0
147
0.0208333333333333
147
0.0
147
0.0
147
0.0
147
0.0
147
1.0
147
0.0
147
0.0
147
0.0
147
0.0
147
1.0
  0
MLEADERSTYLE
  5
A25
102
{ACAD_XDICTIONARY
360
B75
102
}
102
{ACAD_REACTORS
330
A24
102
}
330
A24
100
AcDbMLeaderStyle
170
     2
171
     1
172
     0
 90
        2
 40
0.0
 41
0.0
173
     1
 91
-1056964608
340
1D
 92
       -2
290
     1
 42
0.09
291
     1
 43
0.36
  3
Standard
 44
0.18
300

342
7
174
     1
178
     6
175
     1
176
     0
 93
-1056964608
 45
0.18
292
     0
297
     0
 46
0.18
 94
-1056964608
 47
1.0
 49
1.0
140
1.0
293
     1
141
0.0
294
     1
177
     0
142
1.0
295
     0
296
     0
143
0.125
1001
ACAD_MLEADERVER
1070
     2
  0
MLINESTYLE
  5
3F
102
{ACAD_REACTORS
330
3E
102
}
330
0
100
AcDbMlineStyle
  2
STANDARD
 70
     0
  3

 62
   256
 51
90.0
 52
90.0
 71
     2
 49
0.5
 62
   256
  6
BYLAYER
 49
-0.5
 62
   256
  6
BYLAYER
  0
ACDBPLACEHOLDER
  5
9BA
102
{ACAD_REACTORS
330
9B9
102
}
330
9B9
  0
SCALE
  5
A13
102
{ACAD_REACTORS
330
A12
102
}
330
A12
100
AcDbScale
 70
     0
300
1:1
140
1.0
141
1.0
290
     1
  0
SCALE
  5
A14
102
{ACAD_REACTORS
330
A12
102
}
330
A12
100
AcDbScale
 70
     0
300
1/128" = 1'-0"
140
0.0078125
141
12.0
290
     0
  0
SCALE
  5
A15
102
{ACAD_REACTORS
330
A12
102
}
330
A12
100
AcDbScale
 70
     0
300
1/64" = 1'-0"
140
0.015625
141
12.0
290
     0
  0
SCALE
  5
A16
102
{ACAD_REACTORS
330
A12
102
}
330
A12
100
AcDbScale
 70
     0
300
1/32" = 1'-0"
140
0.03125
141
12.0
290
     0
  0
SCALE
  5
A17
102
{ACAD_REACTORS
330
A12
102
}
330
A12
100
AcDbScale
 70
     0
300
1/16" = 1'-0"
140
0.0625
141
12.0
290
     0
  0
SCALE
  5
A18
102
{ACAD_REACTORS
330
A12
102
}
330
A12
100
AcDbScale
 70
     0
300
3/32" = 1'-0"
140
0.09375
141
12.0
290
     0
  0
SCALE
  5
A19
102
{ACAD_REACTORS
330
A12
102
}
330
A12
100
AcDbScale
 70
     0
300
1/8" = 1'-0"
140
0.125
141
12.0
290
     0
  0
SCALE
  5
A1A
102
{ACAD_REACTORS
330
A12
102
}
330
A12
100
AcDbScale
 70
     0
300
3/16" = 1'-0"
140
0.1875
141
12.0
290
     0
  0
SCALE
  5
A1B
102
{ACAD_REACTORS
330
A12
102
}
330
A12
100
AcDbScale
 70
     0
300
1/4" = 1'-0"
140
0.25
141
12.0
290
     0
  0
SCALE
  5
A1C
102
{ACAD_REACTORS
330
A12
102
}
330
A12
100
AcDbScale
 70
     0
300
3/8" = 1'-0"
140
0.375
141
12.0
290
     0
  0
SCALE
  5
A1D
102
{ACAD_REACTORS
330
A12
102
}
330
A12
100
AcDbScale
 70
     0
300
1/2" = 1'-0"
140
0.5
141
12.0
290
     0
  0
SCALE
  5
A1E
102
{ACAD_REACTORS
330
A12
102
}
330
A12
100
AcDbScale
 70
     0
300
3/4" = 1'-0"
140
0.75
141
12.0
290
     0
  0
SCALE
  5
A1F
102
{ACAD_REACTORS
330
A12
102
}
330
A12
100
AcDbScale
 70
     0
300
1" = 1'-0"
140
1.0
141
12.0
290
     0
  0
SCALE
  5
A20
102
{ACAD_REACTORS
330
A12
102
}
330
A12
100
AcDbScale
 70
     0
300
1-1/2" = 1'-0"
140
1.5
141
12.0
290
     0
  0
SCALE
  5
A21
102
{ACAD_REACTORS
330
A12
102
}
330
A12
100
AcDbScale
 70
     0
300
3" = 1'-0"
140
3.0
141
12.0
290
     0
  0
SCALE
  5
A22
102
{ACAD_REACTORS
330
A12
102
}
330
A12
100
AcDbScale
 70
     0
300
6" = 1'-0"
140
6.0
141
12.0
290
     0
  0
SCALE
  5
A23
102
{ACAD_REACTORS
330
A12
102
}
330
A12
100
AcDbScale
 70
     0
300
1'-0" = 1'-0"
140
12.0
141
12.0
290
     0
  0
TABLESTYLE
  5
9BE
102
{ACAD_XDICTIONARY
360
B73
102
}
102
{ACAD_REACTORS
330
9BD
102
}
330
9BD
100
AcDbTableStyle
  3
Standard
 70
     0
 71
     0
 40
0.06
 41
0.06
280
     0
281
     0
  7
STANDARD
140
0.18
170
     2
 62
     0
 63
     7
283
     0
274
    -2
284
     1
 64
     0
275
    -2
285
     1
 65
     0
276
    -2
286
     1
 66
     0
277
    -2
287
     1
 67
     0
278
    -2
288
     1
 68
     0
279
    -2
289
     1
 69
     0
  7
STANDARD
140
0.25
170
     5
 62
     0
 63
     7
283
     0
274
    -2
284
     1
 64
     0
275
    -2
285
     1
 65
     0
276
    -2
286
     1
 66
     0
277
    -2
287
     1
 67
     0
278
    -2
288
     1
 68
     0
279
    -2
289
     1
 69
     0
  7
STANDARD
140
0.18
170
     5
 62
     0
 63
     7
283
     0
274
    -2
284
     1
 64
     0
275
    -2
285
     1
 65
     0
276
    -2
286
     1
 66
     0
277
    -2
287
     1
 67
     0
278
    -2
288
     1
 68
     0
279
    -2
289
     1
 69
     0
  0
VISUALSTYLE
  5
9FF
102
{ACAD_XDICTIONARY
360
B8A
102
}
102
{ACAD_REACTORS
330
9F9
102
}
330
9F9
100
AcDbVisualStyle
  2
2dWireframe
 70
     4
 71
     0
 72
     2
 73
     0
 90
        0
 40
-0.6
 41
-30.0
 62
     5
 63
     7
 74
     1
 91
        4
 64
     7
 65
   257
 75
     1
175
     1
 42
1.0
 92
        0
 66
   257
 43
1.0
 76
     1
 77
     6
 78
     2
 67
     7
 79
     5
170
     0
171
     0
290
     0
174
     0
 93
        1
 44
0.0
173
     0
291
     0
 45
0.0
1001
ACAD
1000
AcDbSavedByObjectVersion
1070
     0
  0
VISUALSTYLE
  5
9FE
102
{ACAD_XDICTIONARY
360
B88
102
}
102
{ACAD_REACTORS
330
9F9
102
}
330
9F9
100
AcDbVisualStyle
  2
Basic
 70
     7
 71
     1
 72
     0
 73
     1
 90
        0
 40
-0.6
 41
-30.0
 62
     5
 63
     7
 74
     0
 91
        4
 64
     7
 65
   257
 75
     1
175
     1
 42
1.0
 92
        8
 66
     7
 43
1.0
 76
     1
 77
     6
 78
     2
 67
     7
 79
     5
170
     0
171
     0
290
     0
174
     0
 93
        1
 44
0.0
173
     0
291
     1
 45
0.0
1001
ACAD
1000
AcDbSavedByObjectVersion
1070
     0
  0
VISUALSTYLE
  5
A05
102
{ACAD_XDICTIONARY
360
B96
102
}
102
{ACAD_REACTORS
330
9F9
102
}
330
9F9
100
AcDbVisualStyle
  2
Brighten
 70
    12
 71
     2
 72
     2
 73
     0
 90
        0
 40
-0.6
 41
-30.0
 62
     5
 63
     7
 74
     1
 91
        4
 64
     7
 65
   257
 75
     1
175
     1
 42
1.0
 92
        8
 66
     7
 43
1.0
 76
     1
 77
     6
 78
     2
 67
     7
 79
     5
170
     0
171
     0
290
     0
174
     0
 93
        1
 44
50.0
173
     0
291
     1
 45
0.0
1001
ACAD
1000
AcDbSavedByObjectVersion
1070
     0
  0
VISUALSTYLE
  5
A09
102
{ACAD_XDICTIONARY
360
B9E
102
}
102
{ACAD_REACTORS
330
9F9
102
}
330
9F9
100
AcDbVisualStyle
  2
ColorChange
 70
    16
 71
     2
 72
     2
 73
     3
 90
        0
 40
-0.6
 41
-30.0
 62
     5
 63
     8
 74
     1
 91
        4
 64
     7
 65
   257
 75
     1
175
     1
 42
1.0
 92
        8
 66
     8
 43
1.0
 76
     1
 77
     6
 78
     2
 67
     7
 79
     5
170
     0
171
     0
290
     0
174
     0
 93
        1
 44
0.0
173
     0
291
     1
 45
0.0
1001
ACAD
1000
AcDbSavedByObjectVersion
1070
     0
  0
VISUALSTYLE
  5
A02
102
{ACAD_XDICTIONARY
360
B90
102
}
102
{ACAD_REACTORS
330
9F9
102
}
330
9F9
100
AcDbVisualStyle
  2
Conceptual
 70
     9
 71
     3
 72
     2
 73
     0
 90
        0
 40
-0.6
 41
-30.0
 62
     5
 63
     7
 74
     2
 91
        2
 64
     7
 65
   257
 75
     1
175
     1
 42
179.0
 92
        8
 66
     7
 43
1.0
 76
     1
 77
     6
 78
     2
 67
     7
 79
     3
170
     0
171
     0
290
     0
174
     0
 93
        1
 44
0.0
173
     0
291
     0
 45
0.0
1001
ACAD
1000
AcDbSavedByObjectVersion
1070
     0
  0
VISUALSTYLE
  5
A04
102
{ACAD_XDICTIONARY
360
B94
102
}
102
{ACAD_REACTORS
330
9F9
102
}
330
9F9
100
AcDbVisualStyle
  2
Dim
 70
    11
 71
     2
 72
     2
 73
     0
 90
        0
 40
-0.6
 41
-30.0
 62
     5
 63
     7
 74
     1
 91
        4
 64
     7
 65
   257
 75
     1
175
     1
 42
1.0
 92
        8
 66
     7
 43
1.0
 76
     1
 77
     6
 78
     2
 67
     7
 79
     5
170
     0
171
     0
290
     0
174
     0
 93
        1
 44
-50.0
173
     0
291
     1
 45
0.0
1001
ACAD
1000
AcDbSavedByObjectVersion
1070
     0
  0
VISUALSTYLE
  5
A11
102
{ACAD_XDICTIONARY
360
BAE
102
}
102
{ACAD_REACTORS
330
9F9
102
}
330
9F9
100
AcDbVisualStyle
  2
EdgeColorOff
 70
    22
 71
     2
 72
     2
 73
     0
 90
        0
 40
-0.6
 41
-30.0
 62
     5
 63
     7
 74
     1
 91
        4
 64
     7
 65
   257
 75
     1
175
     1
 42
1.0
 92
        8
 66
     7
 43
1.0
 76
     1
 77
     6
 78
     2
 67
     7
 79
     5
170
     0
171
     0
290
     0
174
     0
 93
        1
 44
0.0
173
     0
291
     1
 45
0.0
1001
ACAD
1000
AcDbSavedByObjectVersion
1070
     0
  0
VISUALSTYLE
  5
A08
102
{ACAD_XDICTIONARY
360
B9C
102
}
102
{ACAD_REACTORS
330
9F9
102
}
330
9F9
100
AcDbVisualStyle
  2
Facepattern
 70
    15
 71
     2
 72
     2
 73
     0
 90
        0
 40
-0.6
 41
-30.0
 62
     5
 63
     7
 74
     1
 91
        4
 64
     7
 65
   257
 75
     1
175
     1
 42
1.0
 92
        8
 66
     7
 43
1.0
 76
     1
 77
     6
 78
     2
 67
     7
 79
     5
170
     0
171
     0
290
     0
174
     0
 93
        1
 44
0.0
173
     0
291
     1
 45
0.0
1001
ACAD
1000
AcDbSavedByObjectVersion
1070
     0
  0
VISUALSTYLE
  5
9FA
102
{ACAD_XDICTIONARY
360
B80
102
}
102
{ACAD_REACTORS
330
9F9
102
}
330
9F9
100
AcDbVisualStyle
  2
Flat
 70
     0
 71
     2
 72
     1
 73
     1
 90
        2
 40
-0.6
 41
30.0
 62
     5
 63
     7
 74
     0
 91
        0
 64
     7
 65
   257
 75
     1
175
     1
 42
1.0
 92
        8
 66
     7
 43
1.0
 76
     1
 77
     6
 78
     2
 67
     7
 79
     5
170
     0
171
     0
290
     0
174
     0
 93
       13
 44
0.0
173
     0
291
     1
 45
0.0
1001
ACAD
1000
AcDbSavedByObjectVersion
1070
     0
  0
VISUALSTYLE
  5
9FB
102
{ACAD_XDICTIONARY
360
B82
102
}
102
{ACAD_REACTORS
330
9F9
102
}
330
9F9
100
AcDbVisualStyle
  2
FlatWithEdges
 70
     1
 71
     2
 72
     1
 73
     1
 90
        2
 40
-0.6
 41
30.0
 62
     5
 63
     7
 74
     1
 91
        0
 64
     7
 65
   257
 75
     1
175
     1
 42
1.0
 92
        0
 66
   257
 43
1.0
 76
     1
 77
     6
 78
     2
 67
     7
 79
     5
170
     0
171
     0
290
     0
174
     0
 93
       13
 44
0.0
173
     0
291
     1
 45
0.0
1001
ACAD
1000
AcDbSavedByObjectVersion
1070
     0
  0
VISUALSTYLE
  5
9FC
102
{ACAD_XDICTIONARY
360
B84
102
}
102
{ACAD_REACTORS
330
9F9
102
}
330
9F9
100
AcDbVisualStyle
  2
Gouraud
 70
     2
 71
     2
 72
     2
 73
     1
 90
        2
 40
-0.6
 41
30.0
 62
     5
 63
     7
 74
     0
 91
        0
 64
     7
 65
   257
 75
     1
175
     1
 42
1.0
 92
        0
 66
     7
 43
1.0
 76
     1
 77
     6
 78
     2
 67
     7
 79
     5
170
     0
171
     0
290
     0
174
     0
 93
       13
 44
0.0
173
     0
291
     1
 45
0.0
1001
ACAD
1000
AcDbSavedByObjectVersion
1070
     0
  0
VISUALSTYLE
  5
9FD
102
{ACAD_XDICTIONARY
360
B86
102
}
102
{ACAD_REACTORS
330
9F9
102
}
330
9F9
100
AcDbVisualStyle
  2
GouraudWithEdges
 70
     3
 71
     2
 72
     2
 73
     1
 90
        2
 40
-0.6
 41
30.0
 62
     5
 63
     7
 74
     1
 91
        0
 64
     7
 65
   257
 75
     1
175
     1
 42
1.0
 92
        0
 66
   257
 43
1.0
 76
     1
 77
     6
 78
     2
 67
     7
 79
     5
170
     0
171
     0
290
     0
174
     0
 93
       13
 44
0.0
173
     0
291
     1
 45
0.0
1001
ACAD
1000
AcDbSavedByObjectVersion
1070
     0
  0
VISUALSTYLE
  5
A01
102
{ACAD_XDICTIONARY
360
B8E
102
}
102
{ACAD_REACTORS
330
9F9
102
}
330
9F9
100
AcDbVisualStyle
  2
Hidden
 70
     6
 71
     1
 72
     2
 73
     2
 90
        0
 40
-0.6
 41
-30.0
 62
     5
 63
     7
 74
     2
 91
        2
 64
     7
 65
   257
 75
     2
175
     1
 42
40.0
 92
        0
 66
   257
 43
1.0
 76
     1
 77
     6
 78
     2
 67
     7
 79
     3
170
     0
171
     0
290
     0
174
     0
 93
        1
 44
0.0
173
     0
291
     0
 45
0.0
1001
ACAD
1000
AcDbSavedByObjectVersion
1070
     0
  0
VISUALSTYLE
  5
A0F
102
{ACAD_XDICTIONARY
360
BAA
102
}
102
{ACAD_REACTORS
330
9F9
102
}
330
9F9
100
AcDbVisualStyle
  2
JitterOff
 70
    20
 71
     2
 72
     2
 73
     0
 90
        0
 40
-0.6
 41
-30.0
 62
     5
 63
     7
 74
     1
 91
        4
 64
     7
 65
   257
 75
     1
175
     1
 42
1.0
 92
       10
 66
     7
 43
1.0
 76
     1
 77
     6
 78
     2
 67
     7
 79
     5
170
     0
171
     0
290
     0
174
     0
 93
        1
 44
0.0
173
     0
291
     1
 45
0.0
1001
ACAD
1000
AcDbSavedByObjectVersion
1070
     0
  0
VISUALSTYLE
  5
A07
102
{ACAD_XDICTIONARY
360
B9A
102
}
102
{ACAD_REACTORS
330
9F9
102
}
330
9F9
100
AcDbVisualStyle
  2
Linepattern
 70
    14
 71
     2
 72
     2
 73
     0
 90
        0
 40
-0.6
 41
-30.0
 62
     5
 63
     7
 74
     1
 91
        4
 64
     7
 65
   257
 75
     7
175
     7
 42
1.0
 92
        8
 66
     7
 43
1.0
 76
     1
 77
     6
 78
     2
 67
     7
 79
     5
170
     0
171
     0
290
     0
174
     0
 93
        1
 44
0.0
173
     0
291
     1
 45
0.0
1001
ACAD
1000
AcDbSavedByObjectVersion
1070
     0
  0
VISUALSTYLE
  5
A10
102
{ACAD_XDICTIONARY
360
BAC
102
}
102
{ACAD_REACTORS
330
9F9
102
}
330
9F9
100
AcDbVisualStyle
  2
OverhangOff
 70
    21
 71
     2
 72
     2
 73
     0
 90
        0
 40
-0.6
 41
-30.0
 62
     5
 63
     7
 74
     1
 91
        4
 64
     7
 65
   257
 75
     1
175
     1
 42
1.0
 92
        9
 66
     7
 43
1.0
 76
     1
 77
     6
 78
     2
 67
     7
 79
     5
170
     0
171
     0
290
     0
174
     0
 93
        1
 44
0.0
173
     0
291
     1
 45
0.0
1001
ACAD
1000
AcDbSavedByObjectVersion
1070
     0
  0
VISUALSTYLE
  5
A03
102
{ACAD_XDICTIONARY
360
B92
102
}
102
{ACAD_REACTORS
330
9F9
102
}
330
9F9
100
AcDbVisualStyle
  2
Realistic
 70
     8
 71
     2
 72
     3
 73
     0
 90
        2
 40
-0.6
 41
30.0
 62
     5
 63
     7
 74
     0
 91
        0
 64
     7
 65
   257
 75
     1
175
     1
 42
1.0
 92
        8
 66
   257
 43
1.0
 76
     1
 77
     6
 78
     2
 67
     7
 79
     3
170
     0
171
     0
290
     0
174
     0
 93
       13
 44
0.0
173
     0
291
     0
 45
0.0
1001
ACAD
1000
AcDbSavedByObjectVersion
1070
     0
  0
VISUALSTYLE
  5
A0E
102
{ACAD_XDICTIONARY
360
BA8
102
}
102
{ACAD_REACTORS
330
9F9
102
}
330
9F9
100
AcDbVisualStyle
  2
Shaded
 70
    27
 71
     2
 72
     2
 73
     1
 90
        2
 40
-0.6
 41
30.0
 62
     5
 63
     7
 74
     0
 91
        4
 64
     7
 65
   257
 75
     1
175
     1
 42
1.0
 92
        8
 66
   257
 43
1.0
 76
     1
 77
     6
 78
     2
 67
     8
 79
     3
170
     0
171
     0
290
     0
174
     0
 93
        5
 44
0.0
173
     0
291
     0
 45
0.0
1001
ACAD
1000
AcDbSavedByObjectVersion
1070
     0
  0
VISUALSTYLE
  5
A0D
102
{ACAD_XDICTIONARY
360
BA6
102
}
102
{ACAD_REACTORS
330
9F9
102
}
330
9F9
100
AcDbVisualStyle
  2
Shaded with edges
 70
    26
 71
     2
 72
     2
 73
     1
 90
        2
 40
-0.6
 41
30.0
 62
     5
 63
     7
 74
     1
 91
       10
 64
     7
 65
   257
 75
     2
175
     1
 42
1.0
 92
        8
 66
   257
 43
1.0
 76
     1
 77
     6
 78
     2
 67
     7
 79
     3
170
     0
171
     0
290
     0
174
     0
 93
        5
 44
0.0
173
     0
291
     0
 45
0.0
1001
ACAD
1000
AcDbSavedByObjectVersion
1070
     0
  0
VISUALSTYLE
  5
A0A
102
{ACAD_XDICTIONARY
360
BA0
102
}
102
{ACAD_REACTORS
330
9F9
102
}
330
9F9
100
AcDbVisualStyle
  2
Shades of Gray
 70
    23
 71
     2
 72
     2
 73
     3
 90
        0
 40
-0.6
 41
-30.0
 62
     5
 63
     7
 74
     2
 91
        2
 64
     7
 65
     7
 75
     1
175
     1
 42
40.0
 92
        8
 66
     7
 43
1.0
 76
     1
 77
     6
 78
     2
 67
     7
 79
     3
170
     0
171
     0
290
     0
174
     0
 93
        1
 44
0.0
173
     0
291
     0
 45
0.0
1001
ACAD
1000
AcDbSavedByObjectVersion
1070
     0
  0
VISUALSTYLE
  5
A0B
102
{ACAD_XDICTIONARY
360
BA2
102
}
102
{ACAD_REACTORS
330
9F9
102
}
330
9F9
100
AcDbVisualStyle
  2
Sketchy
 70
    24
 71
     1
 72
     2
 73
     2
 90
        0
 40
-0.6
 41
-30.0
 62
     5
 63
     7
 74
     2
 91
        2
 64
     7
 65
     7
 75
     1
175
     1
 42
40.0
 92
       11
 66
     7
 43
1.0
 76
     1
 77
     6
 78
     2
 67
     7
 79
     6
170
     0
171
     0
290
     0
174
     0
 93
        1
 44
0.0
173
     0
291
     0
 45
0.0
1001
ACAD
1000
AcDbSavedByObjectVersion
1070
     0
  0
VISUALSTYLE
  5
A06
102
{ACAD_XDICTIONARY
360
B98
102
}
102
{ACAD_REACTORS
330
9F9
102
}
330
9F9
100
AcDbVisualStyle
  2
Thicken
 70
    13
 71
     2
 72
     2
 73
     0
 90
        0
 40
-0.6
 41
-30.0
 62
     5
 63
     7
 74
     1
 91
        4
 64
     7
 65
   257
 75
     1
175
     1
 42
1.0
 92
       12
 66
     7
 43
1.0
 76
     1
 77
     6
 78
     2
 67
     7
 79
     5
170
     0
171
     0
290
     0
174
     0
 93
        1
 44
0.0
173
     0
291
     1
 45
0.0
1001
ACAD
1000
AcDbSavedByObjectVersion
1070
     0
  0
VISUALSTYLE
  5
A00
102
{ACAD_XDICTIONARY
360
B8C
102
}
102
{ACAD_REACTORS
330
9F9
102
}
330
9F9
100
AcDbVisualStyle
  2
Wireframe
 70
     5
 71
     0
 72
     2
 73
     0
 90
        0
 40
-0.6
 41
-30.0
 62
     5
 63
     7
 74
     1
 91
        4
 64
     7
 65
   257
 75
     1
175
     1
 42
1.0
 92
        0
 66
   257
 43
1.0
 76
     1
 77
     6
 78
     2
 67
     7
 79
     3
170
     0
171
     0
290
     0
174
     0
 93
        1
 44
0.0
173
     0
291
     0
 45
0.0
1001
ACAD
1000
AcDbSavedByObjectVersion
1070
     0
  0
VISUALSTYLE
  5
A0C
102
{ACAD_XDICTIONARY
360
BA4
102
}
102
{ACAD_REACTORS
330
9F9
102
}
330
9F9
100
AcDbVisualStyle
  2
X-Ray
 70
    25
 71
     2
 72
     2
 73
     1
 90
        1
 40
0.5
 41
-30.0
 62
     5
 63
     7
 74
     1
 91
        0
 64
     7
 65
   257
 75
     1
175
     1
 42
1.0
 92
        8
 66
     7
 43
1.0
 76
     1
 77
     6
 78
     2
 67
     7
 79
     3
170
     0
171
     0
290
     0
174
     0
 93
       13
 44
0.0
173
     0
291
     0
 45
0.0
1001
ACAD
1000
AcDbSavedByObjectVersion
1070
     0
  0
DICTIONARYVAR
  5
B24
102
{ACAD_REACTORS
330
9C7
102
}
330
9C7
100
DictionaryVariables
280
     0
  1
1:1
  0
DICTIONARYVAR
  5
B22
102
{ACAD_REACTORS
330
9C7
102
}
330
9C7
100
DictionaryVariables
280
     0
  1
STANDARD
  0
DICTIONARYVAR
  5
9C8
102
{ACAD_REACTORS
330
9C7
102
}
330
9C7
100
DictionaryVariables
280
     0
  1
STANDARD
  0
DICTIONARYVAR
  5
9DE
102
{ACAD_REACTORS
330
9C7
102
}
330
9C7
100
DictionaryVariables
280
     0
  1
1
  0
DICTIONARYVAR
  5
B71
102
{ACAD_REACTORS
330
9C7
102
}
330
9C7
100
DictionaryVariables
280
     0
  1
0
  0
DICTIONARYVAR
  5
B26
102
{ACAD_REACTORS
330
9C7
102
}
330
9C7
100
DictionaryVariables
280
     0
  1
1
  0
DICTIONARYVAR
  5
B27
102
{ACAD_REACTORS
330
9C7
102
}
330
9C7
100
DictionaryVariables
280
     0
  1
15
  0
DICTIONARYVAR
  5
B25
102
{ACAD_REACTORS
330
9C7
102
}
330
9C7
100
DictionaryVariables
280
     0
  1
0
  0
DICTIONARYVAR
  5
B23
102
{ACAD_REACTORS
330
9C7
102
}
330
9C7
100
DictionaryVariables
280
     0
  1
0
  0
DICTIONARYVAR
  5
9DF
102
{ACAD_REACTORS
330
9C7
102
}
330
9C7
100
DictionaryVariables
280
     0
  1

  0
DICTIONARYVAR
  5
B70
102
{ACAD_REACTORS
330
9C7
102
}
330
9C7
100
DictionaryVariables
280
     0
  1
127
  0
DICTIONARYVAR
  5
B72
102
{ACAD_REACTORS
330
9C7
102
}
330
9C7
100
DictionaryVariables
280
     0
  1
2
  0
DICTIONARY
  5
B1E
330
9C1
100
AcDbDictionary
280
     1
281
     1
  3
ACAD_XREC_ROUNDTRIP
360
B7A
  3
ADSK_XREC_LAYOUTTHUMBNAIL
360
B1F
  0
DICTIONARY
  5
B7B
330
9C2
100
AcDbDictionary
280
     1
281
     1
  3
ACAD_XREC_ROUNDTRIP
360
B7C
  0
DICTIONARY
  5
9EA
330
9E9
100
AcDbDictionary
280
     1
281
     1
  3
ACAD_XREC_ROUNDTRIP
360
B7E
  3
BUMPTILE
360
9EC
  3
DIFFUSETILE
360
9EB
  3
OPACITYTILE
360
9EF
  3
REFLECTIONTILE
360
9EE
  3
REFRACTIONTILE
360
9F0
  3
SPECULARTILE
360
9ED
  0
DICTIONARY
  5
9E2
330
9E1
100
AcDbDictionary
280
     1
281
     1
  3
ACAD_XREC_ROUNDTRIP
360
B7D
  3
BUMPTILE
360
9E4
  3
DIFFUSETILE
360
9E3
  3
OPACITYTILE
360
9E7
  3
REFLECTIONTILE
360
9E6
  3
REFRACTIONTILE
360
9E8
  3
SPECULARTILE
360
9E5
  0
DICTIONARY
  5
9F2
330
9F1
100
AcDbDictionary
280
     1
281
     1
  3
ACAD_XREC_ROUNDTRIP
360
B7F
  3
BUMPTILE
360
9F4
  3
DIFFUSETILE
360
9F3
  3
OPACITYTILE
360
9F7
  3
REFLECTIONTILE
360
9F6
  3
REFRACTIONTILE
360
9F8
  3
SPECULARTILE
360
9F5
  0
DICTIONARY
  5
B75
330
A25
100
AcDbDictionary
280
     1
281
     1
  3
ACAD_XREC_ROUNDTRIP
360
B76
  0
DICTIONARY
  5
B73
330
9BE
100
AcDbDictionary
280
     1
281
     1
  3
ACAD_ROUNDTRIP_2008_TABLESTYLE_CELLSTYLEMAP
360
B74
  3
ACAD_XREC_ROUNDTRIP
360
B79
  0
DICTIONARY
  5
B8A
330
9FF
100
AcDbDictionary
280
     1
281
     1
  3
ACAD_XREC_ROUNDTRIP
360
B8B
  0
DICTIONARY
  5
B88
330
9FE
100
AcDbDictionary
280
     1
281
     1
  3
ACAD_XREC_ROUNDTRIP
360
B89
  0
DICTIONARY
  5
B96
330
A05
100
AcDbDictionary
280
     1
281
     1
  3
ACAD_XREC_ROUNDTRIP
360
B97
  0
DICTIONARY
  5
B9E
330
A09
100
AcDbDictionary
280
     1
281
     1
  3
ACAD_XREC_ROUNDTRIP
360
B9F
  0
DICTIONARY
  5
B90
330
A02
100
AcDbDictionary
280
     1
281
     1
  3
ACAD_XREC_ROUNDTRIP
360
B91
  0
DICTIONARY
  5
B94
330
A04
100
AcDbDictionary
280
     1
281
     1
  3
ACAD_XREC_ROUNDTRIP
360
B95
  0
DICTIONARY
  5
BAE
330
A11
100
AcDbDictionary
280
     1
281
     1
  3
ACAD_XREC_ROUNDTRIP
360
BAF
  0
DICTIONARY
  5
B9C
330
A08
100
AcDbDictionary
280
     1
281
     1
  3
ACAD_XREC_ROUNDTRIP
360
B9D
  0
DICTIONARY
  5
B80
330
9FA
100
AcDbDictionary
280
     1
281
     1
  3
ACAD_XREC_ROUNDTRIP
360
B81
  0
DICTIONARY
  5
B82
330
9FB
100
AcDbDictionary
280
     1
281
     1
  3
ACAD_XREC_ROUNDTRIP
360
B83
  0
DICTIONARY
  5
B84
330
9FC
100
AcDbDictionary
280
     1
281
     1
  3
ACAD_XREC_ROUNDTRIP
360
B85
  0
DICTIONARY
  5
B86
330
9FD
100
AcDbDictionary
280
     1
281
     1
  3
ACAD_XREC_ROUNDTRIP
360
B87
  0
DICTIONARY
  5
B8E
330
A01
100
AcDbDictionary
280
     1
281
     1
  3
ACAD_XREC_ROUNDTRIP
360
B8F
  0
DICTIONARY
  5
BAA
330
A0F
100
AcDbDictionary
280
     1
281
     1
  3
ACAD_XREC_ROUNDTRIP
360
BAB
  0
DICTIONARY
  5
B9A
330
A07
100
AcDbDictionary
280
     1
281
     1
  3
ACAD_XREC_ROUNDTRIP
360
B9B
  0
DICTIONARY
  5
BAC
330
A10
100
AcDbDictionary
280
     1
281
     1
  3
ACAD_XREC_ROUNDTRIP
360
BAD
  0
DICTIONARY
  5
B92
330
A03
100
AcDbDictionary
280
     1
281
     1
  3
ACAD_XREC_ROUNDTRIP
360
B93
  0
DICTIONARY
  5
BA8
330
A0E
100
AcDbDictionary
280
     1
281
     1
  3
ACAD_XREC_ROUNDTRIP
360
BA9
  0
DICTIONARY
  5
BA6
330
A0D
100
AcDbDictionary
280
     1
281
     1
  3
ACAD_XREC_ROUNDTRIP
360
BA7
  0
DICTIONARY
  5
BA0
330
A0A
100
AcDbDictionary
280
     1
281
     1
  3
ACAD_XREC_ROUNDTRIP
360
BA1
  0
DICTIONARY
  5
BA2
330
A0B
100
AcDbDictionary
280
     1
281
     1
  3
ACAD_XREC_ROUNDTRIP
360
BA3
  0
DICTIONARY
  5
B98
330
A06
100
AcDbDictionary
280
     1
281
     1
  3
ACAD_XREC_ROUNDTRIP
360
B99
  0
DICTIONARY
  5
B8C
330
A00
100
AcDbDictionary
280
     1
281
     1
  3
ACAD_XREC_ROUNDTRIP
360
B8D
  0
DICTIONARY
  5
BA4
330
A0C
100
AcDbDictionary
280
     1
281
     1
  3
ACAD_XREC_ROUNDTRIP
360
BA5
  0
XRECORD
  5
B7A
102
{ACAD_REACTORS
330
B1E
102
}
330
B1E
100
AcDbXrecord
280
     1
102
SHADEPLOT
 70
     0
102
SHADEPLOTRESLEVEL
 70
     2
102
SHADEPLOTCUSTOMDPI
 70
   300
  0
XRECORD
  5
B1F
102
{ACAD_REACTORS
330
B1E
102
}
330
B1E
100
AcDbXrecord
280
     1
310
280000000001000088000000010008000000000000880000000000000000000000010000000000000000000000000000C8C8C8000000000000000000000000000000000000000000000000000000000000000000330000006600000099000000CC000000FF00000000330000333300006633000099330000CC330000FF3300
310
0000660000336600006666000099660000CC660000FF66000000990000339900006699000099990000CC990000FF99000000CC000033CC000066CC000099CC0000CCCC0000FFCC000000FF000033FF000066FF000099FF0000CCFF0000FFFF000000003300330033006600330099003300CC003300FF003300003333003333
310
33006633330099333300CC333300FF33330000663300336633006666330099663300CC663300FF66330000993300339933006699330099993300CC993300FF99330000CC330033CC330066CC330099CC3300CCCC3300FFCC330000FF330033FF330066FF330099FF3300CCFF3300FFFF330000006600330066006600660099
310
006600CC006600FF00660000336600333366006633660099336600CC336600FF33660000666600336666006666660099666600CC666600FF66660000996600339966006699660099996600CC996600FF99660000CC660033CC660066CC660099CC6600CCCC6600FFCC660000FF660033FF660066FF660099FF6600CCFF6600
310
FFFF660000009900330099006600990099009900CC009900FF00990000339900333399006633990099339900CC339900FF33990000669900336699006666990099669900CC669900FF66990000999900339999006699990099999900CC999900FF99990000CC990033CC990066CC990099CC9900CCCC9900FFCC990000FF99
310
0033FF990066FF990099FF9900CCFF9900FFFF99000000CC003300CC006600CC009900CC00CC00CC00FF00CC000033CC003333CC006633CC009933CC00CC33CC00FF33CC000066CC003366CC006666CC009966CC00CC66CC00FF66CC000099CC003399CC006699CC009999CC00CC99CC00FF99CC0000CCCC0033CCCC0066CC
310
CC0099CCCC00CCCCCC00FFCCCC0000FFCC0033FFCC0066FFCC0099FFCC00CCFFCC00FFFFCC000000FF003300FF006600FF009900FF00CC00FF00FF00FF000033FF003333FF006633FF009933FF00CC33FF00FF33FF000066FF003366FF006666FF009966FF00CC66FF00FF66FF000099FF003399FF006699FF009999FF00CC
310
99FF00FF99FF0000CCFF0033CCFF0066CCFF0099CCFF00CCCCFF00FFCCFF0000FFFF0033FFFF0066FFFF0099FFFF00CCFFFF00FFFFFF00000000000D0D0D001A1A1A00282828003535350043434300505050005D5D5D006B6B6B00787878008686860093939300A1A1A100AEAEAE00BBBBBB00C9C9C900D6D6D600E4E4E400
310
F1F1F100FFFFFF000000000000000000000000000000000000000000000000000000000000000000000000000000000000000000000000000000000000000000000000000000000000000000000000000000000000000000000000000000000000000000000000000000000000000000000000000000000000000000000000
310
00000000000000000000000000000000000000000000000000000000000000000000000000000000000000000000000000000000000000000000000000000000000000000000000000000000000000000000000000000000000000000000000000000000000000000000000000000000000000000000000000000000000000
310
00000000000000000000000000000000000000000000000000000000000000000000000000000000000000000000000000000000000000000000000000000000000000000000000000000000000000000000000000000000000000000000000000000000000000000000000000000000000000000000000000000000000000
310
00000000000000000000000000000000000000282828282828282828282828282828282828282828282828282828282828282828282828282828282828282828282828282828282828282828282828282828280000000000000000000000000000000000000000000000000000000000000000000000000000000000000000
310
00000000000000000000000000000000000000000000000000000000000000000000000000000000000000000000000000000000000000000000000000000000000000000000000000000000000000000000000000000000000000000000000000000000000000000000000000000000000000000000000000000000000000
310
00000000000000000000000000000000000000000028002828282828282828282828282828282828282828282828282828282828282828282828282828282828282828282828282828282828282828282828280028000000000000000000000000000000000000000000000000000000000000000000000000000000000000
310
00000000000000000000000000000000000000000000000000000000000000000000000000000000000000000000000000000000000000000000000000000000000000000000000000000000000000000000000000000000000000000000000000000000000000000000000000000000000000000000000000000000000000
310
000000000000000000000000000000000000000000000028002800000000000000000000000000000000000000000000000000000000000000000000000000000000000000280000F5F50000280000F5F5F5000028002800000000000000000000000000000000000000000000000000000000000000000000000000000000
310
00000000000000000000000000000000000000000000000000000000000000000000000000000000000000000000000000000000000000000000000000000000000000000000000000000000000000000000000000000000000000000000000000000000000000000000000000000000000000000000000000000000000000
310
0000000000000000000000000000000000000000000000000028002800000000000000000000000000000000ECECECECECECECECECECECECECEC00000000000000000000000000280000F5F50000280000F5F5F500002800280000000000000000000000000000000000000000000000000000000000000000000000000000
310
00000000000000000000000000000000000000000000000000000000000000000000000000000000000000000000000000000000000000000000000000000000000000000000000000000000000000000000000000000000000000000000000000000000000000000000000000000000000000000000000000000000000000
310
00000000000000000000000000000000000000000000000000000028002800000000000000000000000000000000ECECECECECECECECECECECECECEC00000000000000000000000000282828282828282828282828282828280028000000000000000000000000000000000000000000000000000000000000000000000000
310
00000000000000000000000000000000000000000000000000000000000000000000000000000000000000000000000000000000000000000000000000000000000000000000000000000000000000000000000000000000000000000000000000000000000000000000000000000000000000000000000000000000000000
310
00000000000000000000000000000000000000000000000000000000002800280000000000000000C3C3C3C3C3C3C3C3C3C3C3C3C3C3C3C3C3C3C3C3C3C3C3C3C3C3C3C3C3C3C3C30000002800F5F5F5F500282828282828282828002800000000000000000000000000000000000000000000000000000000000000000000
310
00000000000000000000000000000000000000000000000000000000000000000000000000000000000000000000000000000000000000000000000000000000000000000000000000000000000000000000000000000000000000000000000000000000000000000000000000000000000000000000000000000000000000
310
000000000000000000000000000000000000000000000000000000000000002800280000000000000000C3C3C3C3C300C3C3C300C3C3C300C3C3C300C3C3C300C3C3C300C3C3C300C3C30000002800F5F5F5F50028282828282828282800280000000000000000000000000000000000000000000000000000000000000000
310
00000000000000000000000000000000000000000000000000000000000000000000000000000000000000000000000000000000000000000000000000000000000000000000000000000000000000000000000000000000000000000000000000000000000000000000000000000000000000000000000000000000000000
310
000000000000000000000000000000000000000000000000000000000000000000280028000000000000000000C3C3000000C3000000C3000000C3000000C3000000C3000000C3000000C3C300000028282828282828282828F5F5F5F5F5F50028000000000000000000000000000000000000000000000000000000000000
310
00000000000000000000000000000000000000000000000000000000000000000000000000000000000000000000000000000000000000000000000000000000000000000000000000000000000000000000000000000000000000000000000000000000000000000000000000000000000000000000000000000000000000
310
000000000000000000000000000000000000000000000000000000000000000000000028002800000000BEC3C3C300C3C3F5F5F5C3F5F5F5C3F5F5F5C3F5F5F5C3F5F5F5C3F5F5F5C3F5F5F5C3C3C3C300280000000000F5F5F5F5000000000028002800000000000000000000000000000000000000000000000000000000
310
00000000000000000000000000000000000000000000000000000000000000000000000000000000000000000000000000000000000000000000000000000000000000000000000000000000000000000000000000000000000000000000000000000000000000000000000000000000000000000000000000000000000000
310
0000000000000000000000000000000000000000000000000000000000000000000000000028002800000000BEBEC3C300F5F5F5F5F5F5F5F5F5F5F5F5F5F5F5F5F5F5F5F5F5F5F5F5F5F5F5F5F5F5F5C3C300280000000000F5F5F5F500000000002800280000000000000000000000000000000000000000000000000000
310
00000000000000000000000000000000000000000000000000000000000000000000000000000000000000000000000000000000000000000000000000000000000000000000000000000000000000000000000000000000000000000000000000000000000000000000000000000000000000000000000000000000000000
310
0000000000000000000000000000000000000000000000000000000000000000000000000000002800280000C3C3C3C3C3C300F5F5F5F5F5F5F5F5F5F5F5F5F5F5F5F5F5F5F5F5F5F5F5F5F5F5F5F5F5C3C3C3C300282828282828282828282828282828280028000000000000000000000000000000000000000000000000
310
00000000000000000000000000000000000000000000000000000000000000000000000000000000000000000000000000000000000000000000000000000000000000000000000000000000000000000000000000000000000000000000000000000000000000000000000000000000000000000000000000000000000000
310
00000000000000000000000000000000000000000000000000000000000000000000000000000000002800280000C3C3C30000C300F5F5F5F5F5F5F5F5F5F5F5F5F5F5F5F5F5F5F5F5F5F5F5F5F5F5F5F5F5F5F500000028ECECECECECECECECECECECEC000028002800000000000000000000000000000000000000000000
310
00000000000000000000000000000000000000000000000000000000000000000000000000000000000000000000000000000000000000000000000000000000000000000000000000000000000000000000000000000000000000000000000000000000000000000000000000000000000000000000000000000000000000
310
0000000000000000000000000000000000000000000000000000000000000000000000000000000000000028002800BEC3C3C3C3C3C300C3F5F5F5F5F5F5F5F5F5F5F5F5F5F5F5F5F5F5F5F5F5F5F5F5F5F5F5F5F5C30000002800000000000000000000000000002800280000000000000000000000000000000000000000
310
00000000000000000000000000000000000000000000000000000000000000000000000000000000000000000000000000000000000000000000000000000000000000000000000000000000000000000000000000000000000000000000000000000000000000000000000000000000000000000000000000000000000000
310
000000000000000000000000000000000000000000000000000000000000000000000000000000000000000000280028000000000000000000C3C3C3C3C3C3C3C3C3C3C3C3C3C3C3C3C3C3C3C3C3C3C3C3C3C3C3C3C3C3C3000000280000000000000000000000000000280028000000000000000000000000000000000000
310
00000000000000000000000000000000000000000000000000000000000000000000000000000000000000000000000000000000000000000000000000000000000000000000000000000000000000000000000000000000000000000000000000000000000000000000000000000000000000000000000000000000000000
310
0000000000000000000000000000000000000000000000000000000000000000000000000000000000000000000000280028000000000000000000C300000000000000000000000000C3C3C300000000000000000000000000C300000028000000000000000000000000000028002800000000000000000000000000000000
310
00000000000000000000000000000000000000000000000000000000000000000000000000000000000000000000000000000000000000000000000000000000000000000000000000000000000000000000000000000000000000000000000000000000000000000000000000000000000000000000000000000000000000
310
00000000000000000000000000000000000000000000000000000000000000000000000000000000000000000000000000280028000000000000000000C3C3C3C3C3C3C3C3C3C3C3C3C3C3C3C3C3C3C3C3C3C3C3C3C3C3C3C3C3C3C30000002800000000000000000000000000002800280000000000000000000000000000
310
00000000000000000000000000000000000000000000000000000000000000000000000000000000000000000000000000000000000000000000000000000000000000000000000000000000000000000000000000000000000000000000000000000000000000000000000000000000000000000000000000000000000000
310
00000000000000000000000000000000000000000000000000000000000000000000000000000000000000000000000000000028002800BEC3C3C3C3C3C300C3F5F5F5F5F5F5F5F5F5F5F5F5F5F5F5F5F5F5F5F5F5F5F5F5F5F5F5F5F5C3000000280000000000000000000000000000280028000000000000000000000000
310
00000000000000000000000000000000000000000000000000000000000000000000000000000000000000000000000000000000000000000000000000000000000000000000000000000000000000000000000000000000000000000000000000000000000000000000000000000000000000000000000000000000000000
310
00000000000000000000000000000000000000000000000000000000000000000000000000000000000000000000000000000000002800280000BEC3C30000C300F5F5F5F5F5F5F5F5F5F5F5F5F5F5F5F5F5F5F5F5F5F5F5F5F5F5F5F5F5F5F500000028000000000000000000000000000028002800000000000000000000
310
00000000000000000000000000000000000000000000000000000000000000000000000000000000000000000000000000000000000000000000000000000000000000000000000000000000000000000000000000000000000000000000000000000000000000000000000000000000000000000000000000000000000000
310
000000000000000000000000000000000000000000000000000000000000000000000000000000000000000000000000000000000000002800280000C3C3BE00C3C300F500BE000000BE000000BE000000BE000000BE000000BE000000BE000000BE00C3002800000000000000000000000000002800280000000000000000
310
00000000000000000000000000000000000000000000000000000000000000000000000000000000000000000000000000000000000000000000000000000000000000000000000000000000000000000000000000000000000000000000000000000000000000000000000000000000000000000000000000000000000000
310
00000000000000000000000000000000000000000000000000000000000000000000000000000000000000000000000000000000000000000028002800000000C3C3C3C300F5F5F5F5F5BEF5F5F5F5F5F5F5F5F5F5F5F5F5F5F5F5F5F5F5F5F5F5F5F5C3C3C300280000000000000000000000000000280028000000000000
310
00000000000000000000000000000000000000000000000000000000000000000000000000000000000000000000000000000000000000000000000000000000000000000000000000000000000000000000000000000000000000000000000000000000000000000000000000000000000000000000000000000000000000
310
000000000000000000000000000000000000000000000000000000000000000000000000000000000000000000000000000000000000000000000028002800000000BEC3C3C300C3F5C3F5F5F5C3F5F5F5C3F5F5F5C3F5F5F5C3F5F5F5C3F5F5F5C3F5F5F5C3C3C30028000000000000000000000000000028002800000000
310
00000000000000000000000000000000000000000000000000000000000000000000000000000000000000000000000000000000000000000000000000000000000000000000000000000000000000000000000000000000000000000000000000000000000000000000000000000000000000000000000000000000000000
310
00000000000000000000000000000000000000000000000000000000000000000000000000000000000000000000000000000000000000000000000000280028000000000000000000C300C3000000C3000000C3000000C3000000C3000000C3000000C3000000C30000002800000000000000000000000000002800280000
310
00000000000000000000000000000000000000000000000000000000000000000000000000000000000000000000000000000000000000000000000000000000000000000000000000000000000000000000000000000000000000000000000000000000000000000000000000000000000000000000000000000000000000
310
000000000000000000000000000000000000000000000000000000000000000000000000000000000000000000000000000000000000000000000000000000280028000000000000000000C300C3000000C3000000C3000000C3000000C3000000C3000000C3000000C30000002800ECECECEC000000000000000000280028
310
00000000000000000000000000000000000000000000000000000000000000000000000000000000000000000000000000000000000000000000000000000000000000000000000000000000000000000000000000000000000000000000000000000000000000000000000000000000000000000000000000000000000000
310
0000000000000000000000000000000000000000000000000000000000000000000000000000000000000000000000000000000000000000000000000000000000280028000000000000000000C3C3C3C3C3C3C3C3C3C3C3C3C3C3C3C3C3C3C3C3C3C3C3C3C3C3C3C3C3C3C3C3000028ECECECECECEC000000000000000028
310
00280000000000000000000000000000000000000000000000000000000000000000000000000000000000000000000000000000000000000000000000000000000000000000000000000000000000000000000000000000000000000000000000000000000000000000000000000000000000000000000000000000000000
310
000000000000000000000000000000000000000000000000000000000000000000000000000000000000000000000000000000000000000000000000000000000000002800280000000000000000000000000000000000000000000000000000000000000000000000000000000000000028ECECECECECECEC000000000000
310
00280028000000000000000000000000000000000000000000000000000000000000000000000000000000000000000000000000000000000000000000000000000000000000000000000000000000000000000000000000000000000000000000000000000000000000000000000000000000000000000000000000000000
310
00000000000000000000000000000000000000000000000000000000000000000000000000000000000000000000000000000000000000000000000000000000000000000028002800000000000000000000000000000000000000000000000000000000000000000000000000000000000000280000ECECECECECEC000000
310
00000028002800000000000000000000000000000000000000000000000000000000000000000000000000000000000000000000000000000000000000000000000000000000000000000000000000000000000000000000000000000000000000000000000000000000000000000000000000000000000000000000000000
310
000000000000000000000000000000000000000000000000000000000000000000000000000000000000000000000000000000000000000000000000000000000000000000000028002800000000000000ECECECECEC00000000000000000000000000000000ECECECECEC00000000000000000000280000ECECECECEC0000
310
ECEC0000002800280000000000000000000000000000000000000000000000000000000000000000000000000000000000000000000000000000000000000000000000000000000000000000000000000000000000000000000000000000000000000000000000000000000000000000000000000000000000000000000000
310
000000000000000000000000000000000000000000000000000000000000000000000000000000000000000000000000000000000000000000000000000000000000000000000000002800280000000000ECECECECECECECEC0000000000000000000000000000ECECECECECECECEC0000000000000000280000ECECECECEC
310
EC00ECEC000000280028000000000000000000000000000000000000000000000000000000000000000000000000000000000000000000000000000000000000000000000000000000000000000000000000000000000000000000000000000000000000000000000000000000000000000000000000000000000000000000
310
000000000000000000000000000000000000000000000000000000000000000000000000000000000000000000000000000000000000000000000000000000000000000000000000000000280028000000000000000000000000000000000000000000000000000000000000000000000000000000000000002800ECECECEC
310
ECECECEC000000000028002800000000000000000000000000000000000000000000000000000000000000000000000000000000000000000000000000000000000000000000000000000000000000000000000000000000000000000000000000000000000000000000000000000000000000000000000000000000000000
310
00000000000000000000000000000000000000000000000000000000000000000000000000000000000000000000000000000000000000000000000000000000000000000000000000000000002800280000000000000000000000000000000000000000000000C3C3C3C300000000000000000000000000000000280000EC
310
ECEC0000000000000000002800280000000000000000000000000000000000000000000000000000000000000000000000000000000000000000000000000000000000000000000000000000000000000000000000000000000000000000000000000000000000000000000000000000000000000000000000000000000000
310
000000000000000000000000000000000000000000000000000000000000000000000000000000000000000000000000000000000000000000000000000000000000000000000000000000000000002800280000000000000000000000000000000000000000000000C3C3C3C300000000C3C30000000000000000000028EC
310
ECECECECEC0000000000000000280028000000000000000000000000000000000000000000000000000000000000000000000000000000000000000000000000000000000000000000000000000000000000000000000000000000000000000000000000000000000000000000000000000000000000000000000000000000
310
0000000000000000000000000000000000000000000000000000000000000000000000000000000000000000000000000000000000000000000000000000000000000000000000000000000000000000002800280000000000000000000000000000000000000000000000C3C300C300000000C3C300000000000000000000
310
28ECECECECECEC000000000000000028002800000000000000000000000000000000000000000000000000000000000000000000000000000000000000000000000000000000000000000000000000000000000000000000000000000000000000000000000000000000000000000000000000000000000000000000000000
310
00000000000000000000000000000000000000000000000000000000000000000000000000000000000000000000000000000000000000000000000000000000000000000000000000000000000000000000002800280000C3C300000000000000000000C3C3C30000000000C3C3C300C3000000C3C3C30000000000000000
310
00002828282828282828282828282828282800280000000000000000000000000000000000000000000000000000000000000000000000000000000000000000000000000000000000000000000000000000000000000000000000000000000000000000000000000000000000000000000000000000000000000000000000
310
000000000000000000000000000000000000000000000000000000000000000000000000000000000000000000000000000000000000000000000000000000000000000000000000000000000000000000000000002800280000C3C3C300000000C3000000C3C3C3000000000000C3282800C3000000C3282800000000C300
310
0000000028000000ECECECECECECEC00000000280028000000000000000000000000000000000000000000000000000000000000000000000000000000000000000000000000000000000000000000000000000000000000000000000000000000000000000000000000000000000000000000000000000000000000000000
310
000000000000000000000000000000000000000000000000000000000000000000000000000000000000000000000000000000000000000000000000000000000000000000000000000000000000000000000000000000280028000000C328BE000000C30000BE28C300000000000000C3282828C3000000C32828000000C3
310
00000000000028280000ECECECECECECEC0000000028002800000000000000000000000000000000000000000000000000000000000000000000000000000000000000000000000000000000000000000000000000000000000000000000000000000000000000000000000000000000000000000000000000000000000000
310
00000000000000000000000000000000000000000000000000000000000000000000000000000000000000000000000000000000000000000000000000000000000000000000000000000000000000000000000000000000002800280000C30000BEBE0000C300BE282800C30000000000C3C3282828280000C3C328280000
310
C3000000000000002828282828282828282828282828282800280000000000000000000000000000000000000000000000000000000000000000000000000000000000000000000000000000000000000000000000000000000000000000000000000000000000000000000000000000000000000000000000000000000000
310
00000000000000000000000000000000000000000000000000000000000000000000000000000000000000000000000000000000000000000000000000000000000000000000000000000000000000000000000000000000000000280028000000C3000028BE00C3BE282800C3000000000000C3C3282828280000C3C32828
310
00C3C3000000000000002800ECECECECECECECECECECEC0000280028000000000000000000000000000000000000000000000000000000000000000000000000000000000000000000000000000000000000000000000000000000000000000000000000000000000000000000000000000000000000000000000000000000
310
00000000000000000000000000000000000000000000000000000000000000000000000000000000000000000000000000000000000000000000000000000000000000000000000000000000000000000000000000000000000000000028002800000000C3000028BEC3280000C30000000000000000C328280000000000C3
310
2828C300000000000000000028280000000000000000000000000028002800000000000000000000000000000000000000000000000000000000000000000000000000000000000000000000000000000000000000000000000000000000000000000000000000000000000000000000000000000000000000000000000000
310
000000000000000000000000000000000000000000000000000000000000000000000000000000000000000000000000000000000000000000000000000000000000000000000000000000000000000000000000000000000000000000000028002800000000C3C3000028C30000C3C30000000000000000C3282828280000
310
00C3C3C3C328282828C3C3C300002828282828282828282828282828282800280000000000000000000000000000000000000000000000000000000000000000000000000000000000000000000000000000000000000000000000000000000000000000000000000000000000000000000000000000000000000000000000
310
00000000000000000000000000000000000000000000000000000000000000000000000000000000000000000000000000000000000000000000000000000000000000000000000000000000000000000000000000000000000000000000000000280028000000000000C300C3C300C300000000000000000000C3C3C32828
310
000000C3C3C32828282828C3C3C30000280028282828282828282828282828280028000000000000000000000000000000000000000000000000000000000000000000000000000000000000000000000000000000000000000000000000000000000000000000000000000000000000000000000000000000000000000000
310
00000000000000000000000000000000000000000000000000000000000000000000000000000000000000000000000000000000000000000000000000000000000000000000000000000000000000000000000000000000000000000000000000000028002800000000000000C3C3C3C30000000000000000000000000000
310
0000000000C3C3C3C3C3C3C3C3C3C300000028282828282828282828282828282828002800000000000000000000000000000000000000000000000000000000000000000000000000000000000000000000000000000000000000000000000000000000000000000000000000000000000000000000000000000000000000
310
00000000000000000000000000000000000000000000000000000000000000000000000000000000000000000000000000000000000000000000000000000000000000000000000000000000000000000000000000000000000000000000000000000000002800280000000000000000000000000000000000000000000000
310
0000000000000000C30000C3C3000000C30000002800282828282828282828282800002800280000000000000000000000000000000000000000000000000000000000000000000000000000000000000000000000000000000000000000000000000000000000000000000000000000000000000000000000000000000000
310
00000000000000000000000000000000000000000000000000000000000000000000000000000000000000000000000000000000000000000000000000000000000000000000000000000000000000000000000000000000000000000000000000000000000000280028282828282828282828282828282828282828282828
310
28282828282828282828282828282828282828282828282828282828282828282828282828280028000000000000000000000000000000000000000000000000000000000000000000000000000000000000000000000000000000000000000000000000000000000000000000000000000000000000000000000000000000
310
00000000000000000000000000000000000000000000000000000000000000000000000000000000000000000000000000000000000000000000000000000000000000000000000000000000000000000000000000000000000000000000000000000000000000000028000000000000000000000000000000000000000000
310
00000000000000000000000000000000000000000000000000000000000000000000000000000000002800000000000000000000000000000000000000000000000000000000000000000000000000000000000000000000000000000000000000000000000000000000000000000000000000000000000000000000000000
310
00000000000000000000000000000000000000000000000000000000000000000000000000000000000000000000000000000000000000000000000000000000000000000000000000000000000000000000000000000000000000000000000000000000000000000000002828282828282828282828282828282828282828
310
28282828282828282828282828282828282828282828282828282828282828282828282828282828282828280000000000000000000000000000000000000000000000000000000000000000000000000000000000000000000000000000000000000000000000000000000000000000000000000000000000000000000000
310
00000000000000000000000000000000000000000000000000000000000000000000000000000000000000000000000000000000000000000000000000000000000000000000000000000000000000000000000000000000000000000000000000000000000000000000000000280000000000000000000000000000000000
310
00000000000000000000000000000000000000000000000000000000000000000000000000000000000000000028000000000000000000000000000000000000000000000000000000000000000000000000000000000000000000000000000000000000000000000000000000000000000000000000000000000000000000
310
00000000000000000000000000000000000000000000000000000000000000000000000000000000000000000000000000000000000000000000000000000000000000000000000000000000000000000000000000000000000000000000000000000000000000000000000000000028002828282828282828282828282828
310
28282828282828282828282828282828282828282828282828282828282828282828282828282828282828282828002800000000000000000000000000000000000000000000000000000000000000000000000000000000000000000000000000000000000000000000000000000000000000000000000000000000000000
310
00000000000000000000000000000000000000000000000000000000000000000000000000000000000000000000000000000000000000000000000000000000000000000000000000000000000000000000000000000000000000000000000000000000000000000000000000000000002800280000000000000000000000
310
00000000ECECECECECECECECECECECECECECECEC000000000000000000000000280000F5F50000280000F5F5F500002800280000000000000000000000000000000000000000000000000000000000000000000000000000000000000000000000000000000000000000000000000000000000000000000000000000000000
310
000000000000000000000000000000000000000000000000000000000000000000000000000000000000000000000000000000000000000000000000000000000000000000000000000000000000000000000000000000000000000000000000000000000000000000000000000000000000002800280000000000000000C3
310
C3C3C3C3C3C3C3C3C3C3C3C3C3C3C3C3C3C3C3C3C3C3C3C3C3C3C3C3C3C3C3000000282828000000002828282800000000280028000000000000000000000000000000000000000000000000000000000000000000000000000000000000000000000000000000000000000000000000000000000000000000000000000000
310
00000000000000000000000000000000000000000000000000000000000000000000000000000000000000000000000000000000000000000000000000000000000000000000000000000000000000000000000000000000000000000000000000000000000000000000000000000000000000000028002800000000000000
310
00C3C3C3C3C300C3C3C300C3C3C300C3C3C300C3C3C300C3C3C300C3C3C300C3C300000028282828282828282828282828282828002800000000000000000000000000000000000000000000000000000000000000000000000000000000000000000000000000000000000000000000000000000000000000000000000000
310
0000000000000000000000000000000000000000000000000000000000000000000000000000000000000000000000000000000000000000000000000000000000000000000000000000000000000000000000000000000000000000000000000000000000000000000000000000000000000000000000280028000000C3C3
310
C3C30000C3C3F5F5F5C3F5F5F5C3F5F5F5C3F5F5F5C3F5F5F5C3F5F5F5C3F5F5F5C3C3C3C3002800F5F5F5F50028282828282828282800280000000000000000000000000000000000000000000000000000000000000000000000000000000000000000000000000000000000000000000000000000000000000000000000
310
000000000000000000000000000000000000000000000000000000000000000000000000000000000000000000000000000000000000000000000000000000000000000000000000000000000000000000000000000000000000000000000000000000000000000000000000000000000000000000000000002800280000BE
310
BEC3C3C30000F5F5F5F5F5F5F5F5F5F5F5F5F5F5F5F5F5F5F5F5F5F5F5F5F5F5F5F5F5F5F5C3C30028280000000000282828F5F5F5F5F5F50028000000000000000000000000000000000000000000000000000000000000000000000000000000000000000000000000000000000000000000000000000000000000000000
310
00000000000000000000000000000000000000000000000000000000000000000000000000000000000000000000000000000000000000000000000000000000000000000000000000000000000000000000000000000000000000000000000000000000000000000000000000000000000000000000000000000028002800
310
00C3C3C3C3C30000F5F5F5F5F5F5F5F5F5F5F5F5F5F5F5F5F5F5F5F5F5F5F5F5F5F5F5F5F5F5C3C3C30028282828282828282828F5F5F5F5F5F5002800000000000000000000000000000000000000000000000000000000000000000000000000000000000000000000000000000000000000000000000000000000000000
310
00000000000000000000000000000000000000000000000000000000000000000000000000000000000000000000000000000000000000000000000000000000000000000000000000000000000000000000000000000000000000000000000000000000000000000000000000000000000000000000000000000000002800
310
280000C3BE00C3C30000F50000000000000000000000000000000000000000000000000000000000F5000000280000000000F5F5F5F500000000002800280000000000000000000000000000000000000000000000000000000000000000000000000000000000000000000000000000000000000000000000000000000000
310
00000000000000000000000000000000000000000000000000000000000000000000000000000000000000000000000000000000000000000000000000000000000000000000000000000000000000000000000000000000000000000000000000000000000000000000000000000000000000000000000000000000000000
310
28002800C3C3C3C3C3C30000F5F5F5F5F5F5F5F5F5F5F5F5F5F5F5F5F5F5F5F5F5F5F5F5F5F5F5F5F5F5F5000000282828000000000000000000000000280028000000000000000000000000000000000000000000000000000000000000000000000000000000000000000000000000000000000000000000000000000000
310
00000000000000000000000000000000000000000000000000000000000000000000000000000000000000000000000000000000000000000000000000000000000000000000000000000000000000000000000000000000000000000000000000000000000000000000000000000000000000000000000000000000000000
310
000028002800C3C3000000000000F5F5F5F5F5F5F5F5F5F5F5F5F5F5F5F5F5F5F5F5F5F5F5F5F5F5F5F5F5F5F500000028ECECECECECECECECECECECEC282828002800000000000000000000000000000000000000000000000000000000000000000000000000000000000000000000000000000000000000000000000000
310
00000000000000000000000000000000000000000000000000000000000000000000000000000000000000000000000000000000000000000000000000000000000000000000000000000000000000000000000000000000000000000000000000000000000000000000000000000000000000000000000000000000000000
310
00000000280028BEC300000000000000F5F5BEF5F5F5BEF5F5F5BEF5F5F5BEF5F5F5BEF5F5F5BEF5F5F5BEF5F5F5F500000028ECECECECECECECECECECECEC00002800280000000000000000000000000000000000000000000000000000000000000000000000000000000000000000000000000000000000000000000000
310
00000000000000000000000000000000000000000000000000000000000000000000000000000000000000000000000000000000000000000000000000000000000000000000000000000000000000000000000000000000000000000000000000000000000000000000000000000000000000000000000000000000000000
310
000000000000280028BE0000000000000000C3C3C3C3C3C3C3C3C3C3C3C3C3C3C3C3C3C3C3C3C3C3C3C3C3C3C3C3C3C3C3000000280000000000000000000000000000280028000000000000000000000000000000000000000000000000000000000000000000000000000000000000000000000000000000000000000000
310
00000000000000000000000000000000000000000000000000000000000000000000000000000000000000000000000000000000000000000000000000000000000000000000000000000000000000000000000000000000000000000000000000000000000000000000000000000000000000000000000000000000000000
310
00000000000000002800280000000000000000000000000000000000000000000000C3C3C3000000000000000000000000000000000028000000000000000000000000000028002800000000000000000000000000000000000000000000000000000000000000000000000000000000000000000000000000000000000000
310
00000000000000000000000000000000000000000000000000000000000000000000000000000000000000000000000000000000000000000000000000000000000000000000000000000000000000000000000000000000000000000000000000000000000000000000000000000000000000000000000000000000000000
310
00000000000000000000280028000000000000000000C3C3C3C3C3C3C3C3C3C3C3C3C3C3C3C3C3C3C3C3C3C3C3C3C3C3C3C3C3C3C30000002800000000000000000000000000002800280000000000000000000000000000000000000000000000000000000000000000000000000000000000000000000000000000000000
310
00000000000000000000000000000000000000000000000000000000000000000000000000000000000000000000000000000000000000000000000000000000000000000000000000000000000000000000000000000000000000000000000000000000000000000000000000000000000000000000000000000000000000
310
000000000000000000000000280028BE0000000000000000C3F5F5F5F5F5F5F5F5F5F5F5F5F5F5F5F5F5F5F5F5F5F5F5F5F5F5F5F5F5C3000000280000000000000000000000000000280028000000000000000000000000000000000000000000000000000000000000000000000000000000000000000000000000000000
310
00000000000000000000000000000000000000000000000000000000000000000000000000000000000000000000000000000000000000000000000000000000000000000000000000000000000000000000000000000000000000000000000000000000000000000000000000000000000000000000000000000000000000
310
0000000000000000000000000000280028BEC300000000000000F5F5F5F5F5F5F5F5F5F5F5F5F5F5F5F5F5F5F5F5F5F5F5F5F5F5F5F5F5F5F500000028000000000000000000000000000028002800000000000000000000000000000000000000000000000000000000000000000000000000000000000000000000000000
310
00000000000000000000000000000000000000000000000000000000000000000000000000000000000000000000000000000000000000000000000000000000000000000000000000000000000000000000000000000000000000000000000000000000000000000000000000000000000000000000000000000000000000
310
0000000000000000000000000000000028002800C3C300C300000000F5BE000000BE000000BE000000BE000000BE000000BE000000BE000000BEF50000002800000000000000000000000000002800280000000000000000000000000000000000000000000000000000000000000000000000000000000000000000000000
310
00000000000000000000000000000000000000000000000000000000000000000000000000000000000000000000000000000000000000000000000000000000000000000000000000000000000000000000000000000000000000000000000000000000000000000000000000000000000000000000000000000000000000
310
00000000000000000000000000000000000028002800C3C3C3C3C3C30000F5F5F5F5F5F5F5F5F5F5F5F5F5F5F5F5F5F5F5F5F5F5F5F5F5F5F5F5F5F5F5000000280000000000000000000000000000280028000000000000000000000000000000000000000000000000000000000000000000000000000000000000000000
310
00000000000000000000000000000000000000000000000000000000000000000000000000000000000000000000000000000000000000000000000000000000000000000000000000000000000000000000000000000000000000000000000000000000000000000000000000000000000000000000000000000000000000
310
000000000000000000000000000000000000000028002800C3C3BE00C3C30000F50000000000000000000000000000000000000000000000000000000000F500000028000000000000000000000000000028002800000000000000000000000000000000000000000000000000000000000000000000000000000000000000
310
00000000000000000000000000000000000000000000000000000000000000000000000000000000000000000000000000000000000000000000000000000000000000000000000000000000000000000000000000000000000000000000000000000000000000000000000000000000000000000000000000000000000000
310
000000000000000000000000000000000000000000002800280000C3C3C3C3C30000F5F5F5F5F5F5F5F5F5F5F5F5F5F5F5F5F5F5F5F5F5F5F5F5F5F5F5F5F5F5C3C3C3002800000000000000000000000000002800280000000000000000000000000000000000000000000000000000000000000000000000000000000000
310
00000000000000000000000000000000000000000000000000000000000000000000000000000000000000000000000000000000000000000000000000000000000000000000000000000000000000000000000000000000000000000000000000000000000000000000000000000000000000000000000000000000000000
310
0000000000000000000000000000000000000000000000002800280000BEC3C3C3C30000F5F5F5F5F5F5F5F5F5F5F5F5F5F5F5F5F5F5F5F5F5F5F5F5F5F5F5F5F5F5C3C3C300280000000000000000000000000000280028000000000000000000000000000000000000000000000000000000000000000000000000000000
310
00000000000000000000000000000000000000000000000000000000000000000000000000000000000000000000000000000000000000000000000000000000000000000000000000000000000000000000000000000000000000000000000000000000000000000000000000000000000000000000000000000000000000
310
0000000000000000000000000000000000000000000000000000280028000000000000000000C300C3000000C3000000C3000000C3000000C3000000C3000000C3000000C30000002800ECECECECECEC0000000000000028002800000000000000000000000000000000000000000000000000000000000000000000000000
310
00000000000000000000000000000000000000000000000000000000000000000000000000000000000000000000000000000000000000000000000000000000000000000000000000000000000000000000000000000000000000000000000000000000000000000000000000000000000000000000000000000000000000
310
00000000000000000000000000000000000000000000000000000000280028000000000000000000C3C3C3C3C3C3C3C3C3C3C3C3C3C3C3C3C3C3C3C3C3C3C3C3C3C3C3C3C3C3C3C3000028ECECECECECEC00000000000000002800280000000000000000000000000000000000000000000000000000000000000000000000
310
00000000000000000000000000000000000000000000000000000000000000000000000000000000000000000000000000000000000000000000000000000000000000000000000000000000000000000000000000000000000000000000000000000000000000000000000000000000000000000000000000000000000000
310
000000000000000000000000000000000000000000000000000000000000280028000000000000000000C3C300C3C30000C3C30000C3C30000C3C30000C3C3ECECC3C30000C3C30000C30000280000000000000000000000000000280028000000000000000000000000000000000000000000000000000000000000000000
310
00000000000000000000000000000000000000000000000000000000000000000000000000000000000000000000000000000000000000000000000000000000000000000000000000000000000000000000000000000000000000000000000000000000000000000000000000000000000000000000000000000000000000
310
00000000000000000000000000000000000000000000000000000000000000002800280000000000000000000000000000000000000000000000000000ECECECECECECECECEC0000000000000000280000ECECECECECEC00000000000028002800000000000000000000000000000000000000000000000000000000000000
310
00000000000000000000000000000000000000000000000000000000000000000000000000000000000000000000000000000000000000000000000000000000000000000000000000000000000000000000000000000000000000000000000000000000000000000000000000000000000000000000000000000000000000
310
0000000000000000000000000000000000000000000000000000000000000000000028002800000000000000000000000000000000000000000000C3C3C3C3C3ECECECECC3C3ECEC0000000000000000280000ECECECECECEC00ECEC0000002800280000000000000000000000000000000000000000000000000000000000
310
00000000000000000000000000000000000000000000000000000000000000000000000000000000000000000000000000000000000000000000000000000000000000000000000000000000000000000000000000000000000000000000000000000000000000000000000000000000000000000000000000000000000000
310
00000000000000000000000000000000000000000000000000000000000000000000000028002800000000000000000000000000000000000000000000C3C3C3C3C300000000C3C30000C300000000000000280000ECECECECECEC00ECEC000000280028000000000000000000000000000000000000000000000000000000
310
00000000000000000000000000000000000000000000000000000000000000000000000000000000000000000000000000000000000000000000000000000000000000000000000000000000000000000000000000000000000000000000000000000000000000000000000000000000000000000000000000000000000000
310
000000000000000000000000000000000000000000000000000000000000000000000000000028002800000000000000000000000000000000000000000000C3C3C3C3C300000000C3C3C3C3C3000000000000002800ECECECECECECECEC000000000028002800000000000000000000000000000000000000000000000000
310
00000000000000000000000000000000000000000000000000000000000000000000000000000000000000000000000000000000000000000000000000000000000000000000000000000000000000000000000000000000000000000000000000000000000000000000000000000000000000000000000000000000000000
310
0000000000000000000000000000000000000000000000000000000000000000000000000000000028002800000000000000000000000000000000000000000000C3282800C300000000C3C3000000C30000000000002800ECECECECEC00000000000000002800280000000000000000000000000000000000000000000000
310
00000000000000000000000000000000000000000000000000000000000000000000000000000000000000000000000000000000000000000000000000000000000000000000000000000000000000000000000000000000000000000000000000000000000000000000000000000000000000000000000000000000000000
310
0000000000000000000000000000000000000000000000000000000000000000000000000000000000002800280000000000000000000000000000000000000000000028002800C3000000002828000000C300000000000028ECECECECECECEC00000000000000280028000000000000000000000000000000000000000000
310
00000000000000000000000000000000000000000000000000000000000000000000000000000000000000000000000000000000000000000000000000000000000000000000000000000000000000000000000000000000000000000000000000000000000000000000000000000000000000000000000000000000000000
310
00000000000000000000000000000000000000000000000000000000000000000000000000000000000000002800280000000000000000000000000000000000000000000028002828C30000000028C3C3C30000C3000000000028280000000000000000000000000028002800000000000000000000000000000000000000
310
00000000000000000000000000000000000000000000000000000000000000000000000000000000000000000000000000000000000000000000000000000000000000000000000000000000000000000000000000000000000000000000000000000000000000000000000000000000000000000000000000000000000000
310
000000000000000000000000000000000000000000000000000000000000000000000000000000000000000000002800280000000000000000000000000000000000000000000028002828280000000028280000C300C300000000002828282828282828282828282828282800280000000000000000000000000000000000
310
00000000000000000000000000000000000000000000000000000000000000000000000000000000000000000000000000000000000000000000000000000000000000000000000000000000000000000000000000000000000000000000000000000000000000000000000000000000000000000000000000000000000000
310
00000000000000000000000000000000000000000000000000000000000000000000000000000000000000000000000028002800000000000000ECECECEC00000000000000000000002800282828000000002828000000C3C3C300000000280000ECECECECECECECECEC000000280028000000000000000000000000000000
310
00000000000000000000000000000000000000000000000000000000000000000000000000000000000000000000000000000000000000000000000000000000000000000000000000000000000000000000000000000000000000000000000000000000000000000000000000000000000000000000000000000000000000
310
00000000000000000000000000000000000000000000000000000000000000000000000000000000000000000000000000002800280000000000ECECECECECECECEC00000000000000000028002800000000000028280000C3C3C3C30000000028280000000000000000000000000028002800000000000000000000000000
310
00000000000000000000000000000000000000000000000000000000000000000000000000000000000000000000000000000000000000000000000000000000000000000000000000000000000000000000000000000000000000000000000000000000000000000000000000000000000000000000000000000000000000
310
0000000000000000000000000000000000000000000000000000000000000000000000000000000000000000000000000000000028002800C300000000000000000000000000C30000000000002800282828000000002828C3C3C3C3C300C30000002828ECECECECECECECECECECEC28282800280000000000000000000000
310
00000000000000000000000000000000000000000000000000000000000000000000000000000000000000000000000000000000000000000000000000000000000000000000000000000000000000000000000000000000000000000000000000000000000000000000000000000000000000000000000000000000000000
310
000000000000000000000000000000000000000000000000000000000000000000000000000000000000000000000000000000000000280028C3C3C300BE000000C3C3000000BE28C3C300000000002800280028000000C3C3C3C3000000C300C30000002800ECECECECECECECECECECEC0000280028000000000000000000
310
00000000000000000000000000000000000000000000000000000000000000000000000000000000000000000000000000000000000000000000000000000000000000000000000000000000000000000000000000000000000000000000000000000000000000000000000000000000000000000000000000000000000000
310
000000000000000000000000000000000000000000000000000000000000000000000000000000000000000000000000000000000000000028002800C3C328BEBEBEC3C3C3C3BEBE2828C3000000000000280028282800000000282828000000C30000C3000028280000000000000000000000000028002800000000000000
310
00000000000000000000000000000000000000000000000000000000000000000000000000000000000000000000000000000000000000000000000000000000000000000000000000000000000000000000000000000000000000000000000000000000000000000000000000000000000000000000000000000000000000
310
0000000000000000000000000000000000000000000000000000000000000000000000000000000000000000000000000000000000000000000028002800C300C3C32828BEC3BEBE2828C3C3C30000000000002800282828000000000028282800C3000000C300002828282828282828282828282828282800280000000000
310
00000000000000000000000000000000000000000000000000000000000000000000000000000000000000000000000000000000000000000000000000000000000000000000000000000000000000000000000000000000000000000000000000000000000000000000000000000000000000000000000000000000000000
310
00000000000000000000000000000000000000000000000000000000000000000000000000000000000000000000000000000000000000000000000028002800000000C3C3C328C32828C3C300000000000000000028002828280000000000002828C30000000000C300280028282828282828282828282828280028000000
310
00000000000000000000000000000000000000000000000000000000000000000000000000000000000000000000000000000000000000000000000000000000000000000000000000000000000000000000000000000000000000000000000000000000000000000000000000000000000000000000000000000000000000
310
000000000000000000000000000000000000000000000000000000000000000000000000000000000000000000000000000000000000000000000000000028002800000000000000C3C3C3C300000000000000000000002800282828000000000000000028280000C3C3C30028282828282828282828282828282828002800
310
00000000000000000000000000000000000000000000000000000000000000000000000000000000000000000000000000000000000000000000000000000000000000000000000000000000000000000000000000000000000000000000000000000000000000000000000000000000000000000000000000000000000000
310
000000000000000000000000000000000000000000000000000000000000000000000000000000000000000000000000000000000000000000000000000000002800280000000000000000C3000000000000000000000000002828280000000000000000000000C3C3C3000000002800282828282828282828282800002800
310
28000000000000000000000000000000000000000000000000000000000000000000000000000000000000000000000000000000000000000000000000000000000000000000000000000000000000000000000000000000000000000000000000000000000000000000000000000000000000000000000000000000000000
310
00000000000000000000000000000000000000000000000000000000000000000000000000000000000000000000000000000000000000000000000000000000000028002828282828282828282828282828282828282828282828282828282828282828282828282828282828282828282828282828282828282828282828
310
28002800000000000000000000000000000000000000000000000000000000000000000000000000000000000000000000000000000000000000000000000000000000000000000000000000000000000000000000000000000000000000000000000000000000000000000000000000000000000000000000000000000000
310
00000000000000000000000000000000000000000000000000000000000000000000000000000000000000000000000000000000000000000000000000000000000000002800000000000000000000000000000000000000000000000000000000000000000000000000000000000000000000000000000000000000000000
310
00000000280000000000000000000000000000000000000000000000000000000000000000000000000000000000000000000000000000000000000000000000000000000000000000000000000000000000000000000000000000000000000000000000000000000000000000000000000000000000000000000000000000
310
00000000000000000000000000000000000000000000000000000000000000000000000000000000000000000000000000000000000000000000000000000000000000000000282828282828282828282828282828282828282828282828282828282828282828282828282828282828282828282828282828282828282828
310
28282828282828000000000000000000000000000000000000000000000000000000000000000000000000000000000000000000000000000000000000000000000000000000000000000000000000000000000000000000000000000000000000000000000000000000000000000000000000000000000000000000000000
310
00000000000000000000000000000000000000000000000000000000000000000000000000000000000000000000000000000000000000000000000000000000000000000000000028000000000000000000000000000000000000000000000000000000000000000000000000000000000000000000000000000000000000
310
00000000000000002800000000000000000000000000000000000000000000000000000000000000000000000000000000000000000000000000000000000000000000000000000000000000000000000000000000000000000000000000000000000000000000000000000000000000000000000000000000000000000000
310
00000000000000000000000000000000000000000000000000000000000000000000000000000000000000000000000000000000000000000000000000000000000000000000000000002800282828282828282828282828282828282828282828282828282828282828282828282828282828282828282828282828282828
310
282828F5F5F528282800280000000000000000000000000000000000000000000000000000000000000000000000000000000000000000000000000000000000000000000000000000000000000000000000000000000000000000000000000000000000000000000000000000000000000000000000000000000000000000
310
000000000000000000000000000000000000000000000000000000000000000000000000000000000000000000000000000000000000000000000000000000000000000000000000000000002800280000000000000000000000000000000000ECECECECECECECECECECECEC0000000000000000000000000000280000F5F5
310
0000280000F5F5F50000280028000000000000000000000000000000000000000000000000000000000000000000000000000000000000000000000000000000000000000000000000000000000000000000000000000000000000000000000000000000000000000000000000000000000000000000000000000000000000
310
00000000000000000000000000000000000000000000000000000000000000000000000000000000000000000000000000000000000000000000000000000000000000000000000000000000000028002800000000000000000000C3000000C3000000C3000000C3000000C3000000C3000000C3000000C300C30000282828
310
00000000282828280000000028002800000000000000000000000000000000000000000000000000000000000000000000000000000000000000000000000000000000000000000000000000000000000000000000000000000000000000000000000000000000000000000000000000000000000000000000000000000000
310
0000000000000000000000000000000000000000000000000000000000000000000000000000000000000000000000000000000000000000000000000000000000000000000000000000000000000000280028000000000000000000C3C3C3C3C3C3C3C3C3C3C3C3C3C3C3C3C3C3C3C3C3C3C3C3C3C3C3C3C3C3C3C3000028
310
28F5F5F5F52828282828282828282800280000000000000000000000000000000000000000000000000000000000000000000000000000000000000000000000000000000000000000000000000000000000000000000000000000000000000000000000000000000000000000000000000000000000000000000000000000
310
0000000000000000000000000000000000000000000000000000000000000000000000000000000000000000000000000000000000000000000000000000000000000000000000000000000000000000000028002800000000000000000000C3000000C3000000C3000000C3000000C3000000C3000000C3000000C300C300
310
002800F5F5F5F5002828282828282828280028000000000000000000000000000000000000000000000000000000000000000000000000000000000000000000000000000000000000000000000000000000000000000000000000000000000000000000000000000000000000000000000000000000000000000000000000
310
0000000000000000000000000000000000000000000000000000000000000000000000000000000000000000000000000000000000000000000000000000000000000000000000000000000000000000000000002800280000000000BEC3C3C300F5F5F5F5F5F5F5F5F5F5F5F5F5F5F5F5F5F5F5F5F5F5F5F5F5F5F5F5F5F5
310
C3C30028280000000000282828F5F5F5F5F5F5002800000000000000000000000000000000000000000000000000000000000000000000000000000000000000000000000000000000000000000000000000000000000000000000000000000000000000000000000000000000000000000000000000000000000000000000
310
00000000000000000000000000000000000000000000000000000000000000000000000000000000000000000000000000000000000000000000000000000000000000000000000000000000000000000000000000002800280000C30000C3C3C3C300F5F5F5F5F5F5F5F5F5F5F5F5F5F5F5F5F5F5F5F5F5F5F5F5F5F5F5F5
310
F5F5C3C300282828282828F5F5F5F528282828282800280000000000000000000000000000000000000000000000000000000000000000000000000000000000000000000000000000000000000000000000000000000000000000000000000000000000000000000000000000000000000000000000000000000000000000
310
000000000000000000000000000000000000000000000000000000000000000000000000000000000000000000000000000000000000000000000000000000000000000000000000000000000000000000000000000000002800280000C3C300BE00C3C300BE000000BE000000BE000000BE000000BE000000BE000000BE00
310
0000BE00F5C300280000000000F5F5F5F50000000000280028000000000000000000000000000000000000000000000000000000000000000000000000000000000000000000000000000000000000000000000000000000000000000000000000000000000000000000000000000000000000000000000000000000000000
310
000000000000000000000000000000000000000000000000000000000000000000000000000000000000000000000000000000000000000000000000000000000000000000000000000000000000000000000000000000000000280028000000C3C3BE00C3C300F50000000000000000000000000000000000000000000000
310
000000000000F5000028282800000000000000000000000028002800000000000000000000000000000000000000000000000000000000000000000000000000000000000000000000000000000000000000000000000000000000000000000000000000000000000000000000000000000000000000000000000000000000
310
00000000000000000000000000000000000000000000000000000000000000000000000000000000000000000000000000000000000000000000000000000000000000000000000000000000000000000000000000000000000000002800280000C300C3C30000C300F5000000000000000000000000000000000000000000
310
0000000000000000F5000028ECECECECECECECECECECECEC28282800280000000000000000000000000000000000000000000000000000000000000000000000000000000000000000000000000000000000000000000000000000000000000000000000000000000000000000000000000000000000000000000000000000
310
00000000000000000000000000000000000000000000000000000000000000000000000000000000000000000000000000000000000000000000000000000000000000000000000000000000000000000000000000000000000000000000280028BEBEC3BEBEC3C3C3C300C3F5F5F5F5F5F5F5F5F5F5F5F5F5F5F5F5F5F5F5
310
F5F5F5F5F5F5F5F5F5F5C30000280000000000000000000000000000280028000000000000000000000000000000000000000000000000000000000000000000000000000000000000000000000000000000000000000000000000000000000000000000000000000000000000000000000000000000000000000000000000
310
0000000000000000000000000000000000000000000000000000000000000000000000000000000000000000000000000000000000000000000000000000000000000000000000000000000000000000000000000000000000000000000000002800280000C3000000C3000000C3C3C3C3C3C3C3C3C3C3C3C3C3C3C3C3C3C3
310
C3C3C3C3C3C3C3C3C3C3C3C3C3000028000000000000000000000000000028002800000000000000000000000000000000000000000000000000000000000000000000000000000000000000000000000000000000000000000000000000000000000000000000000000000000000000000000000000000000000000000000
310
00000000000000000000000000000000000000000000000000000000000000000000000000000000000000000000000000000000000000000000000000000000000000000000000000000000000000000000000000000000000000000000000000002800280000000000000000000000000000000000000000000000000000
310
00000000000000000000000000000000002800000000000000000000000000002800280000000000000000000000000000000000000000000000000000000000000000000000000000000000000000000000000000000000000000000000000000000000000000000000000000000000000000000000000000000000000000
310
0000000000000000000000000000000000000000000000000000000000000000000000000000000000000000000000000000000000000000000000000000000000000000000000000000000000000000000000000000000000000000000000000000000028002800000000000000000000C3C3C3C3C3C3C3C3C3C3C3C3C3C3
310
C3C3C3C3C3C3C3C3C3C3C3C3C3C3C3C3C30000280000000000000000000000000000280028000000000000000000000000000000000000000000000000000000000000000000000000000000000000000000000000000000000000000000000000000000000000000000000000000000000000000000000000000000000000
310
000000000000000000000000000000000000000000000000000000000000000000000000000000000000000000000000000000000000000000000000000000000000000000000000000000000000000000000000000000000000000000000000000000000000280028BEBEC3BEBEC3C3C3C300C3F5F5F5F5F5F5F5F5F5F5F5
310
F5F5C3C3C3F5F5F5F5F5F5F5F5F5F5F5F5F5C3000028000000000000000000000000000028002800000000000000000000000000000000000000000000000000000000000000000000000000000000000000000000000000000000000000000000000000000000000000000000000000000000000000000000000000000000
310
000000000000000000000000000000000000000000000000000000000000000000000000000000000000000000000000000000000000000000000000000000000000000000000000000000000000000000000000000000000000000000000000000000000000000028002800BEC3BEC3C30000C300F5000000000000000000
310
0000000000000000000000000000000000000000F500002800000000000000000000000000002800280000000000000000000000000000000000000000000000000000000000000000000000000000000000000000000000000000000000000000000000000000000000000000000000000000000000000000000000000000
310
00000000000000000000000000000000000000000000000000000000000000000000000000000000000000000000000000000000000000000000000000000000000000000000000000000000000000000000000000000000000000000000000000000000000000000000280028000000C3C3BE00C3C300F500000000000000
310
00000000000000000000000000000000000000000000F50000280000000000000000000000000000280028000000000000000000000000000000000000000000000000000000000000000000000000000000000000000000000000000000000000000000000000000000000000000000000000000000000000000000000000
310
0000000000000000000000000000000000000000000000000000000000000000000000000000000000000000000000000000000000000000000000000000000000000000000000000000000000000000000000000000000000000000000000000000000000000000000000002800280000C3C300BE00C3C300F50000000000
310
000000000000000000000000000000000000000000000000F5000028000000000000000000000000000028002800000000000000000000000000000000000000000000000000000000000000000000000000000000000000000000000000000000000000000000000000000000000000000000000000000000000000000000
310
00000000000000000000000000000000000000000000000000000000000000000000000000000000000000000000000000000000000000000000000000000000000000000000000000000000000000000000000000000000000000000000000000000000000000000000000000002800280000C30000C3C3C3C300F5F5F5F5
310
F5F5F5F5F5F5F5F5F5F5F5F5F5F5F5F5F5F5F5F5F5F5F5F5F5F5C3C3002800000000000000000000000000002800280000000000000000000000000000000000000000000000000000000000000000000000000000000000000000000000000000000000000000000000000000000000000000000000000000000000000000
310
00000000000000000000000000000000000000000000000000000000000000000000000000000000000000000000000000000000000000000000000000000000000000000000000000000000000000000000000000000000000000000000000000000000000000000000000000000000280028000000000000C3C3C300F5F5
310
F5F5F5F5F5F5F5F5F5F5F5F5F5F5F5F5F5F5F5F5F5F5F5F5F5F5F5F5F5C300280000000000000000000000000000280028000000000000000000000000000000000000000000000000000000000000000000000000000000000000000000000000000000000000000000000000000000000000000000000000000000000000
310
0000000000000000000000000000000000000000000000000000000000000000000000000000000000000000000000000000000000000000000000000000000000000000000000000000000000000000000000000000000000000000000000000000000000000000000000000000000000002800280000000000BEC3C3C300
310
C3C3F5F5F5C3F5F5F5C3F5F5F5C3F5F5F5C3F5F5F5C3F5F5F5C3F5F5F5C3C3C3002800ECECECEC00000000000000000028002800000000000000000000000000000000000000000000000000000000000000000000000000000000000000000000000000000000000000000000000000000000000000000000000000000000
310
00000000000000000000000000000000000000000000000000000000000000000000000000000000000000000000000000000000000000000000000000000000000000000000000000000000000000000000000000000000000000000000000000000000000000000000000000000000000000002800280000000000000000
310
0000C3C3C3C3C3C3C3C3C3C3C3C3C3C3C3C3C3C3C3C3C3C3C3C3C3C3C3C3C3C3C3C30028ECECECECECEC00000000000000002800280000000000000000000000000000000000000000000000000000000000000000000000000000000000000000000000000000000000000000000000000000000000000000000000000000
310
00000000000000000000000000000000000000000000000000000000000000000000000000000000000000000000000000000000000000000000000000000000000000000000000000000000000000000000000000000000000000000000000000000000000000000000000000000000000000000000280028000000000000
310
00000000C3C300C3C3C300C3C3C300C3C3C300C3C3C300C3C3C300C3C3C300C3C3C3C3C30028ECECECECECEC0000000000000000280028000000000000000000000000000000000000000000000000000000000000000000000000000000000000000000000000000000000000000000000000000000000000000000000000
310
00000000000000000000000000000000000000000000000000000000000000000000000000000000000000000000000000000000000000000000000000000000000000000000000000000000000000000000000000000000000000000000000000000000000000000000000000000000000000000000000028002800000000
310
000000000000000000000000000000000000000000000000000000000000000000000000000000280000ECECECECECEC00000000000028002800000000000000000000000000000000000000000000000000000000000000000000000000000000000000000000000000000000000000000000000000000000000000000000
310
00000000000000000000000000000000000000000000000000000000000000000000000000000000000000000000000000000000000000000000000000000000000000000000000000000000000000000000000000000000000000000000000000000000000000000000000000000000000000000000000000002800280000
310
0000000000ECECECEC000000000000000000000000000000000000ECECECEC00000000000000000000280000ECECECECECEC00ECEC0000002800280000000000000000000000000000000000000000000000000000000000000000000000000000000000000000000000000000000000000000000000000000000000000000
310
00000000000000000000000000000000000000000000000000000000000000000000000000000000000000000000000000000000000000000000000000000000000000000000000000000000000000000000000000000000000000000000000000000000000000000000000000000000000000000000000000000000280028
310
000000000000ECECECECECEC000000000000000000000000000000ECECECECECECECEC000000C3C3000000280000ECECECECECEC00ECEC000000280028000000000000000000000000000000000000000000000000000000000000000000000000000000000000000000000000000000000000000000000000000000000000
310
00000000000000000000000000000000000000000000000000000000000000000000000000000000000000000000000000000000000000000000000000000000000000000000000000000000000000000000000000000000000000000000000000000000000000000000000000000000000000000000000000000000000028
310
0028000000000000ECECECECECEC000000000000000000000000000000ECECECECECECECEC000000C3C30000002800ECECECECECECECEC000000000028002800000000000000000000000000000000000000000000000000000000000000000000000000000000000000000000000000000000000000000000000000000000
310
00000000000000000000000000000000000000000000000000000000000000000000000000000000000000000000000000000000000000000000000000000000000000000000000000000000000000000000000000000000000000000000000000000000000000000000000000000000000000000000000000000000000000
310
0028002800C300000000000000C300000000000000C30000282828000000000000000000000000000000C3C3C3C3002800ECECECECECECECEC00000000002800280000000000000000000000000000000000000000000000000000000000000000000000000000000000000000000000000000000000000000000000000000
310
00000000000000000000000000000000000000000000000000000000000000000000000000000000000000000000000000000000000000000000000000000000000000000000000000000000000000000000000000000000000000000000000000000000000000000000000000000000000000000000000000000000000000
310
000000280028C3C3C3000000000000C3000000000000C3C3C3002828280000000000000000000000000000002828C300002800ECECECECEC0000000000000000280028000000000000000000000000000000000000000000000000000000000000000000000000000000000000000000000000000000000000000000000000
310
00000000000000000000000000000000000000000000000000000000000000000000000000000000000000000000000000000000000000000000000000000000000000000000000000000000000000000000000000000000000000000000000000000000000000000000000000000000000000000000000000000000000000
310
000000000028002800C328000000000000C300000000000028C300002800280000000000000000000000000000002828C3000028ECECECEC0000000000000000000028002800000000000000000000000000000000000000000000000000000000000000000000000000000000000000000000000000000000000000000000
310
00000000000000000000000000000000000000000000000000000000000000000000000000000000000000000000000000000000000000000000000000000000000000000000000000000000000000000000000000000000000000000000000000000000000000000000000000000000000000000000000000000000000000
310
00000000000000280028C3002828BE00000000C300000000BE282800C3002800282828280000000000000000000000002828C300002828282828282828282828282828282800280000000000000000000000000000000000000000000000000000000000000000000000000000000000000000000000000000000000000000
310
00000000000000000000000000000000000000000000000000000000000000000000000000000000000000000000000000000000000000000000000000000000000000000000000000000000000000000000000000000000000000000000000000000000000000000000000000000000000000000000000000000000000000
310
00000000000000000028002800C3002828BE000000C3000000BE282800C300002800280000280000000000000000000000002828C300002800000000ECECECECEC0000000000280028000000000000000000000000000000000000000000000000000000000000000000000000000000000000000000000000000000000000
310
00000000000000000000000000000000000000000000000000000000000000000000000000000000000000000000000000000000000000000000000000000000000000000000000000000000000000000000000000000000000000000000000000000000000000000000000000000000000000000000000000000000000000
310
00000000000000000000002800280000C3002828BE0000C30000BE282800C30000002800282828280000000000000000000000002828C300002800000000ECECECECEC000000000028002800000000000000000000000000000000000000000000000000000000000000000000000000000000000000000000000000000000
310
00000000000000000000000000000000000000000000000000000000000000000000000000000000000000000000000000000000000000000000000000000000000000000000000000000000000000000000000000000000000000000000000000000000000000000000000000000000000000000000000000000000000000
310
00000000000000000000000000280028000000C30028BEBE00C300BEBE2800C3000000002800282828280000000000000000000000002828C300002828282828282828282828282828282800280000000000000000000000000000000000000000000000000000000000000000000000000000000000000000000000000000
310
00000000000000000000000000000000000000000000000000000000000000000000000000000000000000000000000000000000000000000000000000000000000000000000000000000000000000000000000000000000000000000000000000000000000000000000000000000000000000000000000000000000000000
310
00000000000000000000000000000028002800000000C3002800BEC3BE002800C300000000002800280000280000000000000000000000002828C300002800ECECECECECECECECECECEC0000280028000000000000000000000000000000000000000000000000000000000000000000000000000000000000000000000000
310
00000000000000000000000000000000000000000000000000000000000000000000000000000000000000000000000000000000000000000000000000000000000000000000000000000000000000000000000000000000000000000000000000000000000000000000000000000000000000000000000000000000000000
310
00000000000000000000000000000000002800280000000000C3002800C3002800C30000000000002800282828280000000000000000000000002828C3000028000000ECEC000000ECECECEC000028002800000000000000000000000000000000000000000000000000000000000000000000000000000000000000000000
310
00000000000000000000000000000000000000000000000000000000000000000000000000000000000000000000000000000000000000000000000000000000000000000000000000000000000000000000000000000000000000000000000000000000000000000000000000000000000000000000000000000000000000
310
00000000000000000000000000000000000000280028000000000000C30028282800C3000000000000002800280000000000000000000000000000002828C300002828282828282828282828282828282800280000000000000000000000000000000000000000000000000000000000000000000000000000000000000000
310
00000000000000000000000000000000000000000000000000000000000000000000000000000000000000000000000000000000000000000000000000000000000000000000000000000000000000000000000000000000000000000000000000000000000000000000000000000000000000000000000000000000000000
310
00000000000000000000000000000000000000000028002800000000000000C300C300C30000000000000000282828282828C3C3C32828282828282828282828C30000280028282828282828282828282828280028000000000000000000000000000000000000000000000000000000000000000000000000000000000000
310
00000000000000000000000000000000000000000000000000000000000000000000000000000000000000000000000000000000000000000000000000000000000000000000000000000000000000000000000000000000000000000000000000000000000000000000000000000000000000000000000000000000000000
310
00000000000000000000000000000000000000000000002800280000000000000000C3C3C3000000000000000000282828282828C3C3C328282828282828282828C3C3C30028282828282828282828282828282828002800000000000000000000000000000000000000000000000000000000000000000000000000000000
310
00000000000000000000000000000000000000000000000000000000000000000000000000000000000000000000000000000000000000000000000000000000000000000000000000000000000000000000000000000000000000000000000000000000000000000000000000000000000000000000000000000000000000
310
00000000000000000000000000000000000000000000000000280028000000000000000000C3000000000000000000000000000000000000C300000000000000000000C30000002800282828282828282828282828282800280000000000000000000000000000000000000000000000000000000000000000000000000000
310
00000000000000000000000000000000000000000000000000000000000000000000000000000000000000000000000000000000000000000000000000000000000000000000000000000000000000000000000000000000000000000000000000000000000000000000000000000000000000000000000000000000000000
310
000000000000000000000000000000000000000000000000000000280028000000000000000000000000000000000000000000000000000000C3C3C3C3C3C3C3C3C3C3C3C3C3000000280028282800000000000000000000280028000000000000000000000000000000000000000000000000000000000000000000000000
310
00000000000000000000000000000000000000000000000000000000000000000000000000000000000000000000000000000000000000000000000000000000000000000000000000000000000000000000000000000000000000000000000000000000000000000000000000000000000000000000000000000000000000
310
00000000000000000000000000000000000000000000000000000000002800282828282828282828282828282828282828282828282828282828282828282828282828282828282828282828282828282828282828282828282828002800000000000000000000000000000000000000000000000000000000000000000000
310
00000000000000000000000000000000000000000000000000000000000000000000000000000000000000000000000000000000000000000000000000000000000000000000000000000000000000000000000000000000000000000000000000000000000000000000000000000000000000000000000000000000000000
310
00000000000000000000000000000000000000000000000000000000000000282828282828282828282828282828282828282828282828282828282828282828282828282828282828282828282828282828282828282828282828282828280000000000000000000000000000000000000000000000000000000000000000
310
00000000000000000000000000000000000000000000000000000000000000000000000000000000000000000000000000000000000000000000000000000000000000000000000000000000000000000000000000000000000000000000000000000000000000000000000000000000000000000000000000000000000000
310
00000000000000000000000000000000000000000000000000000000000000000000000000000000000000000000000000000000000000000000000000000000000000000000000000000000000000000000000000000000000000000000000000000000000000000000000000000000000000000000000000000000000000
310
000000000000000000000000000000000000000000000000000000000000000000000000000000000000000000000000000000000000000000000000000000000000
  0
XRECORD
  5
B7C
102
{ACAD_REACTORS
330
B7B
102
}
330
B7B
100
AcDbXrecord
280
     1
102
SHADEPLOT
 70
     0
102
SHADEPLOTRESLEVEL
 70
     2
102
SHADEPLOTCUSTOMDPI
 70
   300
  0
XRECORD
  5
B7E
102
{ACAD_REACTORS
330
9EA
102
}
330
9EA
100
AcDbXrecord
280
     1
102
MATERIAL
148
0.0
149
0.0
149
0.0
 93
        0
 94
      127
282
     0
 72
     0
 77
     0
171
     0
175
     0
179
     0
273
     0
  0
XRECORD
  5
9EC
102
{ACAD_REACTORS
330
9EA
102
}
330
9EA
100
AcDbXrecord
280
     1
270
     1
271
     1
  0
XRECORD
  5
9EB
102
{ACAD_REACTORS
330
9EA
102
}
330
9EA
100
AcDbXrecord
280
     1
270
     1
271
     1
  0
XRECORD
  5
9EF
102
{ACAD_REACTORS
330
9EA
102
}
330
9EA
100
AcDbXrecord
280
     1
270
     1
271
     1
  0
XRECORD
  5
9EE
102
{ACAD_REACTORS
330
9EA
102
}
330
9EA
100
AcDbXrecord
280
     1
270
     1
271
     1
  0
XRECORD
  5
9F0
102
{ACAD_REACTORS
330
9EA
102
}
330
9EA
100
AcDbXrecord
280
     1
270
     1
271
     1
  0
XRECORD
  5
9ED
102
{ACAD_REACTORS
330
9EA
102
}
330
9EA
100
AcDbXrecord
280
     1
270
     1
271
     1
  0
XRECORD
  5
B7D
102
{ACAD_REACTORS
330
9E2
102
}
330
9E2
100
AcDbXrecord
280
     1
102
MATERIAL
148
0.0
149
0.0
149
0.0
 93
        0
 94
      127
282
     0
 72
     0
 77
     0
171
     0
175
     0
179
     0
273
     0
  0
XRECORD
  5
9E4
102
{ACAD_REACTORS
330
9E2
102
}
330
9E2
100
AcDbXrecord
280
     1
270
     1
271
     1
  0
XRECORD
  5
9E3
102
{ACAD_REACTORS
330
9E2
102
}
330
9E2
100
AcDbXrecord
280
     1
270
     1
271
     1
  0
XRECORD
  5
9E7
102
{ACAD_REACTORS
330
9E2
102
}
330
9E2
100
AcDbXrecord
280
     1
270
     1
271
     1
  0
XRECORD
  5
9E6
102
{ACAD_REACTORS
330
9E2
102
}
330
9E2
100
AcDbXrecord
280
     1
270
     1
271
     1
  0
XRECORD
  5
9E8
102
{ACAD_REACTORS
330
9E2
102
}
330
9E2
100
AcDbXrecord
280
     1
270
     1
271
     1
  0
XRECORD
  5
9E5
102
{ACAD_REACTORS
330
9E2
102
}
330
9E2
100
AcDbXrecord
280
     1
270
     1
271
     1
  0
XRECORD
  5
B7F
102
{ACAD_REACTORS
330
9F2
102
}
330
9F2
100
AcDbXrecord
280
     1
102
MATERIAL
148
0.0
149
0.0
149
0.0
 93
        0
 94
      127
282
     0
 72
     0
 77
     0
171
     0
175
     0
179
     0
273
     0
  0
XRECORD
  5
9F4
102
{ACAD_REACTORS
330
9F2
102
}
330
9F2
100
AcDbXrecord
280
     1
270
     1
271
     1
  0
XRECORD
  5
9F3
102
{ACAD_REACTORS
330
9F2
102
}
330
9F2
100
AcDbXrecord
280
     1
270
     1
271
     1
  0
XRECORD
  5
9F7
102
{ACAD_REACTORS
330
9F2
102
}
330
9F2
100
AcDbXrecord
280
     1
270
     1
271
     1
  0
XRECORD
  5
9F6
102
{ACAD_REACTORS
330
9F2
102
}
330
9F2
100
AcDbXrecord
280
     1
270
     1
271
     1
  0
XRECORD
  5
9F8
102
{ACAD_REACTORS
330
9F2
102
}
330
9F2
100
AcDbXrecord
280
     1
270
     1
271
     1
  0
XRECORD
  5
9F5
102
{ACAD_REACTORS
330
9F2
102
}
330
9F2
100
AcDbXrecord
280
     1
270
     1
271
     1
  0
XRECORD
  5
B76
102
{ACAD_REACTORS
330
B75
102
}
330
B75
100
AcDbXrecord
280
     1
102
ACAD_ROUNDTRIP_2012_MLEADER_STYLE
298
     1
  0
CELLSTYLEMAP
  5
B74
102
{ACAD_REACTORS
330
B73
102
}
330
B73
100
AcDbCellStyleMap
 90
        3
300
CELLSTYLE
  1
TABLEFORMAT_BEGIN
 90
        5
170
     1
 91
        0
 92
    32768
 62
   257
 93
        1
300
CONTENTFORMAT
  1
CONTENTFORMAT_BEGIN
 90
        0
 91
        0
 92
        4
 93
        0
300

 40
0.0
140
1.0
 94
        5
 62
     0
340
7
144
0.25
309
CONTENTFORMAT_END
171
     0
 94
        6
 95
        1
302
GRIDFORMAT
  1
GRIDFORMAT_BEGIN
 90
        0
 91
        1
 62
     0
 92
       -2
340
0
 93
        0
 40
0.045
309
GRIDFORMAT_END
 95
        2
302
GRIDFORMAT
  1
GRIDFORMAT_BEGIN
 90
        0
 91
        1
 62
     0
 92
       -2
340
0
 93
        0
 40
0.045
309
GRIDFORMAT_END
 95
        4
302
GRIDFORMAT
  1
GRIDFORMAT_BEGIN
 90
        0
 91
        1
 62
     0
 92
       -2
340
0
 93
        0
 40
0.045
309
GRIDFORMAT_END
 95
        8
302
GRIDFORMAT
  1
GRIDFORMAT_BEGIN
 90
        0
 91
        1
 62
     0
 92
       -2
340
0
 93
        0
 40
0.045
309
GRIDFORMAT_END
 95
       16
302
GRIDFORMAT
  1
GRIDFORMAT_BEGIN
 90
        0
 91
        1
 62
     0
 92
       -2
340
0
 93
        0
 40
0.045
309
GRIDFORMAT_END
 95
       32
302
GRIDFORMAT
  1
GRIDFORMAT_BEGIN
 90
        0
 91
        1
 62
     0
 92
       -2
340
0
 93
        0
 40
0.045
309
GRIDFORMAT_END
309
TABLEFORMAT_END
  1
CELLSTYLE_BEGIN
 90
        1
 91
        1
300
_TITLE
309
CELLSTYLE_END
300
CELLSTYLE
  1
TABLEFORMAT_BEGIN
 90
        5
170
     1
 91
        0
 92
        0
 62
   257
 93
        1
300
CONTENTFORMAT
  1
CONTENTFORMAT_BEGIN
 90
        0
 91
        0
 92
        4
 93
        0
300

 40
0.0
140
1.0
 94
        5
 62
     0
340
7
144
0.18
309
CONTENTFORMAT_END
171
     0
 94
        6
 95
        1
302
GRIDFORMAT
  1
GRIDFORMAT_BEGIN
 90
        0
 91
        1
 62
     0
 92
       -2
340
0
 93
        0
 40
0.045
309
GRIDFORMAT_END
 95
        2
302
GRIDFORMAT
  1
GRIDFORMAT_BEGIN
 90
        0
 91
        1
 62
     0
 92
       -2
340
0
 93
        0
 40
0.045
309
GRIDFORMAT_END
 95
        4
302
GRIDFORMAT
  1
GRIDFORMAT_BEGIN
 90
        0
 91
        1
 62
     0
 92
       -2
340
0
 93
        0
 40
0.045
309
GRIDFORMAT_END
 95
        8
302
GRIDFORMAT
  1
GRIDFORMAT_BEGIN
 90
        0
 91
        1
 62
     0
 92
       -2
340
0
 93
        0
 40
0.045
309
GRIDFORMAT_END
 95
       16
302
GRIDFORMAT
  1
GRIDFORMAT_BEGIN
 90
        0
 91
        1
 62
     0
 92
       -2
340
0
 93
        0
 40
0.045
309
GRIDFORMAT_END
 95
       32
302
GRIDFORMAT
  1
GRIDFORMAT_BEGIN
 90
        0
 91
        1
 62
     0
 92
       -2
340
0
 93
        0
 40
0.045
309
GRIDFORMAT_END
309
TABLEFORMAT_END
  1
CELLSTYLE_BEGIN
 90
        2
 91
        1
300
_HEADER
309
CELLSTYLE_END
300
CELLSTYLE
  1
TABLEFORMAT_BEGIN
 90
        5
170
     1
 91
        0
 92
        0
 62
   257
 93
        1
300
CONTENTFORMAT
  1
CONTENTFORMAT_BEGIN
 90
        0
 91
        0
 92
        4
 93
        0
300

 40
0.0
140
1.0
 94
        2
 62
     0
340
7
144
0.18
309
CONTENTFORMAT_END
171
     0
 94
        6
 95
        1
302
GRIDFORMAT
  1
GRIDFORMAT_BEGIN
 90
        0
 91
        1
 62
     0
 92
       -2
340
0
 93
        0
 40
0.045
309
GRIDFORMAT_END
 95
        2
302
GRIDFORMAT
  1
GRIDFORMAT_BEGIN
 90
        0
 91
        1
 62
     0
 92
       -2
340
0
 93
        0
 40
0.045
309
GRIDFORMAT_END
 95
        4
302
GRIDFORMAT
  1
GRIDFORMAT_BEGIN
 90
        0
 91
        1
 62
     0
 92
       -2
340
0
 93
        0
 40
0.045
309
GRIDFORMAT_END
 95
        8
302
GRIDFORMAT
  1
GRIDFORMAT_BEGIN
 90
        0
 91
        1
 62
     0
 92
       -2
340
0
 93
        0
 40
0.045
309
GRIDFORMAT_END
 95
       16
302
GRIDFORMAT
  1
GRIDFORMAT_BEGIN
 90
        0
 91
        1
 62
     0
 92
       -2
340
0
 93
        0
 40
0.045
309
GRIDFORMAT_END
 95
       32
302
GRIDFORMAT
  1
GRIDFORMAT_BEGIN
 90
        0
 91
        1
 62
     0
 92
       -2
340
0
 93
        0
 40
0.045
309
GRIDFORMAT_END
309
TABLEFORMAT_END
  1
CELLSTYLE_BEGIN
 90
        3
 91
        2
300
_DATA
309
CELLSTYLE_END
  0
XRECORD
  5
B79
102
{ACAD_REACTORS
330
B73
102
}
330
B73
100
AcDbXrecord
280
     1
102
ACAD_ROUNDTRIP_PRE2007_TABLESTYLE
 90
        4
 91
        0
  1

 92
        4
 93
        0
  2

 94
        4
 95
        0
  3

  0
XRECORD
  5
B8B
102
{ACAD_REACTORS
330
B8A
102
}
330
B8A
100
AcDbXrecord
280
     1
102
RTVSPropertyOp0
 70
     1
102
RTVSPropertyOp1
 70
     1
102
RTVSPropertyOp2
 70
     1
102
RTVSPropertyOp3
 70
     1
102
RTVSPropertyOp4
 70
     1
102
RTVSPropertyOp5
 70
     1
102
RTVSPropertyOp6
 70
     1
102
RTVSPropertyOp7
 70
     1
102
RTVSPropertyOp8
 70
     1
102
RTVSPropertyOp9
 70
     1
102
RTVSPropertyOp10
 70
     1
102
RTVSPropertyOp11
 70
     1
102
RTVSPropertyOp12
 70
     1
102
RTVSPropertyOp13
 70
     1
102
RTVSPropertyOp14
 70
     1
102
RTVSPropertyOp15
 70
     1
102
RTVSPropertyOp16
 70
     1
102
RTVSPropertyOp17
 70
     1
102
RTVSPropertyOp18
 70
     1
102
RTVSPropertyOp19
 70
     1
102
RTVSPropertyOp20
 70
     1
102
RTVSPropertyOp21
 70
     1
102
RTVSPropertyOp22
 70
     1
102
RTVSPropertyOp23
 70
     1
102
RTVSPropertyOp24
 70
     1
102
RTVSPropertyOp25
 70
     1
102
RTVSPropertyOp26
 70
     1
102
RTVSPropertyOp27
 70
     1
102
RTVSPropertyOp28
 70
     1
102
RTVSPropertyOp29
 70
     1
102
RTVSPropertyOp30
 70
     1
102
RTVSPropertyOp31
 70
     1
102
RTVSPropertyOp32
 70
     1
  0
XRECORD
  5
B89
102
{ACAD_REACTORS
330
B88
102
}
330
B88
100
AcDbXrecord
280
     1
102
RTVSPropertyOp0
 70
     1
102
RTVSPropertyOp1
 70
     1
102
RTVSPropertyOp2
 70
     1
102
RTVSPropertyOp3
 70
     1
102
RTVSPropertyOp4
 70
     1
102
RTVSPropertyOp5
 70
     1
102
RTVSPropertyOp6
 70
     1
102
RTVSPropertyOp7
 70
     1
102
RTVSPropertyOp8
 70
     1
102
RTVSPropertyOp9
 70
     1
102
RTVSPropertyOp10
 70
     1
102
RTVSPropertyOp11
 70
     1
102
RTVSPropertyOp12
 70
     1
102
RTVSPropertyOp13
 70
     1
102
RTVSPropertyOp14
 70
     1
102
RTVSPropertyOp15
 70
     1
102
RTVSPropertyOp16
 70
     1
102
RTVSPropertyOp17
 70
     1
102
RTVSPropertyOp18
 70
     1
102
RTVSPropertyOp19
 70
     1
102
RTVSPropertyOp20
 70
     1
102
RTVSPropertyOp21
 70
     1
102
RTVSPropertyOp22
 70
     1
102
RTVSPropertyOp23
 70
     1
102
RTVSPropertyOp24
 70
     1
102
RTVSPropertyOp25
 70
     1
102
RTVSPropertyOp26
 70
     1
102
RTVSPropertyOp27
 70
     1
102
RTVSPropertyOp28
 70
     1
102
RTVSPropertyOp29
 70
     1
102
RTVSPropertyOp30
 70
     1
102
RTVSPropertyOp31
 70
     1
102
RTVSPropertyOp32
 70
     1
  0
XRECORD
  5
B97
102
{ACAD_REACTORS
330
B96
102
}
330
B96
100
AcDbXrecord
280
     1
102
RTVSPropertyOp0
 70
     1
102
RTVSPropertyOp1
 70
     1
102
RTVSPropertyOp2
 70
     1
102
RTVSPropertyOp3
 70
     1
102
RTVSPropertyOp4
 70
     1
102
RTVSPropertyOp5
 70
     1
102
RTVSPropertyOp6
 70
     1
102
RTVSPropertyOp7
 70
     1
102
RTVSPropertyOp8
 70
     1
102
RTVSPropertyOp9
 70
     1
102
RTVSPropertyOp10
 70
     1
102
RTVSPropertyOp11
 70
     1
102
RTVSPropertyOp12
 70
     1
102
RTVSPropertyOp13
 70
     1
102
RTVSPropertyOp14
 70
     1
102
RTVSPropertyOp15
 70
     1
102
RTVSPropertyOp16
 70
     1
102
RTVSPropertyOp17
 70
     1
102
RTVSPropertyOp18
 70
     1
102
RTVSPropertyOp19
 70
     1
102
RTVSPropertyOp20
 70
     1
102
RTVSPropertyOp21
 70
     1
102
RTVSPropertyOp22
 70
     1
102
RTVSPropertyOp23
 70
     1
102
RTVSPropertyOp24
 70
     1
102
RTVSPropertyOp25
 70
     1
102
RTVSPropertyOp26
 70
     1
102
RTVSPropertyOp27
 70
     1
102
RTVSPropertyOp28
 70
     1
102
RTVSPropertyOp29
 70
     1
102
RTVSPropertyOp30
 70
     1
102
RTVSPropertyOp31
 70
     1
102
RTVSPropertyOp32
 70
     1
  0
XRECORD
  5
B9F
102
{ACAD_REACTORS
330
B9E
102
}
330
B9E
100
AcDbXrecord
280
     1
102
RTVSPropertyOp0
 70
     1
102
RTVSPropertyOp1
 70
     1
102
RTVSPropertyOp2
 70
     1
102
RTVSPropertyOp3
 70
     1
102
RTVSPropertyOp4
 70
     1
102
RTVSPropertyOp5
 70
     1
102
RTVSPropertyOp6
 70
     1
102
RTVSPropertyOp7
 70
     1
102
RTVSPropertyOp8
 70
     1
102
RTVSPropertyOp9
 70
     1
102
RTVSPropertyOp10
 70
     1
102
RTVSPropertyOp11
 70
     1
102
RTVSPropertyOp12
 70
     1
102
RTVSPropertyOp13
 70
     1
102
RTVSPropertyOp14
 70
     1
102
RTVSPropertyOp15
 70
     1
102
RTVSPropertyOp16
 70
     1
102
RTVSPropertyOp17
 70
     1
102
RTVSPropertyOp18
 70
     1
102
RTVSPropertyOp19
 70
     1
102
RTVSPropertyOp20
 70
     1
102
RTVSPropertyOp21
 70
     1
102
RTVSPropertyOp22
 70
     1
102
RTVSPropertyOp23
 70
     1
102
RTVSPropertyOp24
 70
     1
102
RTVSPropertyOp25
 70
     1
102
RTVSPropertyOp26
 70
     1
102
RTVSPropertyOp27
 70
     1
102
RTVSPropertyOp28
 70
     1
102
RTVSPropertyOp29
 70
     1
102
RTVSPropertyOp30
 70
     1
102
RTVSPropertyOp31
 70
     1
102
RTVSPropertyOp32
 70
     1
  0
XRECORD
  5
B91
102
{ACAD_REACTORS
330
B90
102
}
330
B90
100
AcDbXrecord
280
     1
102
RTVSPropertyOp0
 70
     1
102
RTVSPropertyOp1
 70
     1
102
RTVSPropertyOp2
 70
     1
102
RTVSPropertyOp3
 70
     1
102
RTVSPropertyOp4
 70
     1
102
RTVSPropertyOp5
 70
     1
102
RTVSPropertyOp6
 70
     1
102
RTVSPropertyOp7
 70
     1
102
RTVSPropertyOp8
 70
     1
102
RTVSPropertyOp9
 70
     1
102
RTVSPropertyOp10
 70
     1
102
RTVSPropertyOp11
 70
     1
102
RTVSPropertyOp12
 70
     1
102
RTVSPropertyOp13
 70
     1
102
RTVSPropertyOp14
 70
     1
102
RTVSPropertyOp15
 70
     1
102
RTVSPropertyOp16
 70
     1
102
RTVSPropertyOp17
 70
     1
102
RTVSPropertyOp18
 70
     1
102
RTVSPropertyOp19
 70
     1
102
RTVSPropertyOp20
 70
     1
102
RTVSPropertyOp21
 70
     1
102
RTVSPropertyOp22
 70
     1
102
RTVSPropertyOp23
 70
     1
102
RTVSPropertyOp24
 70
     1
102
RTVSPropertyOp25
 70
     1
102
RTVSPropertyOp26
 70
     1
102
RTVSPropertyOp27
 70
     1
102
RTVSPropertyOp28
 70
     1
102
RTVSPropertyOp29
 70
     1
102
RTVSPropertyOp30
 70
     1
102
RTVSPropertyOp31
 70
     1
102
RTVSPropertyOp32
 70
     1
  0
XRECORD
  5
B95
102
{ACAD_REACTORS
330
B94
102
}
330
B94
100
AcDbXrecord
280
     1
102
RTVSPropertyOp0
 70
     1
102
RTVSPropertyOp1
 70
     1
102
RTVSPropertyOp2
 70
     1
102
RTVSPropertyOp3
 70
     1
102
RTVSPropertyOp4
 70
     1
102
RTVSPropertyOp5
 70
     1
102
RTVSPropertyOp6
 70
     1
102
RTVSPropertyOp7
 70
     1
102
RTVSPropertyOp8
 70
     1
102
RTVSPropertyOp9
 70
     1
102
RTVSPropertyOp10
 70
     1
102
RTVSPropertyOp11
 70
     1
102
RTVSPropertyOp12
 70
     1
102
RTVSPropertyOp13
 70
     1
102
RTVSPropertyOp14
 70
     1
102
RTVSPropertyOp15
 70
     1
102
RTVSPropertyOp16
 70
     1
102
RTVSPropertyOp17
 70
     1
102
RTVSPropertyOp18
 70
     1
102
RTVSPropertyOp19
 70
     1
102
RTVSPropertyOp20
 70
     1
102
RTVSPropertyOp21
 70
     1
102
RTVSPropertyOp22
 70
     1
102
RTVSPropertyOp23
 70
     1
102
RTVSPropertyOp24
 70
     1
102
RTVSPropertyOp25
 70
     1
102
RTVSPropertyOp26
 70
     1
102
RTVSPropertyOp27
 70
     1
102
RTVSPropertyOp28
 70
     1
102
RTVSPropertyOp29
 70
     1
102
RTVSPropertyOp30
 70
     1
102
RTVSPropertyOp31
 70
     1
102
RTVSPropertyOp32
 70
     1
  0
XRECORD
  5
BAF
102
{ACAD_REACTORS
330
BAE
102
}
330
BAE
100
AcDbXrecord
280
     1
102
RTVSPropertyOp0
 70
     0
102
RTVSPropertyOp1
 70
     0
102
RTVSPropertyOp2
 70
     0
102
RTVSPropertyOp3
 70
     0
102
RTVSPropertyOp4
 70
     0
102
RTVSPropertyOp5
 70
     0
102
RTVSPropertyOp6
 70
     0
102
RTVSPropertyOp7
 70
     0
102
RTVSPropertyOp8
 70
     0
102
RTVSPropertyOp9
 70
     0
102
RTVSPropertyOp10
 70
     0
102
RTVSPropertyOp11
 70
     0
102
RTVSPropertyOp12
 70
     0
102
RTVSPropertyOp13
 70
     0
102
RTVSPropertyOp14
 70
     2
102
RTVSPropertyOp15
 70
     0
102
RTVSPropertyOp16
 70
     0
102
RTVSPropertyOp17
 70
     0
102
RTVSPropertyOp18
 70
     0
102
RTVSPropertyOp19
 70
     0
102
RTVSPropertyOp20
 70
     0
102
RTVSPropertyOp21
 70
     0
102
RTVSPropertyOp22
 70
     0
102
RTVSPropertyOp23
 70
     0
102
RTVSPropertyOp24
 70
     0
102
RTVSPropertyOp25
 70
     0
102
RTVSPropertyOp26
 70
     0
102
RTVSPropertyOp27
 70
     0
102
RTVSPropertyOp28
 70
     1
102
RTVSPropertyOp29
 70
     1
102
RTVSPropertyOp30
 70
     1
102
RTVSPropertyOp31
 70
     1
102
RTVSPropertyOp32
 70
     1
  0
XRECORD
  5
B9D
102
{ACAD_REACTORS
330
B9C
102
}
330
B9C
100
AcDbXrecord
280
     1
102
RTVSPropertyOp0
 70
     1
102
RTVSPropertyOp1
 70
     1
102
RTVSPropertyOp2
 70
     1
102
RTVSPropertyOp3
 70
     1
102
RTVSPropertyOp4
 70
     1
102
RTVSPropertyOp5
 70
     1
102
RTVSPropertyOp6
 70
     1
102
RTVSPropertyOp7
 70
     1
102
RTVSPropertyOp8
 70
     1
102
RTVSPropertyOp9
 70
     1
102
RTVSPropertyOp10
 70
     1
102
RTVSPropertyOp11
 70
     1
102
RTVSPropertyOp12
 70
     1
102
RTVSPropertyOp13
 70
     1
102
RTVSPropertyOp14
 70
     1
102
RTVSPropertyOp15
 70
     1
102
RTVSPropertyOp16
 70
     1
102
RTVSPropertyOp17
 70
     1
102
RTVSPropertyOp18
 70
     1
102
RTVSPropertyOp19
 70
     1
102
RTVSPropertyOp20
 70
     1
102
RTVSPropertyOp21
 70
     1
102
RTVSPropertyOp22
 70
     1
102
RTVSPropertyOp23
 70
     1
102
RTVSPropertyOp24
 70
     1
102
RTVSPropertyOp25
 70
     1
102
RTVSPropertyOp26
 70
     1
102
RTVSPropertyOp27
 70
     1
102
RTVSPropertyOp28
 70
     1
102
RTVSPropertyOp29
 70
     1
102
RTVSPropertyOp30
 70
     1
102
RTVSPropertyOp31
 70
     1
102
RTVSPropertyOp32
 70
     1
  0
XRECORD
  5
B81
102
{ACAD_REACTORS
330
B80
102
}
330
B80
100
AcDbXrecord
280
     1
102
RTVSPropertyOp0
 70
     1
102
RTVSPropertyOp1
 70
     1
102
RTVSPropertyOp2
 70
     1
102
RTVSPropertyOp3
 70
     1
102
RTVSPropertyOp4
 70
     1
102
RTVSPropertyOp5
 70
     1
102
RTVSPropertyOp6
 70
     1
102
RTVSPropertyOp7
 70
     1
102
RTVSPropertyOp8
 70
     1
102
RTVSPropertyOp9
 70
     1
102
RTVSPropertyOp10
 70
     1
102
RTVSPropertyOp11
 70
     1
102
RTVSPropertyOp12
 70
     1
102
RTVSPropertyOp13
 70
     1
102
RTVSPropertyOp14
 70
     1
102
RTVSPropertyOp15
 70
     1
102
RTVSPropertyOp16
 70
     1
102
RTVSPropertyOp17
 70
     1
102
RTVSPropertyOp18
 70
     1
102
RTVSPropertyOp19
 70
     1
102
RTVSPropertyOp20
 70
     1
102
RTVSPropertyOp21
 70
     1
102
RTVSPropertyOp22
 70
     1
102
RTVSPropertyOp23
 70
     1
102
RTVSPropertyOp24
 70
     1
102
RTVSPropertyOp25
 70
     1
102
RTVSPropertyOp26
 70
     1
102
RTVSPropertyOp27
 70
     1
102
RTVSPropertyOp28
 70
     1
102
RTVSPropertyOp29
 70
     1
102
RTVSPropertyOp30
 70
     1
102
RTVSPropertyOp31
 70
     1
102
RTVSPropertyOp32
 70
     1
  0
XRECORD
  5
B83
102
{ACAD_REACTORS
330
B82
102
}
330
B82
100
AcDbXrecord
280
     1
102
RTVSPropertyOp0
 70
     1
102
RTVSPropertyOp1
 70
     1
102
RTVSPropertyOp2
 70
     1
102
RTVSPropertyOp3
 70
     1
102
RTVSPropertyOp4
 70
     1
102
RTVSPropertyOp5
 70
     1
102
RTVSPropertyOp6
 70
     1
102
RTVSPropertyOp7
 70
     1
102
RTVSPropertyOp8
 70
     1
102
RTVSPropertyOp9
 70
     1
102
RTVSPropertyOp10
 70
     1
102
RTVSPropertyOp11
 70
     1
102
RTVSPropertyOp12
 70
     1
102
RTVSPropertyOp13
 70
     1
102
RTVSPropertyOp14
 70
     1
102
RTVSPropertyOp15
 70
     1
102
RTVSPropertyOp16
 70
     1
102
RTVSPropertyOp17
 70
     1
102
RTVSPropertyOp18
 70
     1
102
RTVSPropertyOp19
 70
     1
102
RTVSPropertyOp20
 70
     1
102
RTVSPropertyOp21
 70
     1
102
RTVSPropertyOp22
 70
     1
102
RTVSPropertyOp23
 70
     1
102
RTVSPropertyOp24
 70
     1
102
RTVSPropertyOp25
 70
     1
102
RTVSPropertyOp26
 70
     1
102
RTVSPropertyOp27
 70
     1
102
RTVSPropertyOp28
 70
     1
102
RTVSPropertyOp29
 70
     1
102
RTVSPropertyOp30
 70
     1
102
RTVSPropertyOp31
 70
     1
102
RTVSPropertyOp32
 70
     1
  0
XRECORD
  5
B85
102
{ACAD_REACTORS
330
B84
102
}
330
B84
100
AcDbXrecord
280
     1
102
RTVSPropertyOp0
 70
     1
102
RTVSPropertyOp1
 70
     1
102
RTVSPropertyOp2
 70
     1
102
RTVSPropertyOp3
 70
     1
102
RTVSPropertyOp4
 70
     1
102
RTVSPropertyOp5
 70
     1
102
RTVSPropertyOp6
 70
     1
102
RTVSPropertyOp7
 70
     1
102
RTVSPropertyOp8
 70
     1
102
RTVSPropertyOp9
 70
     1
102
RTVSPropertyOp10
 70
     1
102
RTVSPropertyOp11
 70
     1
102
RTVSPropertyOp12
 70
     1
102
RTVSPropertyOp13
 70
     1
102
RTVSPropertyOp14
 70
     1
102
RTVSPropertyOp15
 70
     1
102
RTVSPropertyOp16
 70
     1
102
RTVSPropertyOp17
 70
     1
102
RTVSPropertyOp18
 70
     1
102
RTVSPropertyOp19
 70
     1
102
RTVSPropertyOp20
 70
     1
102
RTVSPropertyOp21
 70
     1
102
RTVSPropertyOp22
 70
     1
102
RTVSPropertyOp23
 70
     1
102
RTVSPropertyOp24
 70
     1
102
RTVSPropertyOp25
 70
     1
102
RTVSPropertyOp26
 70
     1
102
RTVSPropertyOp27
 70
     1
102
RTVSPropertyOp28
 70
     1
102
RTVSPropertyOp29
 70
     1
102
RTVSPropertyOp30
 70
     1
102
RTVSPropertyOp31
 70
     1
102
RTVSPropertyOp32
 70
     1
  0
XRECORD
  5
B87
102
{ACAD_REACTORS
330
B86
102
}
330
B86
100
AcDbXrecord
280
     1
102
RTVSPropertyOp0
 70
     1
102
RTVSPropertyOp1
 70
     1
102
RTVSPropertyOp2
 70
     1
102
RTVSPropertyOp3
 70
     1
102
RTVSPropertyOp4
 70
     1
102
RTVSPropertyOp5
 70
     1
102
RTVSPropertyOp6
 70
     1
102
RTVSPropertyOp7
 70
     1
102
RTVSPropertyOp8
 70
     1
102
RTVSPropertyOp9
 70
     1
102
RTVSPropertyOp10
 70
     1
102
RTVSPropertyOp11
 70
     1
102
RTVSPropertyOp12
 70
     1
102
RTVSPropertyOp13
 70
     1
102
RTVSPropertyOp14
 70
     1
102
RTVSPropertyOp15
 70
     1
102
RTVSPropertyOp16
 70
     1
102
RTVSPropertyOp17
 70
     1
102
RTVSPropertyOp18
 70
     1
102
RTVSPropertyOp19
 70
     1
102
RTVSPropertyOp20
 70
     1
102
RTVSPropertyOp21
 70
     1
102
RTVSPropertyOp22
 70
     1
102
RTVSPropertyOp23
 70
     1
102
RTVSPropertyOp24
 70
     1
102
RTVSPropertyOp25
 70
     1
102
RTVSPropertyOp26
 70
     1
102
RTVSPropertyOp27
 70
     1
102
RTVSPropertyOp28
 70
     1
102
RTVSPropertyOp29
 70
     1
102
RTVSPropertyOp30
 70
     1
102
RTVSPropertyOp31
 70
     1
102
RTVSPropertyOp32
 70
     1
  0
XRECORD
  5
B8F
102
{ACAD_REACTORS
330
B8E
102
}
330
B8E
100
AcDbXrecord
280
     1
102
RTVSPropertyOp0
 70
     1
102
RTVSPropertyOp1
 70
     1
102
RTVSPropertyOp2
 70
     1
102
RTVSPropertyOp3
 70
     1
102
RTVSPropertyOp4
 70
     1
102
RTVSPropertyOp5
 70
     1
102
RTVSPropertyOp6
 70
     1
102
RTVSPropertyOp7
 70
     1
102
RTVSPropertyOp8
 70
     1
102
RTVSPropertyOp9
 70
     1
102
RTVSPropertyOp10
 70
     1
102
RTVSPropertyOp11
 70
     1
102
RTVSPropertyOp12
 70
     1
102
RTVSPropertyOp13
 70
     1
102
RTVSPropertyOp14
 70
     1
102
RTVSPropertyOp15
 70
     1
102
RTVSPropertyOp16
 70
     1
102
RTVSPropertyOp17
 70
     1
102
RTVSPropertyOp18
 70
     1
102
RTVSPropertyOp19
 70
     1
102
RTVSPropertyOp20
 70
     1
102
RTVSPropertyOp21
 70
     1
102
RTVSPropertyOp22
 70
     1
102
RTVSPropertyOp23
 70
     1
102
RTVSPropertyOp24
 70
     1
102
RTVSPropertyOp25
 70
     1
102
RTVSPropertyOp26
 70
     1
102
RTVSPropertyOp27
 70
     1
102
RTVSPropertyOp28
 70
     1
102
RTVSPropertyOp29
 70
     1
102
RTVSPropertyOp30
 70
     1
102
RTVSPropertyOp31
 70
     1
102
RTVSPropertyOp32
 70
     1
  0
XRECORD
  5
BAB
102
{ACAD_REACTORS
330
BAA
102
}
330
BAA
100
AcDbXrecord
280
     1
102
RTVSPropertyOp0
 70
     0
102
RTVSPropertyOp1
 70
     0
102
RTVSPropertyOp2
 70
     0
102
RTVSPropertyOp3
 70
     0
102
RTVSPropertyOp4
 70
     0
102
RTVSPropertyOp5
 70
     0
102
RTVSPropertyOp6
 70
     0
102
RTVSPropertyOp7
 70
     0
102
RTVSPropertyOp8
 70
     0
102
RTVSPropertyOp9
 70
     0
102
RTVSPropertyOp10
 70
     0
102
RTVSPropertyOp11
 70
     0
102
RTVSPropertyOp12
 70
     0
102
RTVSPropertyOp13
 70
     0
102
RTVSPropertyOp14
 70
     2
102
RTVSPropertyOp15
 70
     0
102
RTVSPropertyOp16
 70
     0
102
RTVSPropertyOp17
 70
     0
102
RTVSPropertyOp18
 70
     0
102
RTVSPropertyOp19
 70
     0
102
RTVSPropertyOp20
 70
     0
102
RTVSPropertyOp21
 70
     0
102
RTVSPropertyOp22
 70
     0
102
RTVSPropertyOp23
 70
     0
102
RTVSPropertyOp24
 70
     0
102
RTVSPropertyOp25
 70
     0
102
RTVSPropertyOp26
 70
     0
102
RTVSPropertyOp27
 70
     0
102
RTVSPropertyOp28
 70
     1
102
RTVSPropertyOp29
 70
     1
102
RTVSPropertyOp30
 70
     1
102
RTVSPropertyOp31
 70
     1
102
RTVSPropertyOp32
 70
     1
  0
XRECORD
  5
B9B
102
{ACAD_REACTORS
330
B9A
102
}
330
B9A
100
AcDbXrecord
280
     1
102
RTVSPropertyOp0
 70
     1
102
RTVSPropertyOp1
 70
     1
102
RTVSPropertyOp2
 70
     1
102
RTVSPropertyOp3
 70
     1
102
RTVSPropertyOp4
 70
     1
102
RTVSPropertyOp5
 70
     1
102
RTVSPropertyOp6
 70
     1
102
RTVSPropertyOp7
 70
     1
102
RTVSPropertyOp8
 70
     1
102
RTVSPropertyOp9
 70
     1
102
RTVSPropertyOp10
 70
     1
102
RTVSPropertyOp11
 70
     1
102
RTVSPropertyOp12
 70
     1
102
RTVSPropertyOp13
 70
     1
102
RTVSPropertyOp14
 70
     1
102
RTVSPropertyOp15
 70
     1
102
RTVSPropertyOp16
 70
     1
102
RTVSPropertyOp17
 70
     1
102
RTVSPropertyOp18
 70
     1
102
RTVSPropertyOp19
 70
     1
102
RTVSPropertyOp20
 70
     1
102
RTVSPropertyOp21
 70
     1
102
RTVSPropertyOp22
 70
     1
102
RTVSPropertyOp23
 70
     1
102
RTVSPropertyOp24
 70
     1
102
RTVSPropertyOp25
 70
     1
102
RTVSPropertyOp26
 70
     1
102
RTVSPropertyOp27
 70
     1
102
RTVSPropertyOp28
 70
     1
102
RTVSPropertyOp29
 70
     1
102
RTVSPropertyOp30
 70
     1
102
RTVSPropertyOp31
 70
     1
102
RTVSPropertyOp32
 70
     1
  0
XRECORD
  5
BAD
102
{ACAD_REACTORS
330
BAC
102
}
330
BAC
100
AcDbXrecord
280
     1
102
RTVSPropertyOp0
 70
     0
102
RTVSPropertyOp1
 70
     0
102
RTVSPropertyOp2
 70
     0
102
RTVSPropertyOp3
 70
     0
102
RTVSPropertyOp4
 70
     0
102
RTVSPropertyOp5
 70
     0
102
RTVSPropertyOp6
 70
     0
102
RTVSPropertyOp7
 70
     0
102
RTVSPropertyOp8
 70
     0
102
RTVSPropertyOp9
 70
     0
102
RTVSPropertyOp10
 70
     0
102
RTVSPropertyOp11
 70
     0
102
RTVSPropertyOp12
 70
     0
102
RTVSPropertyOp13
 70
     0
102
RTVSPropertyOp14
 70
     2
102
RTVSPropertyOp15
 70
     0
102
RTVSPropertyOp16
 70
     0
102
RTVSPropertyOp17
 70
     0
102
RTVSPropertyOp18
 70
     0
102
RTVSPropertyOp19
 70
     0
102
RTVSPropertyOp20
 70
     0
102
RTVSPropertyOp21
 70
     0
102
RTVSPropertyOp22
 70
     0
102
RTVSPropertyOp23
 70
     0
102
RTVSPropertyOp24
 70
     0
102
RTVSPropertyOp25
 70
     0
102
RTVSPropertyOp26
 70
     0
102
RTVSPropertyOp27
 70
     0
102
RTVSPropertyOp28
 70
     1
102
RTVSPropertyOp29
 70
     1
102
RTVSPropertyOp30
 70
     1
102
RTVSPropertyOp31
 70
     1
102
RTVSPropertyOp32
 70
     1
  0
XRECORD
  5
B93
102
{ACAD_REACTORS
330
B92
102
}
330
B92
100
AcDbXrecord
280
     1
102
RTVSPropertyOp0
 70
     1
102
RTVSPropertyOp1
 70
     1
102
RTVSPropertyOp2
 70
     1
102
RTVSPropertyOp3
 70
     1
102
RTVSPropertyOp4
 70
     1
102
RTVSPropertyOp5
 70
     1
102
RTVSPropertyOp6
 70
     1
102
RTVSPropertyOp7
 70
     1
102
RTVSPropertyOp8
 70
     1
102
RTVSPropertyOp9
 70
     1
102
RTVSPropertyOp10
 70
     1
102
RTVSPropertyOp11
 70
     1
102
RTVSPropertyOp12
 70
     1
102
RTVSPropertyOp13
 70
     1
102
RTVSPropertyOp14
 70
     1
102
RTVSPropertyOp15
 70
     1
102
RTVSPropertyOp16
 70
     1
102
RTVSPropertyOp17
 70
     1
102
RTVSPropertyOp18
 70
     1
102
RTVSPropertyOp19
 70
     1
102
RTVSPropertyOp20
 70
     1
102
RTVSPropertyOp21
 70
     1
102
RTVSPropertyOp22
 70
     1
102
RTVSPropertyOp23
 70
     1
102
RTVSPropertyOp24
 70
     1
102
RTVSPropertyOp25
 70
     1
102
RTVSPropertyOp26
 70
     1
102
RTVSPropertyOp27
 70
     1
102
RTVSPropertyOp28
 70
     1
102
RTVSPropertyOp29
 70
     1
102
RTVSPropertyOp30
 70
     1
102
RTVSPropertyOp31
 70
     1
102
RTVSPropertyOp32
 70
     1
  0
XRECORD
  5
BA9
102
{ACAD_REACTORS
330
BA8
102
}
330
BA8
100
AcDbXrecord
280
     1
102
RTVSPropertyOp0
 70
     1
102
RTVSPropertyOp1
 70
     1
102
RTVSPropertyOp2
 70
     1
102
RTVSPropertyOp3
 70
     1
102
RTVSPropertyOp4
 70
     1
102
RTVSPropertyOp5
 70
     1
102
RTVSPropertyOp6
 70
     1
102
RTVSPropertyOp7
 70
     1
102
RTVSPropertyOp8
 70
     1
102
RTVSPropertyOp9
 70
     1
102
RTVSPropertyOp10
 70
     1
102
RTVSPropertyOp11
 70
     1
102
RTVSPropertyOp12
 70
     1
102
RTVSPropertyOp13
 70
     1
102
RTVSPropertyOp14
 70
     1
102
RTVSPropertyOp15
 70
     1
102
RTVSPropertyOp16
 70
     1
102
RTVSPropertyOp17
 70
     1
102
RTVSPropertyOp18
 70
     1
102
RTVSPropertyOp19
 70
     1
102
RTVSPropertyOp20
 70
     1
102
RTVSPropertyOp21
 70
     1
102
RTVSPropertyOp22
 70
     1
102
RTVSPropertyOp23
 70
     1
102
RTVSPropertyOp24
 70
     1
102
RTVSPropertyOp25
 70
     1
102
RTVSPropertyOp26
 70
     1
102
RTVSPropertyOp27
 70
     1
102
RTVSPropertyOp28
 70
     1
102
RTVSPropertyOp29
 70
     1
102
RTVSPropertyOp30
 70
     1
102
RTVSPropertyOp31
 70
     1
102
RTVSPropertyOp32
 70
     1
  0
XRECORD
  5
BA7
102
{ACAD_REACTORS
330
BA6
102
}
330
BA6
100
AcDbXrecord
280
     1
102
RTVSPropertyOp0
 70
     1
102
RTVSPropertyOp1
 70
     1
102
RTVSPropertyOp2
 70
     1
102
RTVSPropertyOp3
 70
     1
102
RTVSPropertyOp4
 70
     1
102
RTVSPropertyOp5
 70
     1
102
RTVSPropertyOp6
 70
     1
102
RTVSPropertyOp7
 70
     1
102
RTVSPropertyOp8
 70
     1
102
RTVSPropertyOp9
 70
     1
102
RTVSPropertyOp10
 70
     1
102
RTVSPropertyOp11
 70
     1
102
RTVSPropertyOp12
 70
     1
102
RTVSPropertyOp13
 70
     1
102
RTVSPropertyOp14
 70
     1
102
RTVSPropertyOp15
 70
     1
102
RTVSPropertyOp16
 70
     1
102
RTVSPropertyOp17
 70
     1
102
RTVSPropertyOp18
 70
     1
102
RTVSPropertyOp19
 70
     1
102
RTVSPropertyOp20
 70
     1
102
RTVSPropertyOp21
 70
     1
102
RTVSPropertyOp22
 70
     1
102
RTVSPropertyOp23
 70
     1
102
RTVSPropertyOp24
 70
     1
102
RTVSPropertyOp25
 70
     1
102
RTVSPropertyOp26
 70
     1
102
RTVSPropertyOp27
 70
     1
102
RTVSPropertyOp28
 70
     1
102
RTVSPropertyOp29
 70
     1
102
RTVSPropertyOp30
 70
     1
102
RTVSPropertyOp31
 70
     1
102
RTVSPropertyOp32
 70
     1
  0
XRECORD
  5
BA1
102
{ACAD_REACTORS
330
BA0
102
}
330
BA0
100
AcDbXrecord
280
     1
102
RTVSPropertyOp0
 70
     1
102
RTVSPropertyOp1
 70
     1
102
RTVSPropertyOp2
 70
     1
102
RTVSPropertyOp3
 70
     1
102
RTVSPropertyOp4
 70
     1
102
RTVSPropertyOp5
 70
     1
102
RTVSPropertyOp6
 70
     1
102
RTVSPropertyOp7
 70
     1
102
RTVSPropertyOp8
 70
     1
102
RTVSPropertyOp9
 70
     1
102
RTVSPropertyOp10
 70
     1
102
RTVSPropertyOp11
 70
     1
102
RTVSPropertyOp12
 70
     1
102
RTVSPropertyOp13
 70
     1
102
RTVSPropertyOp14
 70
     1
102
RTVSPropertyOp15
 70
     1
102
RTVSPropertyOp16
 70
     1
102
RTVSPropertyOp17
 70
     1
102
RTVSPropertyOp18
 70
     1
102
RTVSPropertyOp19
 70
     1
102
RTVSPropertyOp20
 70
     1
102
RTVSPropertyOp21
 70
     1
102
RTVSPropertyOp22
 70
     1
102
RTVSPropertyOp23
 70
     1
102
RTVSPropertyOp24
 70
     1
102
RTVSPropertyOp25
 70
     1
102
RTVSPropertyOp26
 70
     1
102
RTVSPropertyOp27
 70
     1
102
RTVSPropertyOp28
 70
     1
102
RTVSPropertyOp29
 70
     1
102
RTVSPropertyOp30
 70
     1
102
RTVSPropertyOp31
 70
     1
102
RTVSPropertyOp32
 70
     1
  0
XRECORD
  5
BA3
102
{ACAD_REACTORS
330
BA2
102
}
330
BA2
100
AcDbXrecord
280
     1
102
RTVSPropertyOp0
 70
     1
102
RTVSPropertyOp1
 70
     1
102
RTVSPropertyOp2
 70
     1
102
RTVSPropertyOp3
 70
     1
102
RTVSPropertyOp4
 70
     1
102
RTVSPropertyOp5
 70
     1
102
RTVSPropertyOp6
 70
     1
102
RTVSPropertyOp7
 70
     1
102
RTVSPropertyOp8
 70
     1
102
RTVSPropertyOp9
 70
     1
102
RTVSPropertyOp10
 70
     1
102
RTVSPropertyOp11
 70
     1
102
RTVSPropertyOp12
 70
     1
102
RTVSPropertyOp13
 70
     1
102
RTVSPropertyOp14
 70
     1
102
RTVSPropertyOp15
 70
     1
102
RTVSPropertyOp16
 70
     1
102
RTVSPropertyOp17
 70
     1
102
RTVSPropertyOp18
 70
     1
102
RTVSPropertyOp19
 70
     1
102
RTVSPropertyOp20
 70
     1
102
RTVSPropertyOp21
 70
     1
102
RTVSPropertyOp22
 70
     1
102
RTVSPropertyOp23
 70
     1
102
RTVSPropertyOp24
 70
     1
102
RTVSPropertyOp25
 70
     1
102
RTVSPropertyOp26
 70
     1
102
RTVSPropertyOp27
 70
     1
102
RTVSPropertyOp28
 70
     1
102
RTVSPropertyOp29
 70
     1
102
RTVSPropertyOp30
 70
     1
102
RTVSPropertyOp31
 70
     1
102
RTVSPropertyOp32
 70
     1
  0
XRECORD
  5
B99
102
{ACAD_REACTORS
330
B98
102
}
330
B98
100
AcDbXrecord
280
     1
102
RTVSPropertyOp0
 70
     1
102
RTVSPropertyOp1
 70
     1
102
RTVSPropertyOp2
 70
     1
102
RTVSPropertyOp3
 70
     1
102
RTVSPropertyOp4
 70
     1
102
RTVSPropertyOp5
 70
     1
102
RTVSPropertyOp6
 70
     1
102
RTVSPropertyOp7
 70
     1
102
RTVSPropertyOp8
 70
     1
102
RTVSPropertyOp9
 70
     1
102
RTVSPropertyOp10
 70
     1
102
RTVSPropertyOp11
 70
     1
102
RTVSPropertyOp12
 70
     1
102
RTVSPropertyOp13
 70
     1
102
RTVSPropertyOp14
 70
     1
102
RTVSPropertyOp15
 70
     1
102
RTVSPropertyOp16
 70
     1
102
RTVSPropertyOp17
 70
     1
102
RTVSPropertyOp18
 70
     1
102
RTVSPropertyOp19
 70
     1
102
RTVSPropertyOp20
 70
     1
102
RTVSPropertyOp21
 70
     1
102
RTVSPropertyOp22
 70
     1
102
RTVSPropertyOp23
 70
     1
102
RTVSPropertyOp24
 70
     1
102
RTVSPropertyOp25
 70
     1
102
RTVSPropertyOp26
 70
     1
102
RTVSPropertyOp27
 70
     1
102
RTVSPropertyOp28
 70
     1
102
RTVSPropertyOp29
 70
     1
102
RTVSPropertyOp30
 70
     1
102
RTVSPropertyOp31
 70
     1
102
RTVSPropertyOp32
 70
     1
  0
XRECORD
  5
B8D
102
{ACAD_REACTORS
330
B8C
102
}
330
B8C
100
AcDbXrecord
280
     1
102
RTVSPropertyOp0
 70
     1
102
RTVSPropertyOp1
 70
     1
102
RTVSPropertyOp2
 70
     1
102
RTVSPropertyOp3
 70
     1
102
RTVSPropertyOp4
 70
     1
102
RTVSPropertyOp5
 70
     1
102
RTVSPropertyOp6
 70
     1
102
RTVSPropertyOp7
 70
     1
102
RTVSPropertyOp8
 70
     1
102
RTVSPropertyOp9
 70
     1
102
RTVSPropertyOp10
 70
     1
102
RTVSPropertyOp11
 70
     1
102
RTVSPropertyOp12
 70
     1
102
RTVSPropertyOp13
 70
     1
102
RTVSPropertyOp14
 70
     1
102
RTVSPropertyOp15
 70
     1
102
RTVSPropertyOp16
 70
     1
102
RTVSPropertyOp17
 70
     1
102
RTVSPropertyOp18
 70
     1
102
RTVSPropertyOp19
 70
     1
102
RTVSPropertyOp20
 70
     1
102
RTVSPropertyOp21
 70
     1
102
RTVSPropertyOp22
 70
     1
102
RTVSPropertyOp23
 70
     1
102
RTVSPropertyOp24
 70
     1
102
RTVSPropertyOp25
 70
     1
102
RTVSPropertyOp26
 70
     1
102
RTVSPropertyOp27
 70
     1
102
RTVSPropertyOp28
 70
     1
102
RTVSPropertyOp29
 70
     1
102
RTVSPropertyOp30
 70
     1
102
RTVSPropertyOp31
 70
     1
102
RTVSPropertyOp32
 70
     1
  0
XRECORD
  5
BA5
102
{ACAD_REACTORS
330
BA4
102
}
330
BA4
100
AcDbXrecord
280
     1
102
RTVSPropertyOp0
 70
     1
102
RTVSPropertyOp1
 70
     1
102
RTVSPropertyOp2
 70
     1
102
RTVSPropertyOp3
 70
     1
102
RTVSPropertyOp4
 70
     1
102
RTVSPropertyOp5
 70
     1
102
RTVSPropertyOp6
 70
     1
102
RTVSPropertyOp7
 70
     1
102
RTVSPropertyOp8
 70
     1
102
RTVSPropertyOp9
 70
     1
102
RTVSPropertyOp10
 70
     1
102
RTVSPropertyOp11
 70
     1
102
RTVSPropertyOp12
 70
     1
102
RTVSPropertyOp13
 70
     1
102
RTVSPropertyOp14
 70
     1
102
RTVSPropertyOp15
 70
     1
102
RTVSPropertyOp16
 70
     1
102
RTVSPropertyOp17
 70
     1
102
RTVSPropertyOp18
 70
     1
102
RTVSPropertyOp19
 70
     1
102
RTVSPropertyOp20
 70
     1
102
RTVSPropertyOp21
 70
     1
102
RTVSPropertyOp22
 70
     1
102
RTVSPropertyOp23
 70
     1
102
RTVSPropertyOp24
 70
     1
102
RTVSPropertyOp25
 70
     1
102
RTVSPropertyOp26
 70
     1
102
RTVSPropertyOp27
 70
     1
102
RTVSPropertyOp28
 70
     1
102
RTVSPropertyOp29
 70
     1
102
RTVSPropertyOp30
 70
     1
102
RTVSPropertyOp31
 70
     1
102
RTVSPropertyOp32
 70
     1
  0
ENDSEC
  0
EOF
