  0
SECTION
  2
HEADER
  9
$ACADVER
  1
AC1015
  9
$ACADMAINTVER
 70
    20
  9
$DWGCODEPAGE
  3
ANSI_932
  9
$INSBASE
 10
0.0
 20
0.0
 30
0.0
  9
$EXTMIN
 10
-0.0256167714992444
 20
-0.1812683286070751
 30
-0.0000000000112498
  9
$EXTMAX
 10
1680.025640242262
 20
1188.172239046181
 30
0.0000000000002956
  9
$LIMMIN
 10
0.0
 20
0.0
  9
$LIMMAX
 10
1680.0
 20
1188.0
  9
$ORTHOMODE
 70
     0
  9
$REGENMODE
 70
     1
  9
$FILLMODE
 70
     1
  9
$QTEXTMODE
 70
     0
  9
$MIRRTEXT
 70
     1
  9
$LTSCALE
 40
33.6
  9
$ATTMODE
 70
     1
  9
$TEXTSIZE
 40
0.2
  9
$TRACEWID
 40
0.05
  9
$TEXTSTYLE
  7
STANDARD
  9
$CLAYER
  8
0
  9
$CELTYPE
  6
CONTINUOUS
  9
$CECOLOR
 62
   256
  9
$CELTSCALE
 40
1.0
  9
$DISPSILH
 70
     0
  9
$DIMSCALE
 40
1.0
  9
$DIMASZ
 40
0.18
  9
$DIMEXO
 40
0.0625
  9
$DIMDLI
 40
0.38
  9
$DIMRND
 40
0.0
  9
$DIMDLE
 40
0.0
  9
$DIMEXE
 40
0.18
  9
$DIMTP
 40
0.0
  9
$DIMTM
 40
0.0
  9
$DIMTXT
 40
0.18
  9
$DIMCEN
 40
0.09
  9
$DIMTSZ
 40
0.0
  9
$DIMTOL
 70
     0
  9
$DIMLIM
 70
     0
  9
$DIMTIH
 70
     1
  9
$DIMTOH
 70
     1
  9
$DIMSE1
 70
     0
  9
$DIMSE2
 70
     0
  9
$DIMTAD
 70
     0
  9
$DIMZIN
 70
     0
  9
$DIMBLK
  1

  9
$DIMASO
 70
     1
  9
$DIMSHO
 70
     1
  9
$DIMPOST
  1

  9
$DIMAPOST
  1

  9
$DIMALT
 70
     0
  9
$DIMALTD
 70
     2
  9
$DIMALTF
 40
25.4
  9
$DIMLFAC
 40
1.0
  9
$DIMTOFL
 70
     0
  9
$DIMTVP
 40
0.0
  9
$DIMTIX
 70
     0
  9
$DIMSOXD
 70
     0
  9
$DIMSAH
 70
     0
  9
$DIMBLK1
  1

  9
$DIMBLK2
  1

  9
$DIMSTYLE
  2
STANDARD
  9
$DIMCLRD
 70
     0
  9
$DIMCLRE
 70
     0
  9
$DIMCLRT
 70
     0
  9
$DIMTFAC
 40
1.0
  9
$DIMGAP
 40
0.09
  9
$DIMJUST
 70
     0
  9
$DIMSD1
 70
     0
  9
$DIMSD2
 70
     0
  9
$DIMTOLJ
 70
     1
  9
$DIMTZIN
 70
     0
  9
$DIMALTZ
 70
     0
  9
$DIMALTTZ
 70
     0
  9
$DIMUPT
 70
     0
  9
$DIMDEC
 70
     4
  9
$DIMTDEC
 70
     4
  9
$DIMALTU
 70
     2
  9
$DIMALTTD
 70
     2
  9
$DIMTXSTY
  7
STANDARD
  9
$DIMAUNIT
 70
     0
  9
$DIMADEC
 70
     0
  9
$DIMALTRND
 40
0.0
  9
$DIMAZIN
 70
     0
  9
$DIMDSEP
 70
    46
  9
$DIMATFIT
 70
     3
  9
$DIMFRAC
 70
     0
  9
$DIMLDRBLK
  1

  9
$DIMLUNIT
 70
     2
  9
$DIMLWD
 70
    -2
  9
$DIMLWE
 70
    -2
  9
$DIMTMOVE
 70
     0
  9
$LUNITS
 70
     2
  9
$LUPREC
 70
     4
  9
$SKETCHINC
 40
0.1
  9
$FILLETRAD
 40
0.0
  9
$AUNITS
 70
     0
  9
$AUPREC
 70
     0
  9
$MENU
  1
.
  9
$ELEVATION
 40
0.0
  9
$PELEVATION
 40
0.0
  9
$THICKNESS
 40
0.0
  9
$LIMCHECK
 70
     0
  9
$CHAMFERA
 40
0.0
  9
$CHAMFERB
 40
0.0
  9
$CHAMFERC
 40
0.0
  9
$CHAMFERD
 40
0.0
  9
$SKPOLY
 70
     0
  9
$TDCREATE
 40
2451212.682759178
  9
$TDUCREATE
 40
2451212.307759178
  9
$TDUPDATE
 40
2458321.616413623
  9
$TDUUPDATE
 40
2458321.241413623
  9
$TDINDWG
 40
0.0625070139
  9
$TDUSRTIMER
 40
0.0625070139
  9
$USRTIMER
 70
     1
  9
$ANGBASE
 50
0.0
  9
$ANGDIR
 70
     0
  9
$PDMODE
 70
     0
  9
$PDSIZE
 40
0.0
  9
$PLINEWID
 40
0.0
  9
$SPLFRAME
 70
     0
  9
$SPLINETYPE
 70
     6
  9
$SPLINESEGS
 70
     8
  9
$HANDSEED
  5
1516
  9
$SURFTAB1
 70
     6
  9
$SURFTAB2
 70
     6
  9
$SURFTYPE
 70
     6
  9
$SURFU
 70
     6
  9
$SURFV
 70
     6
  9
$UCSBASE
  2

  9
$UCSNAME
  2

  9
$UCSORG
 10
0.0
 20
0.0
 30
0.0
  9
$UCSXDIR
 10
1.0
 20
0.0
 30
0.0
  9
$UCSYDIR
 10
0.0
 20
1.0
 30
0.0
  9
$UCSORTHOREF
  2

  9
$UCSORTHOVIEW
 70
     0
  9
$UCSORGTOP
 10
0.0
 20
0.0
 30
0.0
  9
$UCSORGBOTTOM
 10
0.0
 20
0.0
 30
0.0
  9
$UCSORGLEFT
 10
0.0
 20
0.0
 30
0.0
  9
$UCSORGRIGHT
 10
0.0
 20
0.0
 30
0.0
  9
$UCSORGFRONT
 10
0.0
 20
0.0
 30
0.0
  9
$UCSORGBACK
 10
0.0
 20
0.0
 30
0.0
  9
$PUCSBASE
  2

  9
$PUCSNAME
  2

  9
$PUCSORG
 10
0.0
 20
0.0
 30
0.0
  9
$PUCSXDIR
 10
1.0
 20
0.0
 30
0.0
  9
$PUCSYDIR
 10
0.0
 20
1.0
 30
0.0
  9
$PUCSORTHOREF
  2

  9
$PUCSORTHOVIEW
 70
     0
  9
$PUCSORGTOP
 10
0.0
 20
0.0
 30
0.0
  9
$PUCSORGBOTTOM
 10
0.0
 20
0.0
 30
0.0
  9
$PUCSORGLEFT
 10
0.0
 20
0.0
 30
0.0
  9
$PUCSORGRIGHT
 10
0.0
 20
0.0
 30
0.0
  9
$PUCSORGFRONT
 10
0.0
 20
0.0
 30
0.0
  9
$PUCSORGBACK
 10
0.0
 20
0.0
 30
0.0
  9
$USERI1
 70
     0
  9
$USERI2
 70
     0
  9
$USERI3
 70
     0
  9
$USERI4
 70
     0
  9
$USERI5
 70
     0
  9
$USERR1
 40
0.0
  9
$USERR2
 40
0.0
  9
$USERR3
 40
0.0
  9
$USERR4
 40
0.0
  9
$USERR5
 40
0.0
  9
$WORLDVIEW
 70
     1
  9
$SHADEDGE
 70
     3
  9
$SHADEDIF
 70
    70
  9
$TILEMODE
 70
     1
  9
$MAXACTVP
 70
    16
  9
$PINSBASE
 10
0.0
 20
0.0
 30
0.0
  9
$PLIMCHECK
 70
     0
  9
$PEXTMIN
 10
1.000000000000000E+20
 20
1.000000000000000E+20
 30
1.000000000000000E+20
  9
$PEXTMAX
 10
-1.000000000000000E+20
 20
-1.000000000000000E+20
 30
-1.000000000000000E+20
  9
$PLIMMIN
 10
0.0
 20
0.0
  9
$PLIMMAX
 10
12.0
 20
9.0
  9
$UNITMODE
 70
     0
  9
$VISRETAIN
 70
     1
  9
$PLINEGEN
 70
     0
  9
$PSLTSCALE
 70
     1
  9
$TREEDEPTH
 70
  3020
  9
$CMLSTYLE
  2
STANDARD
  9
$CMLJUST
 70
     0
  9
$CMLSCALE
 40
1.0
  9
$PROXYGRAPHICS
 70
     1
  9
$MEASUREMENT
 70
     0
  9
$CELWEIGHT
370
    -1
  9
$ENDCAPS
280
     0
  9
$JOINSTYLE
280
     0
  9
$LWDISPLAY
290
     0
  9
$INSUNITS
 70
     0
  9
$HYPERLINKBASE
  1

  9
$STYLESHEET
  1

  9
$XEDIT
290
     1
  9
$CEPSNTYPE
380
     0
  9
$PSTYLEMODE
290
     0
  9
$FINGERPRINTGUID
  2
{C5B731DB-346B-417C-BE6E-75BC79BE6E44}
  9
$VERSIONGUID
  2
{12A86769-A173-4FE0-9BF6-F0DD16D39245}
  9
$EXTNAMES
290
     1
  9
$PSVPSCALE
 40
0.0
  9
$OLESTARTUP
290
     0
  0
ENDSEC
  0
SECTION
  2
CLASSES
  0
CLASS
  1
ACDBDICTIONARYWDFLT
  2
AcDbDictionaryWithDefault
  3
ObjectDBX Classes
 90
        0
280
     0
281
     0
  0
CLASS
  1
TABLESTYLE
  2
AcDbTableStyle
  3
ObjectDBX Classes
 90
     4095
280
     0
281
     0
  0
CLASS
  1
DICTIONARYVAR
  2
AcDbDictionaryVar
  3
ObjectDBX Classes
 90
        0
280
     0
281
     0
  0
CLASS
  1
ACDBPLACEHOLDER
  2
AcDbPlaceHolder
  3
ObjectDBX Classes
 90
        0
280
     0
281
     0
  0
CLASS
  1
LAYOUT
  2
AcDbLayout
  3
ObjectDBX Classes
 90
        0
280
     0
281
     0
  0
CLASS
  1
MATERIAL
  2
AcDbMaterial
  3
ObjectDBX Classes
 90
     1153
280
     0
281
     0
  0
CLASS
  1
VISUALSTYLE
  2
AcDbVisualStyle
  3
ObjectDBX Classes
 90
     4095
280
     0
281
     0
  0
CLASS
  1
SCALE
  2
AcDbScale
  3
ObjectDBX Classes
 90
     1153
280
     0
281
     0
  0
CLASS
  1
MLEADERSTYLE
  2
AcDbMLeaderStyle
  3
ACDB_MLEADERSTYLE_CLASS
 90
     4095
280
     0
281
     0
  0
CLASS
  1
SORTENTSTABLE
  2
AcDbSortentsTable
  3
ObjectDBX Classes
 90
        0
280
     0
281
     0
  0
CLASS
  1
CELLSTYLEMAP
  2
AcDbCellStyleMap
  3
ObjectDBX Classes
 90
     1152
280
     0
281
     0
  0
ENDSEC
  0
SECTION
  2
TABLES
  0
TABLE
  2
VPORT
  5
1
330
0
100
AcDbSymbolTable
 70
     1
  0
VPORT
  5
13C0
330
1
100
AcDbSymbolTableRecord
100
AcDbViewportTableRecord
  2
*Active
 70
     0
 10
0.0
 20
0.0
 11
1.0
 21
1.0
 12
840.0000117353815
 22
593.9954853587869
 13
0.0
 23
0.0
 14
1.0
 24
1.0
 15
0.0
 25
0.0
 16
0.0
 26
0.0
 36
1.0
 17
0.0
 27
0.0
 37
0.0
 40
1199.54679001882
 41
1.882075471698113
 42
50.0
 43
0.0
 44
0.0
 50
0.0
 51
0.0
 71
     0
 72
   100
 73
     1
 74
     1
 75
     0
 76
     0
 77
     0
 78
     0
281
     0
 65
     1
110
0.0
120
0.0
130
0.0
111
1.0
121
0.0
131
0.0
112
0.0
122
1.0
132
0.0
 79
     0
146
0.0
1001
ACAD_NAV_VCDISPLAY
1070
     3
  0
ENDTAB
  0
TABLE
  2
LTYPE
  5
6C
330
0
100
AcDbSymbolTable
 70
     5
  0
LTYPE
  5
1D
330
6C
100
AcDbSymbolTableRecord
100
AcDbLinetypeTableRecord
  2
BYBLOCK
 70
     0
  3

 72
    65
 73
     0
 40
0.0
  0
LTYPE
  5
1E
330
6C
100
AcDbSymbolTableRecord
100
AcDbLinetypeTableRecord
  2
BYLAYER
 70
     0
  3

 72
    65
 73
     0
 40
0.0
  0
LTYPE
  5
1F
330
6C
100
AcDbSymbolTableRecord
100
AcDbLinetypeTableRecord
  2
CONTINUOUS
 70
     0
  3
Solid line
 72
    65
 73
     0
 40
0.0
  0
LTYPE
  5
26
330
6C
100
AcDbSymbolTableRecord
100
AcDbLinetypeTableRecord
  2
DASHDOT
 70
     0
  3
__ . __ . __ . __ . __ . __ . __ . __ . __ . __
 72
    65
 73
     4
 40
1.0
 49
0.5
 74
     0
 49
-0.25
 74
     0
 49
0.0
 74
     0
 49
-0.25
 74
     0
  0
LTYPE
  5
2F
330
6C
100
AcDbSymbolTableRecord
100
AcDbLinetypeTableRecord
  2
DOT
 70
     0
  3
. . . . . . . . . . . . . . . . . . . . . . . .
 72
    65
 73
     2
 40
0.25
 49
0.0
 74
     0
 49
-0.25
 74
     0
  0
LTYPE
  5
32
330
6C
100
AcDbSymbolTableRecord
100
AcDbLinetypeTableRecord
  2
HIDDEN
 70
     0
  3
__ __ __ __ __ __ __ __ __ __ __ __ __ __ __ __
 72
    65
 73
     2
 40
0.375
 49
0.25
 74
     0
 49
-0.125
 74
     0
  0
ENDTAB
  0
TABLE
  2
LAYER
  5
6B
102
{ACAD_XDICTIONARY
360
1411
102
}
330
0
100
AcDbSymbolTable
 70
     2
  0
LAYER
  5
38
102
{ACAD_XDICTIONARY
360
14C6
102
}
330
6B
100
AcDbSymbolTableRecord
100
AcDbLayerTableRecord
  2
0
 70
     0
 62
     7
  6
CONTINUOUS
370
    -3
390
AB4
  0
LAYER
  5
39
102
{ACAD_XDICTIONARY
360
14C8
102
}
330
6B
100
AcDbSymbolTableRecord
100
AcDbLayerTableRecord
  2
LEVEL001
 70
     0
 62
     7
  6
CONTINUOUS
370
    -3
390
AB4
  0
ENDTAB
  0
TABLE
  2
STYLE
  5
6
330
0
100
AcDbSymbolTable
 70
     1
  0
STYLE
  5
7
330
6
100
AcDbSymbolTableRecord
100
AcDbTextStyleTableRecord
  2
STANDARD
 70
     0
 40
0.0
 41
0.8
 50
0.0
 71
     0
 42
0.2
  3
TXT.shx
  4
BIGFONT.shx
  0
ENDTAB
  0
TABLE
  2
VIEW
  5
2
330
0
100
AcDbSymbolTable
 70
     0
  0
ENDTAB
  0
TABLE
  2
UCS
  5
3
330
0
100
AcDbSymbolTable
 70
     0
  0
ENDTAB
  0
TABLE
  2
APPID
  5
4
330
0
100
AcDbSymbolTable
 70
     6
  0
APPID
  5
5
330
4
100
AcDbSymbolTableRecord
100
AcDbRegAppTableRecord
  2
ACAD
 70
     0
  0
APPID
  5
1410
330
4
100
AcDbSymbolTableRecord
100
AcDbRegAppTableRecord
  2
ACAD_NAV_VCDISPLAY
 70
     0
  0
APPID
  5
142C
330
4
100
AcDbSymbolTableRecord
100
AcDbRegAppTableRecord
  2
ACAD_EXEMPT_FROM_CAD_STANDARDS
 70
     0
  0
APPID
  5
1477
330
4
100
AcDbSymbolTableRecord
100
AcDbRegAppTableRecord
  2
GradientColor1ACI
 70
     0
  0
APPID
  5
1478
330
4
100
AcDbSymbolTableRecord
100
AcDbRegAppTableRecord
  2
GradientColor2ACI
 70
     0
  0
APPID
  5
1515
330
4
100
AcDbSymbolTableRecord
100
AcDbRegAppTableRecord
  2
ACAD_MLEADERVER
 70
     0
  0
ENDTAB
  0
TABLE
  2
DIMSTYLE
  5
6A
330
0
100
AcDbSymbolTable
 70
     1
100
AcDbDimStyleTable
 71
     0
  0
DIMSTYLE
105
3F
330
6A
100
AcDbSymbolTableRecord
100
AcDbDimStyleTableRecord
  2
STANDARD
 70
     0
340
7
  0
ENDTAB
  0
TABLE
  2
BLOCK_RECORD
  5
9
330
0
100
AcDbSymbolTable
 70
     1
  0
BLOCK_RECORD
  5
A
102
{ACAD_XDICTIONARY
360
142F
102
}
330
9
100
AcDbSymbolTableRecord
100
AcDbBlockTableRecord
  2
*MODEL_SPACE
340
ABB
  0
BLOCK_RECORD
  5
B
330
9
100
AcDbSymbolTableRecord
100
AcDbBlockTableRecord
  2
*PAPER_SPACE
340
ABC
  0
ENDTAB
  0
ENDSEC
  0
SECTION
  2
BLOCKS
  0
BLOCK
  5
44
330
A
100
AcDbEntity
  8
0
100
AcDbBlockBegin
  2
*MODEL_SPACE
 70
     0
 10
0.0
 20
0.0
 30
0.0
  3
*MODEL_SPACE
  1

  0
ENDBLK
  5
57
330
A
100
AcDbEntity
  8
0
100
AcDbBlockEnd
  0
BLOCK
  5
45
330
B
100
AcDbEntity
 67
     1
  8
0
100
AcDbBlockBegin
  2
*PAPER_SPACE
 70
     0
 10
0.0
 20
0.0
 30
0.0
  3
*PAPER_SPACE
  1

  0
ENDBLK
  5
58
330
B
100
AcDbEntity
 67
     1
  8
0
100
AcDbBlockEnd
  0
ENDSEC
  0
SECTION
  2
ENTITIES
  0
LINE
  5
A9
330
A
100
AcDbEntity
  8
LEVEL001
  6
Continuous
 62
     3
370
    30
100
AcDbLine
 10
162.00000000011
 20
694.0000000000099
 30
0.0
 11
162.00000000011
 21
899.8090974047
 31
0.0
  0
LINE
  5
AA
330
A
100
AcDbEntity
  8
LEVEL001
  6
Continuous
 62
     7
100
AcDbLine
 10
740.00000000011
 20
817.7662973484698
 30
0.0
 11
740.00000000011
 21
762.7662973484699
 31
0.0
  0
LINE
  5
AB
330
A
100
AcDbEntity
  8
LEVEL001
  6
Continuous
 62
     3
370
    30
100
AcDbLine
 10
740.00000000011
 20
694.0000000000099
 30
0.0
 11
740.00000000011
 21
899.8090974047
 31
0.0
  0
LINE
  5
AC
330
A
100
AcDbEntity
  8
LEVEL001
  6
Continuous
 62
     7
100
AcDbLine
 10
162.00000000011
 20
303.45840532189
 30
0.0
 11
162.00000000011
 21
248.45840532189
 31
0.0
  0
LINE
  5
AD
330
A
100
AcDbEntity
  8
LEVEL001
  6
Continuous
 62
     7
100
AcDbLine
 10
162.00000000011
 20
303.45840532189
 30
0.0
 11
162.00000000011
 21
248.45840532189
 31
0.0
  0
LINE
  5
AE
330
A
100
AcDbEntity
  8
LEVEL001
  6
Continuous
 62
     3
370
    30
100
AcDbLine
 10
162.00000000011
 20
148.00000000001
 30
0.0
 11
162.00000000011
 21
412.24315933874
 31
0.0
  0
LWPOLYLINE
  5
AF
330
A
100
AcDbEntity
  8
0
  6
DOT
100
AcDbPolyline
 90
        5
 70
     0
 43
0.0
 10
0.0
 20
0.0
 10
1680.0
 20
0.0
 10
1680.0
 20
1188.0
 10
0.0
 20
1188.0
 10
0.0
 20
0.0
  0
TEXT
  5
B6
330
A
100
AcDbEntity
  8
LEVEL001
 62
     8
100
AcDbText
 10
1283.6000000001
 20
145.50000000001
 30
0.0
 40
15.0
  1
Ｓ＝１：４
 41
0.8
 72
     1
 11
1318.0000000001
 21
153.00000000001
 31
0.0
100
AcDbText
 73
     2
  0
TEXT
  5
B7
330
A
100
AcDbEntity
  8
LEVEL001
 62
     8
100
AcDbText
 10
1305.6000000001
 20
65.50000000000899
 30
0.0
 40
15.0
  1
Ａ３
 41
0.8
 72
     1
 11
1318.0000000001
 21
73.00000000000899
 31
0.0
100
AcDbText
 73
     2
  0
TEXT
  5
B8
330
A
100
AcDbEntity
  8
LEVEL001
 62
     8
100
AcDbText
 10
1223.3600000001
 20
1006.0
 30
0.0
 40
12.0
  1
商品名：
 41
0.8
 72
     1
 11
1243.2000000001
 21
1012.0
 31
0.0
100
AcDbText
 73
     2
  0
TEXT
  5
B9
330
A
100
AcDbEntity
  8
LEVEL001
 62
     8
100
AcDbText
 10
1223.1200000001
 20
926.0000000000101
 30
0.0
 40
12.0
  1
形式：
 41
0.8
 72
     1
 11
1237.2000000001
 21
932.0000000000099
 31
0.0
100
AcDbText
 73
     2
  0
TEXT
  5
BA
330
A
100
AcDbEntity
  8
LEVEL001
 62
     8
100
AcDbText
 10
1223.1200000001
 20
846.00000000001
 30
0.0
 40
12.0
  1
仕様：
 41
0.8
 72
     1
 11
1237.2000000001
 21
852.00000000001
 31
0.0
100
AcDbText
 73
     2
  0
TEXT
  5
BB
330
A
100
AcDbEntity
  8
LEVEL001
 62
     8
100
AcDbText
 10
1223.2800000001
 20
267.00000000001
 30
0.0
 40
12.0
  1
図面名称：
 41
0.8
 72
     1
 11
1249.2000000001
 21
273.00000000001
 31
0.0
100
AcDbText
 73
     2
  0
TEXT
  5
BC
330
A
100
AcDbEntity
  8
LEVEL001
 62
     8
100
AcDbText
 10
1223.1200000001
 20
187.00000000001
 30
0.0
 40
12.0
  1
縮尺：
 41
0.8
 72
     1
 11
1237.2000000001
 21
193.00000000001
 31
0.0
100
AcDbText
 73
     2
  0
TEXT
  5
BD
330
A
100
AcDbEntity
  8
LEVEL001
 62
     8
100
AcDbText
 10
1223.0400000001
 20
107.00000000001
 30
0.0
 40
12.0
  1
サイズ：
 41
0.8
 72
     1
 11
1243.2000000001
 21
113.00000000001
 31
0.0
100
AcDbText
 73
     2
  0
TEXT
  5
BE
330
A
100
AcDbEntity
  8
LEVEL001
 62
     8
100
AcDbText
 10
1423.5200000001
 20
107.00000000001
 30
0.0
 40
12.0
  1
ファイル名：
 41
0.8
 72
     1
 11
1455.2000000001
 21
113.00000000001
 31
0.0
100
AcDbText
 73
     2
  0
TEXT
  5
BF
330
A
100
AcDbEntity
  8
LEVEL001
 62
     8
100
AcDbText
 10
1316.6995065789
 20
960.81842105265
 30
0.0
 40
20.0
  1
パルライン車椅子ガード
 41
0.8
 72
     1
 11
1419.0995065789
 21
970.81842105265
 31
0.0
100
AcDbText
 73
     2
  0
TEXT
  5
C0
330
A
100
AcDbEntity
  8
LEVEL001
 62
     8
100
AcDbText
 10
1385.146666666767
 20
894.3333333333399
 30
0.0
 40
14.0
  1
ＧＫタイプ
 41
0.8
 72
     1
 11
1418.0000000001
 21
901.3333333333399
 31
0.0
100
AcDbText
 73
     2
  0
TEXT
  5
C1
330
A
100
AcDbEntity
  8
LEVEL001
 62
     8
100
AcDbText
 10
323.80000000011
 20
1114.0
 30
0.0
 40
12.0
  1
ＧＫ１００
 41
0.8
 72
     1
 11
351.00000000011
 21
1120.0
 31
0.0
100
AcDbText
 73
     2
  0
TEXT
  5
C2
330
A
100
AcDbEntity
  8
LEVEL001
 62
     8
100
AcDbText
 10
901.80000000011
 20
1114.0
 30
0.0
 40
12.0
  1
ＧＫ１５０
 41
0.8
 72
     1
 11
929.00000000011
 21
1120.0
 31
0.0
100
AcDbText
 73
     2
  0
TEXT
  5
C3
330
A
100
AcDbEntity
  8
LEVEL001
 62
     8
100
AcDbText
 10
323.80000000011
 20
568.00000000001
 30
0.0
 40
12.0
  1
ＧＫ２００
 41
0.8
 72
     1
 11
351.00000000011
 21
574.00000000001
 31
0.0
100
AcDbText
 73
     2
  0
TEXT
  5
C4
330
A
100
AcDbEntity
  8
LEVEL001
 62
     8
100
AcDbText
 10
1356.0000000001
 20
225.50000000001
 30
0.0
 40
15.0
  1
平面図･断面図･姿図
 41
0.8
 72
     1
 11
1418.0000000001
 21
233.00000000001
 31
0.0
100
AcDbText
 73
     2
  0
LWPOLYLINE
  5
C5
102
{ACAD_REACTORS
330
1479
102
}
330
A
100
AcDbEntity
  8
LEVEL001
  6
Continuous
 62
     3
100
AcDbPolyline
 90
        6
 70
     0
 43
0.0
 10
1376.6000000002
 20
1088.3
 10
1347.8000000002
 20
1088.3
 10
1347.8000000002
 20
1045.1
 10
1362.2000000002
 20
1045.1
 10
1362.2000000002
 20
1052.3
 10
1376.6000000002
 20
1052.3
  0
ARC
  5
CD
330
A
100
AcDbEntity
  8
LEVEL001
  6
Continuous
 62
     3
100
AcDbCircle
 10
1376.6000000002
 20
1070.3
 30
0.0
 40
18.0
100
AcDbArc
 50
270.0
 51
90.0
  0
LINE
  5
CE
330
A
100
AcDbEntity
  8
LEVEL001
  6
Continuous
 62
     3
100
AcDbLine
 10
1362.2000000002
 20
1066.7
 30
0.0
 11
1376.6000000002
 21
1066.7
 31
0.0
  0
ARC
  5
CF
330
A
100
AcDbEntity
  8
LEVEL001
  6
Continuous
 62
     3
100
AcDbCircle
 10
1376.6000000002
 20
1070.3
 30
0.0
 40
3.6
100
AcDbArc
 50
270.0
 51
90.0
  0
LINE
  5
D0
330
A
100
AcDbEntity
  8
LEVEL001
  6
Continuous
 62
     3
100
AcDbLine
 10
1376.6000000002
 20
1073.9
 30
0.0
 11
1362.2000000002
 21
1073.9
 31
0.0
  0
LINE
  5
D1
330
A
100
AcDbEntity
  8
LEVEL001
  6
Continuous
 62
     3
100
AcDbLine
 10
1362.2000000002
 20
1073.9
 30
0.0
 11
1362.2000000002
 21
1066.7
 31
0.0
  0
LWPOLYLINE
  5
D2
102
{ACAD_REACTORS
330
1479
102
}
330
A
100
AcDbEntity
  8
LEVEL001
  6
Continuous
 62
     3
100
AcDbPolyline
 90
       26
 70
     0
 43
0.0
 10
1383.8000000002
 20
1045.1
 10
1412.6000000002
 20
1088.3
 10
1448.6000000002
 20
1088.3
 10
1448.6000000002
 20
1059.5
 10
1470.2000000002
 20
1059.5
 10
1470.2000000002
 20
1073.9
 10
1455.8000000002
 20
1073.9
 10
1455.8000000002
 20
1088.3
 10
1542.2000000002
 20
1088.3
 10
1542.2000000002
 20
1073.9
 10
1513.4000000002
 20
1073.9
 10
1513.4000000002
 20
1070.3
 10
1538.6000000002
 20
1070.3
 10
1538.6000000002
 20
1063.1
 10
1513.4000000002
 20
1063.1
 10
1513.4000000002
 20
1059.5
 10
1542.2000000002
 20
1059.5
 10
1542.2000000002
 20
1045.1
 10
1499.0000000002
 20
1045.1
 10
1499.0000000002
 20
1073.9
 10
1484.6000000002
 20
1073.9
 10
1484.6000000002
 20
1045.1
 10
1434.2000000002
 20
1045.1
 10
1434.2000000002
 20
1088.3
 10
1405.4000000002
 20
1045.1
 10
1383.8000000002
 20
1045.1
  0
LWPOLYLINE
  5
EE
102
{ACAD_REACTORS
330
1479
102
}
330
A
100
AcDbEntity
  8
LEVEL001
  6
Continuous
 62
     3
100
AcDbPolyline
 90
        4
 70
     0
 43
0.0
 10
1429.4000000002
 20
1072.4466769389
 10
1411.1688820409
 20
1045.1
 10
1429.4000000002
 20
1045.1
 10
1429.4000000002
 20
1072.4466769389
  0
ARC
  5
F4
330
A
100
AcDbEntity
  8
LEVEL001
  6
Continuous
 62
     3
100
AcDbCircle
 10
1563.8000000002
 20
1066.7
 30
0.0
 40
21.6
100
AcDbArc
 50
90.0
 51
270.0
  0
ARC
  5
F5
330
A
100
AcDbEntity
  8
LEVEL001
  6
Continuous
 62
     3
100
AcDbCircle
 10
1563.8000000002
 20
1066.7
 30
0.0
 40
7.2
100
AcDbArc
 50
90.0
 51
270.0
  0
LWPOLYLINE
  5
F6
102
{ACAD_REACTORS
330
1479
102
}
330
A
100
AcDbEntity
  8
LEVEL001
  6
Continuous
 62
     3
100
AcDbPolyline
 90
        4
 70
     0
 43
0.0
 10
1563.8000000002
 20
1088.3
 10
1585.4000000002
 20
1088.3
 10
1585.4000000002
 20
1073.9
 10
1563.8000000002
 20
1073.9
  0
LINE
  5
FC
330
A
100
AcDbEntity
  8
LEVEL001
  6
Continuous
 62
     3
100
AcDbLine
 10
1347.8000000002
 20
1088.3
 30
0.0
 11
1347.8000000002
 21
1045.1
 31
0.0
  0
LINE
  5
FD
330
A
100
AcDbEntity
  8
LEVEL001
  6
Continuous
 62
     3
100
AcDbLine
 10
1347.8000000002
 20
1045.1
 30
0.0
 11
1362.2000000002
 21
1045.1
 31
0.0
  0
LINE
  5
FE
330
A
100
AcDbEntity
  8
LEVEL001
  6
Continuous
 62
     3
100
AcDbLine
 10
1362.2000000002
 20
1045.1
 30
0.0
 11
1362.2000000002
 21
1052.3
 31
0.0
  0
LINE
  5
FF
330
A
100
AcDbEntity
  8
LEVEL001
  6
Continuous
 62
     3
100
AcDbLine
 10
1362.2000000002
 20
1052.3
 30
0.0
 11
1376.6000000002
 21
1052.3
 31
0.0
  0
ARC
  5
100
102
{ACAD_REACTORS
330
1479
102
}
330
A
100
AcDbEntity
  8
LEVEL001
  6
Continuous
 62
     3
100
AcDbCircle
 10
1376.6000000002
 20
1070.3
 30
0.0
 40
18.0
100
AcDbArc
 50
270.0
 51
90.0
  0
LINE
  5
101
102
{ACAD_REACTORS
330
1479
102
}
330
A
100
AcDbEntity
  8
LEVEL001
  6
Continuous
 62
     3
100
AcDbLine
 10
1376.6000000002
 20
1088.3
 30
0.0
 11
1347.8000000002
 21
1088.3
 31
0.0
  0
LINE
  5
102
102
{ACAD_REACTORS
330
1479
102
}
330
A
100
AcDbEntity
  8
LEVEL001
  6
Continuous
 62
     3
100
AcDbLine
 10
1362.2000000002
 20
1073.9
 30
0.0
 11
1362.2000000002
 21
1066.7
 31
0.0
  0
LINE
  5
103
102
{ACAD_REACTORS
330
1479
102
}
330
A
100
AcDbEntity
  8
LEVEL001
  6
Continuous
 62
     3
100
AcDbLine
 10
1362.2000000002
 20
1066.7
 30
0.0
 11
1376.6000000002
 21
1066.7
 31
0.0
  0
ARC
  5
104
102
{ACAD_REACTORS
330
1479
102
}
330
A
100
AcDbEntity
  8
LEVEL001
  6
Continuous
 62
     3
100
AcDbCircle
 10
1376.6000000002
 20
1070.3
 30
0.0
 40
3.6
100
AcDbArc
 50
270.0
 51
90.0
  0
LINE
  5
105
102
{ACAD_REACTORS
330
1479
102
}
330
A
100
AcDbEntity
  8
LEVEL001
  6
Continuous
 62
     3
100
AcDbLine
 10
1376.6000000002
 20
1073.9
 30
0.0
 11
1362.2000000002
 21
1073.9
 31
0.0
  0
LINE
  5
106
102
{ACAD_REACTORS
330
1479
102
}
330
A
100
AcDbEntity
  8
LEVEL001
  6
Continuous
 62
     3
100
AcDbLine
 10
1412.6000000002
 20
1088.3
 30
0.0
 11
1383.8000000002
 21
1045.1
 31
0.0
  0
LINE
  5
107
330
A
100
AcDbEntity
  8
LEVEL001
  6
Continuous
 62
     3
100
AcDbLine
 10
1383.8000000002
 20
1045.1
 30
0.0
 11
1405.4000000002
 21
1045.1
 31
0.0
  0
LINE
  5
108
330
A
100
AcDbEntity
  8
LEVEL001
  6
Continuous
 62
     3
100
AcDbLine
 10
1405.4000000002
 20
1045.1
 30
0.0
 11
1434.2000000002
 21
1088.3
 31
0.0
  0
LINE
  5
109
330
A
100
AcDbEntity
  8
LEVEL001
  6
Continuous
 62
     3
100
AcDbLine
 10
1434.2000000002
 20
1088.3
 30
0.0
 11
1412.6000000002
 21
1088.3
 31
0.0
  0
LINE
  5
10A
330
A
100
AcDbEntity
  8
LEVEL001
  6
Continuous
 62
     3
100
AcDbLine
 10
1429.4000000002
 20
1045.1
 30
0.0
 11
1429.4000000002
 21
1072.4466769389
 31
0.0
  0
LINE
  5
10B
102
{ACAD_REACTORS
330
1479
102
}
330
A
100
AcDbEntity
  8
LEVEL001
  6
Continuous
 62
     3
100
AcDbLine
 10
1429.4000000002
 20
1072.4466769389
 30
0.0
 11
1411.1688820409
 21
1045.1
 31
0.0
  0
LINE
  5
10C
330
A
100
AcDbEntity
  8
LEVEL001
  6
Continuous
 62
     3
100
AcDbLine
 10
1411.1688820409
 20
1045.1
 30
0.0
 11
1429.4000000002
 21
1045.1
 31
0.0
  0
LINE
  5
10D
102
{ACAD_REACTORS
330
1479
102
}
330
A
100
AcDbEntity
  8
LEVEL001
  6
Continuous
 62
     3
100
AcDbLine
 10
1434.2000000002
 20
1045.1
 30
0.0
 11
1484.6000000002
 21
1045.1
 31
0.0
  0
LINE
  5
10E
330
A
100
AcDbEntity
  8
LEVEL001
  6
Continuous
 62
     3
100
AcDbLine
 10
1484.6000000002
 20
1045.1
 30
0.0
 11
1484.6000000002
 21
1073.9
 31
0.0
  0
LINE
  5
10F
330
A
100
AcDbEntity
  8
LEVEL001
  6
Continuous
 62
     3
100
AcDbLine
 10
1484.6000000002
 20
1073.9
 30
0.0
 11
1499.0000000002
 21
1073.9
 31
0.0
  0
LINE
  5
110
330
A
100
AcDbEntity
  8
LEVEL001
  6
Continuous
 62
     3
100
AcDbLine
 10
1499.0000000002
 20
1073.9
 30
0.0
 11
1499.0000000002
 21
1045.1
 31
0.0
  0
LINE
  5
111
330
A
100
AcDbEntity
  8
LEVEL001
  6
Continuous
 62
     3
100
AcDbLine
 10
1499.0000000002
 20
1045.1
 30
0.0
 11
1542.2000000002
 21
1045.1
 31
0.0
  0
LINE
  5
112
330
A
100
AcDbEntity
  8
LEVEL001
  6
Continuous
 62
     3
100
AcDbLine
 10
1542.2000000002
 20
1045.1
 30
0.0
 11
1542.2000000002
 21
1059.5
 31
0.0
  0
LINE
  5
113
330
A
100
AcDbEntity
  8
LEVEL001
  6
Continuous
 62
     3
100
AcDbLine
 10
1542.2000000002
 20
1059.5
 30
0.0
 11
1513.4000000002
 21
1059.5
 31
0.0
  0
LINE
  5
114
330
A
100
AcDbEntity
  8
LEVEL001
  6
Continuous
 62
     3
100
AcDbLine
 10
1513.4000000002
 20
1059.5
 30
0.0
 11
1513.4000000002
 21
1063.1
 31
0.0
  0
LINE
  5
115
330
A
100
AcDbEntity
  8
LEVEL001
  6
Continuous
 62
     3
100
AcDbLine
 10
1513.4000000002
 20
1063.1
 30
0.0
 11
1538.6000000002
 21
1063.1
 31
0.0
  0
LINE
  5
116
330
A
100
AcDbEntity
  8
LEVEL001
  6
Continuous
 62
     3
100
AcDbLine
 10
1538.6000000002
 20
1063.1
 30
0.0
 11
1538.6000000002
 21
1070.3
 31
0.0
  0
LINE
  5
117
330
A
100
AcDbEntity
  8
LEVEL001
  6
Continuous
 62
     3
100
AcDbLine
 10
1538.6000000002
 20
1070.3
 30
0.0
 11
1513.4000000002
 21
1070.3
 31
0.0
  0
LINE
  5
118
330
A
100
AcDbEntity
  8
LEVEL001
  6
Continuous
 62
     3
100
AcDbLine
 10
1513.4000000002
 20
1070.3
 30
0.0
 11
1513.4000000002
 21
1073.9
 31
0.0
  0
LINE
  5
119
330
A
100
AcDbEntity
  8
LEVEL001
  6
Continuous
 62
     3
100
AcDbLine
 10
1513.4000000002
 20
1073.9
 30
0.0
 11
1542.2000000002
 21
1073.9
 31
0.0
  0
LINE
  5
11A
330
A
100
AcDbEntity
  8
LEVEL001
  6
Continuous
 62
     3
100
AcDbLine
 10
1542.2000000002
 20
1073.9
 30
0.0
 11
1542.2000000002
 21
1088.3
 31
0.0
  0
LINE
  5
11B
330
A
100
AcDbEntity
  8
LEVEL001
  6
Continuous
 62
     3
100
AcDbLine
 10
1542.2000000002
 20
1088.3
 30
0.0
 11
1455.8000000002
 21
1088.3
 31
0.0
  0
LINE
  5
11C
330
A
100
AcDbEntity
  8
LEVEL001
  6
Continuous
 62
     3
100
AcDbLine
 10
1455.8000000002
 20
1088.3
 30
0.0
 11
1455.8000000002
 21
1073.9
 31
0.0
  0
LINE
  5
11D
330
A
100
AcDbEntity
  8
LEVEL001
  6
Continuous
 62
     3
100
AcDbLine
 10
1455.8000000002
 20
1073.9
 30
0.0
 11
1470.2000000002
 21
1073.9
 31
0.0
  0
LINE
  5
11E
330
A
100
AcDbEntity
  8
LEVEL001
  6
Continuous
 62
     3
100
AcDbLine
 10
1470.2000000002
 20
1073.9
 30
0.0
 11
1470.2000000002
 21
1059.5
 31
0.0
  0
LINE
  5
11F
330
A
100
AcDbEntity
  8
LEVEL001
  6
Continuous
 62
     3
100
AcDbLine
 10
1470.2000000002
 20
1059.5
 30
0.0
 11
1448.6000000002
 21
1059.5
 31
0.0
  0
LINE
  5
120
330
A
100
AcDbEntity
  8
LEVEL001
  6
Continuous
 62
     3
100
AcDbLine
 10
1448.6000000002
 20
1059.5
 30
0.0
 11
1448.6000000002
 21
1088.3
 31
0.0
  0
LINE
  5
121
330
A
100
AcDbEntity
  8
LEVEL001
  6
Continuous
 62
     3
100
AcDbLine
 10
1448.6000000002
 20
1088.3
 30
0.0
 11
1434.2000000002
 21
1088.3
 31
0.0
  0
LINE
  5
122
330
A
100
AcDbEntity
  8
LEVEL001
  6
Continuous
 62
     3
100
AcDbLine
 10
1434.2000000002
 20
1088.3
 30
0.0
 11
1434.2000000002
 21
1045.1
 31
0.0
  0
LINE
  5
123
102
{ACAD_REACTORS
330
1479
102
}
330
A
100
AcDbEntity
  8
LEVEL001
  6
Continuous
 62
     3
100
AcDbLine
 10
1563.8000000002
 20
1045.1
 30
0.0
 11
1585.4000000002
 21
1045.1
 31
0.0
  0
LINE
  5
124
102
{ACAD_REACTORS
330
1479
102
}
330
A
100
AcDbEntity
  8
LEVEL001
  6
Continuous
 62
     3
100
AcDbLine
 10
1585.4000000002
 20
1045.1
 30
0.0
 11
1585.4000000002
 21
1059.5
 31
0.0
  0
LINE
  5
125
102
{ACAD_REACTORS
330
1479
102
}
330
A
100
AcDbEntity
  8
LEVEL001
  6
Continuous
 62
     3
100
AcDbLine
 10
1585.4000000002
 20
1059.5
 30
0.0
 11
1563.8000000002
 21
1059.5
 31
0.0
  0
ARC
  5
126
102
{ACAD_REACTORS
330
1479
102
}
330
A
100
AcDbEntity
  8
LEVEL001
  6
Continuous
 62
     3
100
AcDbCircle
 10
1563.8000000002
 20
1066.7
 30
0.0
 40
7.2
100
AcDbArc
 50
90.0
 51
270.0
  0
LINE
  5
127
102
{ACAD_REACTORS
330
1479
102
}
330
A
100
AcDbEntity
  8
LEVEL001
  6
Continuous
 62
     3
100
AcDbLine
 10
1563.8000000002
 20
1073.9
 30
0.0
 11
1585.4000000002
 21
1073.9
 31
0.0
  0
LINE
  5
128
330
A
100
AcDbEntity
  8
LEVEL001
  6
Continuous
 62
     3
100
AcDbLine
 10
1585.4000000002
 20
1073.9
 30
0.0
 11
1585.4000000002
 21
1088.3
 31
0.0
  0
LINE
  5
129
330
A
100
AcDbEntity
  8
LEVEL001
  6
Continuous
 62
     3
100
AcDbLine
 10
1585.4000000002
 20
1088.3
 30
0.0
 11
1563.8000000002
 21
1088.3
 31
0.0
  0
ARC
  5
12A
102
{ACAD_REACTORS
330
1479
102
}
330
A
100
AcDbEntity
  8
LEVEL001
  6
Continuous
 62
     3
100
AcDbCircle
 10
1563.8000000002
 20
1066.7
 30
0.0
 40
21.6
100
AcDbArc
 50
90.0
 51
270.0
  0
TEXT
  5
12B
330
A
100
AcDbEntity
  8
LEVEL001
 62
     3
100
AcDbText
 10
1347.8000000002
 20
1095.5
 30
0.0
 40
15.0
  1
ケージーパルテック株式会社
 41
0.8
100
AcDbText
  0
LWPOLYLINE
  5
12C
102
{ACAD_REACTORS
330
1479
102
}
330
A
100
AcDbEntity
  8
LEVEL001
  6
Continuous
 62
     3
100
AcDbPolyline
 90
        4
 70
     0
 43
0.0
 10
1333.4000000002
 20
1054.7
 10
1315.4000000002
 20
1083.5
 10
1333.4000000002
 20
1083.5
 10
1333.4000000002
 20
1054.7
  0
LINE
  5
132
330
A
100
AcDbEntity
  8
LEVEL001
  6
Continuous
 62
     3
100
AcDbLine
 10
1315.4000000002
 20
1083.5
 30
0.0
 11
1333.4000000002
 21
1054.7
 31
0.0
  0
LINE
  5
133
102
{ACAD_REACTORS
330
1479
102
}
330
A
100
AcDbEntity
  8
LEVEL001
  6
Continuous
 62
     3
100
AcDbLine
 10
1333.4000000002
 20
1054.7
 30
0.0
 11
1333.4000000002
 21
1083.5
 31
0.0
  0
LINE
  5
134
330
A
100
AcDbEntity
  8
LEVEL001
  6
Continuous
 62
     3
100
AcDbLine
 10
1333.4000000002
 20
1083.5
 30
0.0
 11
1315.4000000002
 21
1083.5
 31
0.0
  0
LWPOLYLINE
  5
135
330
A
100
AcDbEntity
  8
LEVEL001
  6
Continuous
 62
     3
100
AcDbPolyline
 90
        3
 70
     0
 43
0.0
 10
1276.2000000002
 20
1121.9
 10
1250.6000000002
 20
1083.5
 10
1276.2000000002
 20
1045.1
  0
LWPOLYLINE
  5
13A
330
A
100
AcDbEntity
  8
LEVEL001
  6
Continuous
 62
     3
100
AcDbPolyline
 90
        3
 70
     0
 43
0.0
 10
1297.8000000002
 20
1045.1
 10
1272.2000000002
 20
1083.5
 10
1297.8000000002
 20
1121.9
  0
LWPOLYLINE
  5
13F
330
A
100
AcDbEntity
  8
LEVEL001
  6
Continuous
 62
     3
100
AcDbPolyline
 90
        3
 70
     0
 43
0.0
 10
1308.6000000002
 20
1121.9
 10
1283.0000000002
 20
1083.5
 10
1308.6000000002
 20
1045.1
  0
LWPOLYLINE
  5
144
330
A
100
AcDbEntity
  8
LEVEL001
  6
Continuous
 62
     3
100
AcDbPolyline
 90
        3
 70
     0
 43
0.0
 10
1330.2000000002
 20
1045.1
 10
1304.6000000002
 20
1083.5
 10
1330.2000000002
 20
1121.9
  0
LWPOLYLINE
  5
149
102
{ACAD_REACTORS
330
1479
102
}
330
A
100
AcDbEntity
  8
LEVEL001
  6
Continuous
 62
     3
100
AcDbPolyline
 90
        3
 70
     0
 43
0.0
 10
1276.2000000002
 20
1045.1
 10
1250.6000000002
 20
1083.5
 10
1276.2000000002
 20
1121.9
  0
LINE
  5
14E
102
{ACAD_REACTORS
330
1479
102
}
330
A
100
AcDbEntity
  8
LEVEL001
  6
Continuous
 62
     3
100
AcDbLine
 10
1276.2000000002
 20
1121.9
 30
0.0
 11
1297.8000000002
 21
1121.9
 31
0.0
  0
LWPOLYLINE
  5
14F
102
{ACAD_REACTORS
330
1479
102
}
330
A
100
AcDbEntity
  8
LEVEL001
  6
Continuous
 62
     3
100
AcDbPolyline
 90
        3
 70
     0
 43
0.0
 10
1297.8000000002
 20
1121.9
 10
1272.2000000002
 20
1083.5
 10
1297.8000000002
 20
1045.1
  0
LINE
  5
154
102
{ACAD_REACTORS
330
1479
102
}
330
A
100
AcDbEntity
  8
LEVEL001
  6
Continuous
 62
     3
100
AcDbLine
 10
1297.8000000002
 20
1045.1
 30
0.0
 11
1276.2000000002
 21
1045.1
 31
0.0
  0
LWPOLYLINE
  5
155
102
{ACAD_REACTORS
330
1479
102
}
330
A
100
AcDbEntity
  8
LEVEL001
  6
Continuous
 62
     3
100
AcDbPolyline
 90
        3
 70
     0
 43
0.0
 10
1308.6000000002
 20
1045.1
 10
1283.0000000002
 20
1083.5
 10
1308.6000000002
 20
1121.9
  0
LINE
  5
15A
102
{ACAD_REACTORS
330
1479
102
}
330
A
100
AcDbEntity
  8
LEVEL001
  6
Continuous
 62
     3
100
AcDbLine
 10
1308.6000000002
 20
1121.9
 30
0.0
 11
1330.2000000002
 21
1121.9
 31
0.0
  0
LWPOLYLINE
  5
15B
102
{ACAD_REACTORS
330
1479
102
}
330
A
100
AcDbEntity
  8
LEVEL001
  6
Continuous
 62
     3
100
AcDbPolyline
 90
        3
 70
     0
 43
0.0
 10
1330.2000000002
 20
1121.9
 10
1304.6000000002
 20
1083.5
 10
1330.2000000002
 20
1045.1
  0
LINE
  5
160
102
{ACAD_REACTORS
330
1479
102
}
330
A
100
AcDbEntity
  8
LEVEL001
  6
Continuous
 62
     3
100
AcDbLine
 10
1330.2000000002
 20
1045.1
 30
0.0
 11
1308.6000000002
 21
1045.1
 31
0.0
  0
LWPOLYLINE
  5
161
330
A
100
AcDbEntity
  8
LEVEL001
  6
Continuous
 62
     3
370
    40
100
AcDbPolyline
 90
        5
 70
     0
 43
0.0
 10
62.00000000010899
 20
48.000000000009
 10
1618.0000000001
 20
48.000000000009
 10
1618.0000000001
 20
1140.0
 10
62.00000000010899
 20
1140.0
 10
62.00000000010899
 20
48.000000000009
  0
LINE
  5
168
330
A
100
AcDbEntity
  8
LEVEL001
  6
Continuous
 62
     3
100
AcDbLine
 10
1218.0000000001
 20
1027.0
 30
0.0
 11
1618.0000000001
 21
1027.0
 31
0.0
  0
LINE
  5
169
330
A
100
AcDbEntity
  8
LEVEL001
  6
Continuous
 62
     3
100
AcDbLine
 10
1218.0000000001
 20
947.00000000001
 30
0.0
 11
1618.0000000001
 21
947.00000000001
 31
0.0
  0
LINE
  5
16A
330
A
100
AcDbEntity
  8
LEVEL001
  6
Continuous
 62
     3
100
AcDbLine
 10
1218.0000000001
 20
867.0000000000099
 30
0.0
 11
1618.0000000001
 21
867.0000000000099
 31
0.0
  0
LINE
  5
16B
330
A
100
AcDbEntity
  8
LEVEL001
  6
Continuous
 62
     3
100
AcDbLine
 10
1218.0000000001
 20
288.00000000001
 30
0.0
 11
1618.0000000001
 21
288.00000000001
 31
0.0
  0
LINE
  5
16C
330
A
100
AcDbEntity
  8
LEVEL001
  6
Continuous
 62
     3
100
AcDbLine
 10
1218.0000000001
 20
208.00000000001
 30
0.0
 11
1618.0000000001
 21
208.00000000001
 31
0.0
  0
LINE
  5
16D
330
A
100
AcDbEntity
  8
LEVEL001
  6
Continuous
 62
     3
100
AcDbLine
 10
1218.0000000001
 20
128.00000000001
 30
0.0
 11
1618.0000000001
 21
128.00000000001
 31
0.0
  0
LINE
  5
16E
330
A
100
AcDbEntity
  8
LEVEL001
  6
Continuous
 62
     3
100
AcDbLine
 10
1418.0000000001
 20
208.00000000001
 30
0.0
 11
1418.0000000001
 21
48.000000000009
 31
0.0
  0
LINE
  5
16F
330
A
100
AcDbEntity
  8
LEVEL001
  6
Continuous
 62
     3
370
    40
100
AcDbLine
 10
62.00000000010899
 20
594.0000000000099
 30
0.0
 11
1218.0000000001
 21
594.0000000000099
 31
0.0
  0
LINE
  5
170
330
A
100
AcDbEntity
  8
LEVEL001
  6
Continuous
 62
     3
370
    40
100
AcDbLine
 10
62.00000000010899
 20
554.00000000001
 30
0.0
 11
1218.0000000001
 21
554.00000000001
 31
0.0
  0
LINE
  5
171
330
A
100
AcDbEntity
  8
LEVEL001
  6
Continuous
 62
     3
370
    40
100
AcDbLine
 10
640.00000000011
 20
1140.0
 30
0.0
 11
640.00000000011
 21
48.000000000009
 31
0.0
  0
LINE
  5
172
330
A
100
AcDbEntity
  8
LEVEL001
  6
Continuous
 62
     3
370
    40
100
AcDbLine
 10
1218.0000000001
 20
1140.0
 30
0.0
 11
1218.0000000001
 21
48.000000000009
 31
0.0
  0
LINE
  5
173
330
A
100
AcDbEntity
  8
LEVEL001
  6
Continuous
 62
     3
370
    40
100
AcDbLine
 10
62.00000000010899
 20
1100.0
 30
0.0
 11
1218.0000000001
 21
1100.0
 31
0.0
  0
LINE
  5
174
330
A
100
AcDbEntity
  8
LEVEL001
  6
Continuous
 62
     3
100
AcDbLine
 10
1418.0000000001
 20
181.33333333334
 30
0.0
 11
1618.0000000001
 21
181.33333333334
 31
0.0
  0
LINE
  5
175
330
A
100
AcDbEntity
  8
LEVEL001
  6
Continuous
 62
     3
100
AcDbLine
 10
1418.0000000001
 20
154.66666666668
 30
0.0
 11
1618.0000000001
 21
154.66666666668
 31
0.0
  0
TEXT
  5
176
330
A
100
AcDbEntity
  8
LEVEL001
 62
     8
100
AcDbText
 10
1425.306666666767
 20
189.06666666668
 30
0.0
 40
11.2
  1
作成日付：
 41
0.8
 72
     1
 11
1449.2000000001
 21
194.66666666668
 31
0.0
100
AcDbText
 73
     2
  0
TEXT
  5
177
330
A
100
AcDbEntity
  8
LEVEL001
 62
     8
100
AcDbText
 10
1425.306666666767
 20
162.40000000001
 30
0.0
 40
11.2
  1
変更日付：
 41
0.8
 72
     1
 11
1449.2000000001
 21
168.00000000001
 31
0.0
100
AcDbText
 73
     2
  0
TEXT
  5
179
330
A
100
AcDbEntity
  8
LEVEL001
 62
     8
100
AcDbText
 10
1487.4203382433
 20
135.33333333334
 30
0.0
 40
12.0
  1
平成３０年　７月２１日
 41
0.8
 72
     1
 11
1548.8603382433
 21
141.33333333334
 31
0.0
100
AcDbText
 73
     2
  0
TEXT
  5
17A
330
A
100
AcDbEntity
  8
LEVEL001
 62
     8
100
AcDbText
 10
1487.4203382433
 20
188.66666666668
 30
0.0
 40
12.0
  1
平成２０年　４月２４日
 41
0.8
 72
     1
 11
1548.8603382433
 21
194.66666666668
 31
0.0
100
AcDbText
 73
     2
  0
TEXT
  5
17B
330
A
100
AcDbEntity
  8
LEVEL001
 62
     8
100
AcDbText
 10
1492.4000000001
 20
65.50000000000899
 30
0.0
 40
15.0
  1
ＧＫ－１
 41
0.8
 72
     1
 11
1518.0000000001
 21
73.00000000000899
 31
0.0
100
AcDbText
 73
     2
  0
LINE
  5
17C
330
A
100
AcDbEntity
  8
LEVEL001
  6
DASHDOT
 62
     6
370
    15
100
AcDbLine
 10
138.61396872643
 20
790.2662973484699
 30
0.0
 11
183.91752507927
 21
790.2662973484699
 31
0.0
  0
LINE
  5
17D
330
A
100
AcDbEntity
  8
LEVEL001
  6
DASHDOT
 62
     6
370
    15
100
AcDbLine
 10
716.6139687264299
 20
790.2662973484699
 30
0.0
 11
761.91752507927
 21
790.2662973484699
 31
0.0
  0
LINE
  5
17E
330
A
100
AcDbEntity
  8
LEVEL001
  6
DASHDOT
 62
     6
370
    15
100
AcDbLine
 10
138.61396872643
 20
275.95840532189
 30
0.0
 11
183.91752507926
 21
275.95840532189
 31
0.0
  0
LINE
  5
17F
330
A
100
AcDbEntity
  8
LEVEL001
  6
HIDDEN
 62
     2
370
    15
100
AcDbLine
 10
532.0752864158199
 20
503.6640583433499
 30
0.0
 11
532.0752864158199
 21
485.66405834335
 31
0.0
  0
LINE
  5
180
330
A
100
AcDbEntity
  8
LEVEL001
  6
HIDDEN
 62
     2
370
    15
100
AcDbLine
 10
514.07528641582
 20
485.66405834335
 30
0.0
 11
532.0752864158199
 21
485.66405834335
 31
0.0
  0
LWPOLYLINE
  5
19F
330
A
100
AcDbEntity
  8
LEVEL001
  6
HIDDEN
 62
     2
370
    15
100
AcDbPolyline
 90
        3
 70
     0
 43
0.0
 10
501.22859848369
 20
503.6640583433499
 10
501.22859848369
 20
493.16405834335
 10
261.45424598469
 20
493.16405834335
  0
LINE
  5
1A4
330
A
100
AcDbEntity
  8
LEVEL001
  6
HIDDEN
 62
     2
370
    15
100
AcDbLine
 10
514.07528641582
 20
177.59778154021
 30
0.0
 11
532.0752864158199
 21
177.59778154021
 31
0.0
  0
LINE
  5
1A5
330
A
100
AcDbEntity
  8
LEVEL001
  6
HIDDEN
 62
     2
370
    15
100
AcDbLine
 10
532.0752864158199
 20
177.59778154021
 30
0.0
 11
532.0752864158199
 21
377.59778154021
 31
0.0
  0
LINE
  5
1A6
330
A
100
AcDbEntity
  8
LEVEL001
  6
HIDDEN
 62
     2
370
    15
100
AcDbLine
 10
532.0752864158199
 20
377.59778154021
 30
0.0
 11
514.07528641582
 21
377.59778154021
 31
0.0
  0
LINE
  5
1B2
330
A
100
AcDbEntity
  8
LEVEL001
  6
HIDDEN
 62
     2
370
    15
100
AcDbLine
 10
261.45424598469
 20
305.09778154021
 30
0.0
 11
501.22859848369
 21
305.09778154021
 31
0.0
  0
LINE
  5
1B3
330
A
100
AcDbEntity
  8
LEVEL001
  6
HIDDEN
 62
     2
370
    15
100
AcDbLine
 10
261.45424598469
 20
303.59778154021
 30
0.0
 11
501.22859848369
 21
303.59778154021
 31
0.0
  0
LINE
  5
1B4
330
A
100
AcDbEntity
  8
LEVEL001
  6
HIDDEN
 62
     2
370
    15
100
AcDbLine
 10
501.22859848369
 20
251.59778154021
 30
0.0
 11
261.45424598469
 21
251.59778154021
 31
0.0
  0
LINE
  5
1B5
330
A
100
AcDbEntity
  8
LEVEL001
  6
HIDDEN
 62
     2
370
    15
100
AcDbLine
 10
501.22859848369
 20
250.09778154021
 30
0.0
 11
261.45424598469
 21
250.09778154021
 31
0.0
  0
LINE
  5
1B6
330
A
100
AcDbEntity
  8
LEVEL001
  6
HIDDEN
 62
     2
370
    15
100
AcDbLine
 10
501.22859848369
 20
305.09778154021
 30
0.0
 11
501.22859848369
 21
250.09778154021
 31
0.0
  0
LINE
  5
1B7
330
A
100
AcDbEntity
  8
LEVEL001
  6
HIDDEN
 62
     2
370
    15
100
AcDbLine
 10
501.22859848369
 20
501.66405834335
 30
0.0
 11
261.45424598469
 21
501.66405834335
 31
0.0
  0
LINE
  5
1B8
330
A
100
AcDbEntity
  8
LEVEL001
  6
DASHDOT
 62
     8
370
    15
100
AcDbLine
 10
484.07528641582
 20
285.09222804053
 30
0.0
 11
484.07528641582
 21
284.0977815403899
 31
0.0
  0
LINE
  5
1B9
330
A
100
AcDbEntity
  8
LEVEL001
  6
DASHDOT
 62
     8
370
    15
100
AcDbLine
 10
484.07528641582
 20
271.09778154003
 30
0.0
 11
484.07528641582
 21
268.5977815402
 31
0.0
  0
LINE
  5
1BA
330
A
100
AcDbEntity
  8
LEVEL001
  6
DASHDOT
 62
     6
370
    15
100
AcDbLine
 10
493.07528641583
 20
277.59778154021
 30
0.0
 11
474.63331082318
 21
277.59778154021
 31
0.0
  0
LINE
  5
1BB
330
A
100
AcDbEntity
  8
LEVEL001
  6
DASHDOT
 62
     6
370
    15
100
AcDbLine
 10
484.07528641582
 20
286.59778154022
 30
0.0
 11
484.07528641582
 21
270.28083905282
 31
0.0
  0
LINE
  5
1BC
330
A
100
AcDbEntity
  8
LEVEL001
  6
DASHDOT
 62
     6
370
    15
100
AcDbLine
 10
484.07528641582
 20
407.9561002926399
 30
0.0
 11
484.07528641582
 21
521.26374619923
 31
0.0
  0
LINE
  5
1BD
330
A
100
AcDbEntity
  8
LEVEL001
  6
DASHDOT
 62
     6
100
AcDbLine
 10
471.22953633047
 20
277.59778154021
 30
0.0
 11
475.07528641581
 21
277.59778154021
 31
0.0
  0
LINE
  5
1BE
330
A
100
AcDbEntity
  8
LEVEL001
  6
DASHDOT
 62
     6
100
AcDbLine
 10
484.07528641582
 20
290.44353162556
 30
0.0
 11
484.07528641582
 21
286.59778154022
 31
0.0
  0
LINE
  5
1BF
330
A
100
AcDbEntity
  8
LEVEL001
  6
DASHDOT
 62
     6
100
AcDbLine
 10
493.07528641583
 20
277.59778154021
 30
0.0
 11
496.92103650117
 21
277.59778154021
 31
0.0
  0
LINE
  5
1C0
330
A
100
AcDbEntity
  8
LEVEL001
  6
DASHDOT
 62
     6
100
AcDbLine
 10
484.07528641582
 20
268.5977815402
 30
0.0
 11
484.07528641582
 21
264.75203145487
 31
0.0
  0
LINE
  5
1C1
330
A
100
AcDbEntity
  8
LEVEL001
  6
Continuous
 62
     7
100
AcDbLine
 10
527.90180032744
 20
930.2662973484698
 30
0.0
 11
566.4727620357799
 21
930.2662973484698
 31
0.0
  0
LINE
  5
1C2
330
A
100
AcDbEntity
  8
LEVEL001
  6
Continuous
 62
     3
370
    30
100
AcDbLine
 10
527.90180032744
 20
930.2662973484698
 30
0.0
 11
238.62514613437
 21
930.2662973484698
 31
0.0
  0
LINE
  5
1C3
330
A
100
AcDbEntity
  8
LEVEL001
  6
HIDDEN
 62
     2
370
    15
100
AcDbLine
 10
527.90180032744
 20
740.2662973484699
 30
0.0
 11
545.90180032744
 21
740.2662973484699
 31
0.0
  0
LINE
  5
1C4
330
A
100
AcDbEntity
  8
LEVEL001
  6
HIDDEN
 62
     2
370
    15
100
AcDbLine
 10
545.90180032744
 20
740.2662973484699
 30
0.0
 11
545.90180032744
 21
840.26629734847
 31
0.0
  0
LINE
  5
1C5
330
A
100
AcDbEntity
  8
LEVEL001
  6
HIDDEN
 62
     2
370
    15
100
AcDbLine
 10
545.90180032744
 20
840.26629734847
 30
0.0
 11
527.90180032744
 21
840.26629734847
 31
0.0
  0
LINE
  5
1D2
330
A
100
AcDbEntity
  8
LEVEL001
  6
HIDDEN
 62
     2
370
    15
100
AcDbLine
 10
515.0551123953099
 20
817.7662973484698
 30
0.0
 11
515.0551123953099
 21
762.7662973484699
 31
0.0
  0
LINE
  5
1D3
330
A
100
AcDbEntity
  8
LEVEL001
  6
HIDDEN
 62
     2
370
    15
100
AcDbLine
 10
545.90180032744
 20
930.2662973484698
 30
0.0
 11
545.90180032744
 21
912.2662973484699
 31
0.0
  0
LINE
  5
1D4
330
A
100
AcDbEntity
  8
LEVEL001
  6
HIDDEN
 62
     2
370
    15
100
AcDbLine
 10
527.90180032744
 20
912.2662973484699
 30
0.0
 11
545.90180032744
 21
912.2662973484699
 31
0.0
  0
LINE
  5
1E6
330
A
100
AcDbEntity
  8
LEVEL001
  6
HIDDEN
 62
     2
370
    15
100
AcDbLine
 10
515.0551123953099
 20
928.2662973484699
 30
0.0
 11
276.16964880956
 21
928.2662973484699
 31
0.0
  0
LWPOLYLINE
  5
1E7
330
A
100
AcDbEntity
  8
LEVEL001
  6
HIDDEN
 62
     2
370
    15
100
AcDbPolyline
 90
        3
 70
     0
 43
0.0
 10
515.0551123953099
 20
930.2662973484698
 10
515.0551123953099
 20
919.76629734847
 10
280.61412367032
 20
919.76629734847
  0
LINE
  5
1EC
330
A
100
AcDbEntity
  8
LEVEL001
  6
HIDDEN
 62
     2
370
    15
100
AcDbLine
 10
280.61412367032
 20
816.26629734847
 30
0.0
 11
515.0551123953099
 21
816.26629734847
 31
0.0
  0
LINE
  5
1ED
330
A
100
AcDbEntity
  8
LEVEL001
  6
HIDDEN
 62
     2
370
    15
100
AcDbLine
 10
280.61412367032
 20
817.7662973484698
 30
0.0
 11
515.0551123953099
 21
817.7662973484698
 31
0.0
  0
LINE
  5
1EE
330
A
100
AcDbEntity
  8
LEVEL001
  6
HIDDEN
 62
     2
370
    15
100
AcDbLine
 10
515.0551123953099
 20
764.2662973484699
 30
0.0
 11
280.61412367032
 21
764.2662973484699
 31
0.0
  0
LINE
  5
1EF
330
A
100
AcDbEntity
  8
LEVEL001
  6
HIDDEN
 62
     2
370
    15
100
AcDbLine
 10
515.0551123953099
 20
762.7662973484699
 30
0.0
 11
285.10722886128
 21
762.7662973484699
 31
0.0
  0
LINE
  5
1F2
330
A
100
AcDbEntity
  8
LEVEL001
  6
DASHDOT
 62
     6
370
    15
100
AcDbLine
 10
497.90180032744
 20
870.6246161009
 30
0.0
 11
497.90180032744
 21
938.3720363444
 31
0.0
  0
LINE
  5
1F3
330
A
100
AcDbEntity
  8
LEVEL001
  6
DASHDOT
 62
     6
370
    15
100
AcDbLine
 10
485.05605024209
 20
790.2662973484699
 30
0.0
 11
510.74755041279
 21
790.2662973484699
 31
0.0
  0
LINE
  5
1F4
330
A
100
AcDbEntity
  8
LEVEL001
  6
DASHDOT
 62
     6
370
    15
100
AcDbLine
 10
497.90180032744
 20
803.11204743382
 30
0.0
 11
497.90180032744
 21
777.4205472631299
 31
0.0
  0
LINE
  5
1F5
330
A
100
AcDbEntity
  8
LEVEL001
  6
HIDDEN
 62
     2
370
    15
100
AcDbLine
 10
1092.0752864158
 20
715.2662973484699
 30
0.0
 11
1110.0752864158
 21
715.2662973484699
 31
0.0
  0
LINE
  5
1F6
330
A
100
AcDbEntity
  8
LEVEL001
  6
HIDDEN
 62
     2
370
    15
100
AcDbLine
 10
1110.0752864158
 20
715.2662973484699
 30
0.0
 11
1110.0752864158
 21
865.26629734847
 31
0.0
  0
LINE
  5
1F7
330
A
100
AcDbEntity
  8
LEVEL001
  6
HIDDEN
 62
     2
370
    15
100
AcDbLine
 10
1110.0752864158
 20
865.26629734847
 30
0.0
 11
1092.0752864158
 21
865.26629734847
 31
0.0
  0
LINE
  5
204
330
A
100
AcDbEntity
  8
LEVEL001
  6
HIDDEN
 62
     2
370
    15
100
AcDbLine
 10
1079.2285984837
 20
817.7662973484698
 30
0.0
 11
1079.2285984837
 21
762.7662973484699
 31
0.0
  0
LINE
  5
205
330
A
100
AcDbEntity
  8
LEVEL001
  6
HIDDEN
 62
     2
370
    15
100
AcDbLine
 10
1110.0752864158
 20
955.2662973484698
 30
0.0
 11
1110.0752864158
 21
937.2662973484699
 31
0.0
  0
LINE
  5
206
330
A
100
AcDbEntity
  8
LEVEL001
  6
HIDDEN
 62
     2
370
    15
100
AcDbLine
 10
1092.0752864158
 20
937.2662973484699
 30
0.0
 11
1110.0752864158
 21
937.2662973484699
 31
0.0
  0
LINE
  5
225
330
A
100
AcDbEntity
  8
LEVEL001
  6
HIDDEN
 62
     2
370
    15
100
AcDbLine
 10
1079.2285984837
 20
953.2662973484699
 30
0.0
 11
849.2398210577999
 21
953.2662973484699
 31
0.0
  0
LWPOLYLINE
  5
226
330
A
100
AcDbEntity
  8
LEVEL001
  6
HIDDEN
 62
     2
370
    15
100
AcDbPolyline
 90
        3
 70
     0
 43
0.0
 10
1079.2285984837
 20
955.2662973484698
 10
1079.2285984837
 20
944.76629734847
 10
849.2398210577999
 20
944.76629734847
  0
LINE
  5
22B
330
A
100
AcDbEntity
  8
LEVEL001
  6
HIDDEN
 62
     2
370
    15
100
AcDbLine
 10
849.2398210577999
 20
816.26629734847
 30
0.0
 11
1079.2285984837
 21
816.26629734847
 31
0.0
  0
LINE
  5
22C
330
A
100
AcDbEntity
  8
LEVEL001
  6
HIDDEN
 62
     2
370
    15
100
AcDbLine
 10
849.2398210577999
 20
817.7662973484698
 30
0.0
 11
1079.2285984837
 21
817.7662973484698
 31
0.0
  0
LINE
  5
22D
330
A
100
AcDbEntity
  8
LEVEL001
  6
HIDDEN
 62
     2
370
    15
100
AcDbLine
 10
1079.2285984837
 20
762.7662973484699
 30
0.0
 11
849.2398210577999
 21
762.7662973484699
 31
0.0
  0
LINE
  5
22E
330
A
100
AcDbEntity
  8
LEVEL001
  6
HIDDEN
 62
     2
370
    15
100
AcDbLine
 10
1079.2285984837
 20
764.2662973484699
 30
0.0
 11
849.2398210577999
 21
764.2662973484699
 31
0.0
  0
LINE
  5
231
330
A
100
AcDbEntity
  8
LEVEL001
  6
DASHDOT
 62
     6
370
    15
100
AcDbLine
 10
1062.0752864158
 20
899.6246161008999
 30
0.0
 11
1062.0752864158
 21
963.3720363444
 31
0.0
  0
LINE
  5
232
330
A
100
AcDbEntity
  8
LEVEL001
  6
DASHDOT
 62
     6
370
    15
100
AcDbLine
 10
1049.2295363305
 20
790.2662973484699
 30
0.0
 11
1074.9210365012
 21
790.2662973484699
 31
0.0
  0
LINE
  5
233
330
A
100
AcDbEntity
  8
LEVEL001
  6
DASHDOT
 62
     6
370
    15
100
AcDbLine
 10
1062.0752864158
 20
803.11204743382
 30
0.0
 11
1062.0752864158
 21
777.4205472631299
 31
0.0
  0
LINE
  5
234
330
A
100
AcDbEntity
  8
LEVEL001
  6
Continuous
 62
     1
100
AcDbLine
 10
162.00000000011
 20
355.65840532189
 30
0.0
 11
168.30000000011
 21
355.65840532189
 31
0.0
  0
LINE
  5
235
330
A
100
AcDbEntity
  8
LEVEL001
  6
Continuous
 62
     1
100
AcDbLine
 10
171.30000000011
 20
358.65840532189
 30
0.0
 11
171.30000000011
 21
359.65840532189
 31
0.0
  0
ARC
  5
236
330
A
100
AcDbEntity
  8
LEVEL001
  6
Continuous
 62
     1
100
AcDbCircle
 10
168.30000000011
 20
358.65840532189
 30
0.0
 40
3.0
100
AcDbArc
 50
270.0
 51
0.0
  0
LINE
  5
237
330
A
100
AcDbEntity
  8
LEVEL001
  6
Continuous
 62
     1
100
AcDbLine
 10
165.30000000011
 20
361.95840532189
 30
0.0
 11
173.30000000011
 21
361.95840532189
 31
0.0
  0
LINE
  5
238
330
A
100
AcDbEntity
  8
LEVEL001
  6
Continuous
 62
     1
100
AcDbLine
 10
175.30000000011
 20
359.95840532189
 30
0.0
 11
175.30000000011
 21
275.95840532189
 31
0.0
  0
ARC
  5
239
330
A
100
AcDbEntity
  8
LEVEL001
  6
Continuous
 62
     1
100
AcDbCircle
 10
173.30000000011
 20
359.95840532189
 30
0.0
 40
2.0
100
AcDbArc
 50
0.0
 51
90.00000000005199
  0
LINE
  5
23A
330
A
100
AcDbEntity
  8
LEVEL001
  6
Continuous
 62
     1
100
AcDbLine
 10
165.30000000011
 20
361.95840532189
 30
0.0
 11
165.30000000011
 21
359.65840532189
 31
0.0
  0
LINE
  5
23B
330
A
100
AcDbEntity
  8
LEVEL001
  6
Continuous
 62
     1
100
AcDbLine
 10
165.30000000011
 20
359.65840532189
 30
0.0
 11
172.00000000011
 21
359.65840532189
 31
0.0
  0
ARC
  5
23C
330
A
100
AcDbEntity
  8
LEVEL001
  6
Continuous
 62
     1
100
AcDbCircle
 10
172.00000000011
 20
358.65840532189
 30
0.0
 40
1.0
100
AcDbArc
 50
0.0
 51
89.99999999981801
  0
LINE
  5
23D
330
A
100
AcDbEntity
  8
LEVEL001
  6
Continuous
 62
     1
100
AcDbLine
 10
173.00000000011
 20
358.65840532189
 30
0.0
 11
173.00000000011
 21
301.95840532189
 31
0.0
  0
ARC
  5
23E
330
A
100
AcDbEntity
  8
LEVEL001
  6
Continuous
 62
     1
100
AcDbCircle
 10
177.00000000011
 20
372.95840532189
 30
0.0
 40
3.0
100
AcDbArc
 50
0.0
 51
90.000000000003
  0
LINE
  5
23F
330
A
100
AcDbEntity
  8
LEVEL001
  6
Continuous
 62
     1
100
AcDbLine
 10
180.00000000011
 20
178.95840532189
 30
0.0
 11
180.00000000011
 21
372.95840532189
 31
0.0
  0
LINE
  5
240
330
A
100
AcDbEntity
  8
LEVEL001
  6
Continuous
 62
     1
100
AcDbLine
 10
177.00000000011
 20
375.95840532189
 30
0.0
 11
162.00000000011
 21
375.95840532189
 31
0.0
  0
LINE
  5
241
330
A
100
AcDbEntity
  8
LEVEL001
  6
Continuous
 62
     1
100
AcDbLine
 10
173.00000000011
 20
299.95840532189
 30
0.0
 11
173.00000000011
 21
275.95840532189
 31
0.0
  0
LINE
  5
242
330
A
100
AcDbEntity
  8
LEVEL001
  6
Continuous
 62
     1
100
AcDbLine
 10
166.50000000011
 20
301.95840532189
 30
0.0
 11
168.50000000011
 21
302.45840532189
 31
0.0
  0
LINE
  5
243
330
A
100
AcDbEntity
  8
LEVEL001
  6
Continuous
 62
     1
100
AcDbLine
 10
168.50000000011
 20
302.45840532189
 30
0.0
 11
168.50000000011
 21
301.95840532189
 31
0.0
  0
LINE
  5
244
330
A
100
AcDbEntity
  8
LEVEL001
  6
Continuous
 62
     1
100
AcDbLine
 10
168.50000000011
 20
301.95840532189
 30
0.0
 11
170.50000000011
 21
302.45840532189
 31
0.0
  0
LINE
  5
245
330
A
100
AcDbEntity
  8
LEVEL001
  6
Continuous
 62
     1
100
AcDbLine
 10
170.50000000011
 20
302.45840532189
 30
0.0
 11
170.50000000011
 21
301.95840532189
 31
0.0
  0
LINE
  5
246
330
A
100
AcDbEntity
  8
LEVEL001
  6
Continuous
 62
     1
100
AcDbLine
 10
170.50000000011
 20
301.95840532189
 30
0.0
 11
173.00000000011
 21
301.95840532189
 31
0.0
  0
LINE
  5
247
330
A
100
AcDbEntity
  8
LEVEL001
  6
Continuous
 62
     1
100
AcDbLine
 10
173.00000000011
 20
299.95840532189
 30
0.0
 11
165.50000000011
 21
299.95840532189
 31
0.0
  0
ARC
  5
248
330
A
100
AcDbEntity
  8
LEVEL001
  6
Continuous
 62
     1
100
AcDbCircle
 10
165.50000000011
 20
300.95840532189
 30
0.0
 40
1.0
100
AcDbArc
 50
180.00000000003
 51
269.99999999984
  0
LINE
  5
249
330
A
100
AcDbEntity
  8
LEVEL001
  6
Continuous
 62
     1
100
AcDbLine
 10
165.50000000011
 20
301.95840532189
 30
0.0
 11
166.50000000011
 21
301.95840532189
 31
0.0
  0
ARC
  5
24A
330
A
100
AcDbEntity
  8
LEVEL001
  6
Continuous
 62
     1
100
AcDbCircle
 10
165.50000000011
 20
300.95840532189
 30
0.0
 40
1.0
100
AcDbArc
 50
90.0
 51
179.99999999997
  0
LINE
  5
24B
330
A
100
AcDbEntity
  8
LEVEL001
  6
Continuous
 62
     1
100
AcDbLine
 10
172.00000000011
 20
303.45840532189
 30
0.0
 11
162.00000000011
 21
303.45840532189
 31
0.0
  0
ARC
  5
24C
330
A
100
AcDbEntity
  8
LEVEL001
  6
Continuous
 62
     1
100
AcDbCircle
 10
172.00000000012
 20
302.95840532189
 30
0.0
 40
0.5
100
AcDbArc
 50
0.0
 51
90.00000000088601
  0
LINE
  5
24D
330
A
100
AcDbEntity
  8
LEVEL001
  6
Continuous
 62
     1
100
AcDbLine
 10
170.50000000011
 20
301.95840532189
 30
0.0
 11
172.15108473974
 21
302.48177821245
 31
0.0
  0
ARC
  5
24E
330
A
100
AcDbEntity
  8
LEVEL001
  6
Continuous
 62
     1
100
AcDbCircle
 10
172.00000000011
 20
302.95840532189
 30
0.0
 40
0.5
100
AcDbArc
 50
287.58795377357
 51
0.0
  0
LINE
  5
24F
330
A
100
AcDbEntity
  8
LEVEL001
  6
Continuous
 62
     1
100
AcDbLine
 10
164.00000000011
 20
301.95840532189
 30
0.0
 11
164.00000000011
 21
288.9584053219
 31
0.0
  0
LINE
  5
250
330
A
100
AcDbEntity
  8
LEVEL001
  6
Continuous
 62
     1
100
AcDbLine
 10
170.50000000011
 20
301.95840532189
 30
0.0
 11
170.50000000011
 21
302.45840532189
 31
0.0
  0
LINE
  5
251
330
A
100
AcDbEntity
  8
LEVEL001
  6
Continuous
 62
     1
100
AcDbLine
 10
170.50000000011
 20
302.45840532189
 30
0.0
 11
168.50000000011
 21
301.95840532189
 31
0.0
  0
LINE
  5
252
330
A
100
AcDbEntity
  8
LEVEL001
  6
Continuous
 62
     1
100
AcDbLine
 10
168.50000000011
 20
301.95840532189
 30
0.0
 11
168.50000000011
 21
302.45840532189
 31
0.0
  0
LINE
  5
253
330
A
100
AcDbEntity
  8
LEVEL001
  6
Continuous
 62
     1
100
AcDbLine
 10
168.50000000011
 20
302.45840532189
 30
0.0
 11
166.50000000011
 21
301.95840532189
 31
0.0
  0
LINE
  5
254
330
A
100
AcDbEntity
  8
LEVEL001
  6
Continuous
 62
     1
100
AcDbLine
 10
166.50000000011
 20
301.95840532189
 30
0.0
 11
164.00000000011
 21
301.95840532189
 31
0.0
  0
LINE
  5
255
330
A
100
AcDbEntity
  8
LEVEL001
  6
Continuous
 62
     1
100
AcDbLine
 10
163.50000000003
 20
275.95840532193
 30
0.0
 11
164.00000000011
 21
275.45840532185
 31
0.0
  0
LINE
  5
256
330
A
100
AcDbEntity
  8
LEVEL001
  6
Continuous
 62
     1
100
AcDbLine
 10
164.00000000011
 20
275.45840532185
 30
0.0
 11
164.00000000011
 21
263.95840532186
 31
0.0
  0
LINE
  5
257
330
A
100
AcDbEntity
  8
LEVEL001
  6
Continuous
 62
     1
100
AcDbLine
 10
164.00000000011
 20
276.45840532201
 30
0.0
 11
163.50000000003
 21
275.95840532193
 31
0.0
  0
LINE
  5
258
330
A
100
AcDbEntity
  8
LEVEL001
  6
Continuous
 62
     1
100
AcDbLine
 10
164.00000000011
 20
288.9584053219
 30
0.0
 11
164.00000000011
 21
276.45840532201
 31
0.0
  0
LINE
  5
259
330
A
100
AcDbEntity
  8
LEVEL001
  6
Continuous
 62
     1
100
AcDbLine
 10
173.00000000011
 20
251.95840532189
 30
0.0
 11
173.00000000011
 21
275.95840532189
 31
0.0
  0
LINE
  5
25A
330
A
100
AcDbEntity
  8
LEVEL001
  6
Continuous
 62
     1
100
AcDbLine
 10
166.50000000011
 20
249.95840532189
 30
0.0
 11
168.50000000011
 21
249.45840532189
 31
0.0
  0
LINE
  5
25B
330
A
100
AcDbEntity
  8
LEVEL001
  6
Continuous
 62
     1
100
AcDbLine
 10
168.50000000011
 20
249.45840532189
 30
0.0
 11
168.50000000011
 21
249.95840532189
 31
0.0
  0
LINE
  5
25C
330
A
100
AcDbEntity
  8
LEVEL001
  6
Continuous
 62
     1
100
AcDbLine
 10
168.50000000011
 20
249.95840532189
 30
0.0
 11
170.50000000011
 21
249.45840532189
 31
0.0
  0
LINE
  5
25D
330
A
100
AcDbEntity
  8
LEVEL001
  6
Continuous
 62
     1
100
AcDbLine
 10
170.50000000011
 20
249.45840532189
 30
0.0
 11
170.50000000011
 21
249.95840532189
 31
0.0
  0
LINE
  5
25E
330
A
100
AcDbEntity
  8
LEVEL001
  6
Continuous
 62
     1
100
AcDbLine
 10
170.50000000011
 20
249.95840532189
 30
0.0
 11
173.00000000011
 21
249.95840532189
 31
0.0
  0
LINE
  5
25F
330
A
100
AcDbEntity
  8
LEVEL001
  6
Continuous
 62
     1
100
AcDbLine
 10
173.00000000011
 20
251.95840532189
 30
0.0
 11
165.50000000011
 21
251.95840532189
 31
0.0
  0
ARC
  5
260
330
A
100
AcDbEntity
  8
LEVEL001
  6
Continuous
 62
     1
100
AcDbCircle
 10
165.50000000011
 20
250.95840532189
 30
0.0
 40
1.0
100
AcDbArc
 50
90.0
 51
180.00000000003
  0
LINE
  5
261
330
A
100
AcDbEntity
  8
LEVEL001
  6
Continuous
 62
     1
100
AcDbLine
 10
165.50000000011
 20
249.95840532189
 30
0.0
 11
166.50000000011
 21
249.95840532189
 31
0.0
  0
ARC
  5
262
330
A
100
AcDbEntity
  8
LEVEL001
  6
Continuous
 62
     1
100
AcDbCircle
 10
165.50000000011
 20
250.95840532189
 30
0.0
 40
1.0
100
AcDbArc
 50
179.99999999997
 51
270.00000000001
  0
ARC
  5
263
330
A
100
AcDbEntity
  8
LEVEL001
  6
Continuous
 62
     1
100
AcDbCircle
 10
172.00000000011
 20
248.95840532188
 30
0.0
 40
0.5
100
AcDbArc
 50
269.99999999995
 51
0.0
  0
LINE
  5
264
330
A
100
AcDbEntity
  8
LEVEL001
  6
Continuous
 62
     1
100
AcDbLine
 10
172.00000000011
 20
248.45840532189
 30
0.0
 11
162.00000000011
 21
248.45840532189
 31
0.0
  0
LINE
  5
265
330
A
100
AcDbEntity
  8
LEVEL001
  6
Continuous
 62
     1
100
AcDbLine
 10
170.50000000011
 20
249.95840532189
 30
0.0
 11
172.15108473974
 21
249.43503243133
 31
0.0
  0
ARC
  5
266
330
A
100
AcDbEntity
  8
LEVEL001
  6
Continuous
 62
     1
100
AcDbCircle
 10
172.00000000011
 20
248.95840532189
 30
0.0
 40
0.5
100
AcDbArc
 50
0.0
 51
72.412046226323
  0
LINE
  5
267
330
A
100
AcDbEntity
  8
LEVEL001
  6
Continuous
 62
     1
100
AcDbLine
 10
170.50000000011
 20
249.95840532189
 30
0.0
 11
170.50000000011
 21
249.45840532189
 31
0.0
  0
LINE
  5
268
330
A
100
AcDbEntity
  8
LEVEL001
  6
Continuous
 62
     1
100
AcDbLine
 10
170.50000000011
 20
249.45840532189
 30
0.0
 11
168.50000000011
 21
249.95840532189
 31
0.0
  0
LINE
  5
269
330
A
100
AcDbEntity
  8
LEVEL001
  6
Continuous
 62
     1
100
AcDbLine
 10
168.50000000011
 20
249.95840532189
 30
0.0
 11
168.50000000011
 21
249.45840532189
 31
0.0
  0
LINE
  5
26A
330
A
100
AcDbEntity
  8
LEVEL001
  6
Continuous
 62
     1
100
AcDbLine
 10
168.50000000011
 20
249.45840532189
 30
0.0
 11
166.50000000011
 21
249.95840532189
 31
0.0
  0
LINE
  5
26B
330
A
100
AcDbEntity
  8
LEVEL001
  6
Continuous
 62
     1
100
AcDbLine
 10
166.50000000011
 20
249.95840532189
 30
0.0
 11
164.00000000011
 21
249.95840532189
 31
0.0
  0
LINE
  5
26C
330
A
100
AcDbEntity
  8
LEVEL001
  6
Continuous
 62
     1
100
AcDbLine
 10
175.30000000011
 20
191.95840532189
 30
0.0
 11
175.30000000011
 21
275.95840532189
 31
0.0
  0
LINE
  5
26D
330
A
100
AcDbEntity
  8
LEVEL001
  6
Continuous
 62
     1
100
AcDbLine
 10
173.00000000011
 20
193.25840532189
 30
0.0
 11
173.00000000011
 21
249.95840532189
 31
0.0
  0
LINE
  5
26E
330
A
100
AcDbEntity
  8
LEVEL001
  6
Continuous
 62
     1
100
AcDbLine
 10
164.00000000011
 20
264.2462079165
 30
0.0
 11
164.00000000011
 21
249.95840532189
 31
0.0
  0
LINE
  5
26F
330
A
100
AcDbEntity
  8
LEVEL001
  6
Continuous
 62
     1
100
AcDbLine
 10
171.30000000011
 20
193.25840532189
 30
0.0
 11
171.30000000011
 21
192.25840532189
 31
0.0
  0
ARC
  5
270
330
A
100
AcDbEntity
  8
LEVEL001
  6
Continuous
 62
     1
100
AcDbCircle
 10
168.30000000011
 20
193.25840532189
 30
0.0
 40
3.0
100
AcDbArc
 50
0.0
 51
89.99999999999699
  0
ARC
  5
271
330
A
100
AcDbEntity
  8
LEVEL001
  6
Continuous
 62
     1
100
AcDbCircle
 10
173.30000000011
 20
191.95840532189
 30
0.0
 40
2.0
100
AcDbArc
 50
270.0
 51
0.0
  0
LINE
  5
272
330
A
100
AcDbEntity
  8
LEVEL001
  6
Continuous
 62
     1
100
AcDbLine
 10
165.30000000011
 20
192.25840532189
 30
0.0
 11
172.00000000011
 21
192.25840532189
 31
0.0
  0
ARC
  5
273
330
A
100
AcDbEntity
  8
LEVEL001
  6
Continuous
 62
     1
100
AcDbCircle
 10
172.00000000011
 20
193.25840532189
 30
0.0
 40
1.0
100
AcDbArc
 50
270.0
 51
0.0
  0
LINE
  5
274
330
A
100
AcDbEntity
  8
LEVEL001
  6
Continuous
 62
     1
100
AcDbLine
 10
162.00000000011
 20
196.25840532189
 30
0.0
 11
168.30000000011
 21
196.25840532189
 31
0.0
  0
LINE
  5
275
330
A
100
AcDbEntity
  8
LEVEL001
  6
Continuous
 62
     1
100
AcDbLine
 10
165.30000000011
 20
189.95840532189
 30
0.0
 11
173.30000000011
 21
189.95840532189
 31
0.0
  0
LINE
  5
276
330
A
100
AcDbEntity
  8
LEVEL001
  6
Continuous
 62
     1
100
AcDbLine
 10
165.30000000011
 20
189.95840532189
 30
0.0
 11
165.30000000011
 21
192.25840532189
 31
0.0
  0
LINE
  5
277
330
A
100
AcDbEntity
  8
LEVEL001
  6
Continuous
 62
     1
100
AcDbLine
 10
162.00000000011
 20
175.95840532189
 30
0.0
 11
177.00000000011
 21
175.95840532189
 31
0.0
  0
ARC
  5
278
330
A
100
AcDbEntity
  8
LEVEL001
  6
Continuous
 62
     1
100
AcDbCircle
 10
177.00000000011
 20
178.95840532189
 30
0.0
 40
3.0
100
AcDbArc
 50
270.0
 51
0.0
  0
ARC
  5
279
330
A
100
AcDbEntity
  8
LEVEL001
  6
Continuous
 62
     1
100
AcDbCircle
 10
533.0752864158099
 20
378.59778154021
 30
0.0
 40
1.0
100
AcDbArc
 50
0.0
 51
89.999999999362
  0
LINE
  5
27A
330
A
100
AcDbEntity
  8
LEVEL001
  6
Continuous
 62
     1
100
AcDbLine
 10
534.0752864158199
 20
378.59778154021
 30
0.0
 11
534.0752864158199
 21
176.59778154021
 31
0.0
  0
LINE
  5
27B
330
A
100
AcDbEntity
  8
LEVEL001
  6
Continuous
 62
     1
100
AcDbLine
 10
533.0752864158199
 20
175.59778154021
 30
0.0
 11
516.07528641599
 21
175.59778154021
 31
0.0
  0
LINE
  5
27C
330
A
100
AcDbEntity
  8
LEVEL001
  6
Continuous
 62
     1
100
AcDbLine
 10
516.07528641599
 20
175.59778154021
 30
0.0
 11
514.07528641582
 21
177.59778154021
 31
0.0
  0
LINE
  5
27D
330
A
100
AcDbEntity
  8
LEVEL001
  6
Continuous
 62
     1
100
AcDbLine
 10
514.07528641582
 20
177.59778154021
 30
0.0
 11
514.07528641582
 21
377.59778154021
 31
0.0
  0
LINE
  5
27E
330
A
100
AcDbEntity
  8
LEVEL001
  6
Continuous
 62
     1
100
AcDbLine
 10
514.07528641582
 20
377.59778154021
 30
0.0
 11
516.07528641598
 21
379.59778154021
 31
0.0
  0
LINE
  5
27F
330
A
100
AcDbEntity
  8
LEVEL001
  6
Continuous
 62
     1
100
AcDbLine
 10
516.07528641598
 20
379.59778154021
 30
0.0
 11
533.0752864158199
 21
379.59778154021
 31
0.0
  0
ARC
  5
280
330
A
100
AcDbEntity
  8
LEVEL001
  6
Continuous
 62
     1
100
AcDbCircle
 10
533.0752864158199
 20
176.59778154022
 30
0.0
 40
1.0
100
AcDbArc
 50
269.99999999997
 51
0.0
  0
LINE
  5
281
330
A
100
AcDbEntity
  8
LEVEL001
  6
Continuous
 62
     1
100
AcDbLine
 10
514.07528641582
 20
377.59778154021
 30
0.0
 11
261.45424598469
 21
377.59778154021
 31
0.0
  0
LINE
  5
282
330
A
100
AcDbEntity
  8
LEVEL001
  6
Continuous
 62
     1
100
AcDbLine
 10
261.45424598469
 20
177.59778154021
 30
0.0
 11
514.07528641582
 21
177.59778154021
 31
0.0
  0
LINE
  5
283
330
A
100
AcDbEntity
  8
LEVEL001
  6
Continuous
 62
     1
100
AcDbLine
 10
533.0752864158199
 20
483.6640583433499
 30
0.0
 11
516.07528641599
 21
483.6640583433499
 31
0.0
  0
LINE
  5
284
330
A
100
AcDbEntity
  8
LEVEL001
  6
Continuous
 62
     1
100
AcDbLine
 10
516.07528641599
 20
483.6640583433499
 30
0.0
 11
514.07528641582
 21
485.66405834335
 31
0.0
  0
ARC
  5
285
330
A
100
AcDbEntity
  8
LEVEL001
  6
Continuous
 62
     1
100
AcDbCircle
 10
533.0752864158199
 20
484.66405834337
 30
0.0
 40
1.0
100
AcDbArc
 50
270.0
 51
0.0
  0
ARC
  5
286
330
A
100
AcDbEntity
  8
LEVEL001
  6
Continuous
 62
     1
100
AcDbCircle
 10
533.0752864158399
 20
502.66405834335
 30
0.0
 40
1.0
100
AcDbArc
 50
0.0
 51
90.00000000132899
  0
LINE
  5
287
330
A
100
AcDbEntity
  8
LEVEL001
  6
Continuous
 62
     1
100
AcDbLine
 10
514.07528641582
 20
485.66405834335
 30
0.0
 11
514.07528641582
 21
503.6640583433499
 31
0.0
  0
LINE
  5
288
330
A
100
AcDbEntity
  8
LEVEL001
  6
Continuous
 62
     1
100
AcDbLine
 10
534.0752864158199
 20
502.66405834335
 30
0.0
 11
534.0752864158199
 21
484.66405834335
 31
0.0
  0
LINE
  5
289
330
A
100
AcDbEntity
  8
LEVEL001
  6
Continuous
 62
     1
100
AcDbLine
 10
514.07528641582
 20
503.6640583433499
 30
0.0
 11
533.0752864158199
 21
503.6640583433499
 31
0.0
  0
LINE
  5
28A
330
A
100
AcDbEntity
  8
LEVEL001
  6
Continuous
 62
     1
100
AcDbLine
 10
261.45424598469
 20
485.66405834335
 30
0.0
 11
514.07528641582
 21
485.66405834335
 31
0.0
  0
LINE
  5
28B
330
A
100
AcDbEntity
  8
LEVEL001
  6
Continuous
 62
     3
370
    30
100
AcDbLine
 10
571.3312996815099
 20
503.6640583433499
 30
0.0
 11
224.79863222275
 21
503.6640583433499
 31
0.0
  0
LINE
  5
28C
330
A
100
AcDbEntity
  8
LEVEL001
  6
Continuous
 62
     1
100
AcDbLine
 10
162.00000000011
 20
829.96629734847
 30
0.0
 11
168.30000000011
 21
829.96629734847
 31
0.0
  0
LINE
  5
28D
330
A
100
AcDbEntity
  8
LEVEL001
  6
Continuous
 62
     1
100
AcDbLine
 10
171.30000000011
 20
832.9662973484699
 30
0.0
 11
171.30000000011
 21
833.9662973484699
 31
0.0
  0
ARC
  5
28E
330
A
100
AcDbEntity
  8
LEVEL001
  6
Continuous
 62
     1
100
AcDbCircle
 10
168.30000000011
 20
832.9662973484499
 30
0.0
 40
3.0
100
AcDbArc
 50
270.0
 51
0.0
  0
ARC
  5
28F
330
A
100
AcDbEntity
  8
LEVEL001
  6
Continuous
 62
     1
100
AcDbCircle
 10
177.00000000012
 20
837.2662973484699
 30
0.0
 40
3.0
100
AcDbArc
 50
0.0
 51
90.00000000015601
  0
LINE
  5
290
330
A
100
AcDbEntity
  8
LEVEL001
  6
Continuous
 62
     1
100
AcDbLine
 10
180.00000000011
 20
743.2662973484699
 30
0.0
 11
180.00000000011
 21
837.2662973484699
 31
0.0
  0
LINE
  5
291
330
A
100
AcDbEntity
  8
LEVEL001
  6
Continuous
 62
     1
100
AcDbLine
 10
173.00000000011
 20
814.26629734847
 30
0.0
 11
173.00000000011
 21
790.2662973484699
 31
0.0
  0
LINE
  5
292
330
A
100
AcDbEntity
  8
LEVEL001
  6
Continuous
 62
     1
100
AcDbLine
 10
166.50000000011
 20
816.26629734847
 30
0.0
 11
168.50000000011
 21
816.7662973484699
 31
0.0
  0
LINE
  5
293
330
A
100
AcDbEntity
  8
LEVEL001
  6
Continuous
 62
     1
100
AcDbLine
 10
168.50000000011
 20
816.7662973484699
 30
0.0
 11
168.50000000011
 21
816.26629734847
 31
0.0
  0
LINE
  5
294
330
A
100
AcDbEntity
  8
LEVEL001
  6
Continuous
 62
     1
100
AcDbLine
 10
168.50000000011
 20
816.26629734847
 30
0.0
 11
170.50000000011
 21
816.7662973484699
 31
0.0
  0
LINE
  5
295
330
A
100
AcDbEntity
  8
LEVEL001
  6
Continuous
 62
     1
100
AcDbLine
 10
170.50000000011
 20
816.7662973484699
 30
0.0
 11
170.50000000011
 21
816.26629734847
 31
0.0
  0
LINE
  5
296
330
A
100
AcDbEntity
  8
LEVEL001
  6
Continuous
 62
     1
100
AcDbLine
 10
170.50000000011
 20
816.26629734847
 30
0.0
 11
173.00000000011
 21
816.26629734847
 31
0.0
  0
LINE
  5
297
330
A
100
AcDbEntity
  8
LEVEL001
  6
Continuous
 62
     1
100
AcDbLine
 10
173.00000000011
 20
814.26629734847
 30
0.0
 11
165.50000000011
 21
814.26629734847
 31
0.0
  0
ARC
  5
298
330
A
100
AcDbEntity
  8
LEVEL001
  6
Continuous
 62
     1
100
AcDbCircle
 10
165.50000000011
 20
815.26629734847
 30
0.0
 40
1.0
100
AcDbArc
 50
180.0
 51
270.00000000027
  0
LINE
  5
299
330
A
100
AcDbEntity
  8
LEVEL001
  6
Continuous
 62
     1
100
AcDbLine
 10
165.50000000011
 20
816.26629734847
 30
0.0
 11
166.50000000011
 21
816.26629734847
 31
0.0
  0
ARC
  5
29A
330
A
100
AcDbEntity
  8
LEVEL001
  6
Continuous
 62
     1
100
AcDbCircle
 10
165.50000000011
 20
815.2662973484899
 30
0.0
 40
1.0
100
AcDbArc
 50
89.99999999997399
 51
180.000000001
  0
LINE
  5
29B
330
A
100
AcDbEntity
  8
LEVEL001
  6
Continuous
 62
     1
100
AcDbLine
 10
165.30000000011
 20
836.2662973484699
 30
0.0
 11
173.30000000011
 21
836.2662973484699
 31
0.0
  0
LINE
  5
29C
330
A
100
AcDbEntity
  8
LEVEL001
  6
Continuous
 62
     1
100
AcDbLine
 10
175.30000000011
 20
834.2662973484699
 30
0.0
 11
175.30000000011
 21
790.2662973484699
 31
0.0
  0
ARC
  5
29D
330
A
100
AcDbEntity
  8
LEVEL001
  6
Continuous
 62
     1
100
AcDbCircle
 10
173.30000000009
 20
834.2662973484699
 30
0.0
 40
2.0
100
AcDbArc
 50
0.0
 51
89.99999999952299
  0
LINE
  5
29E
330
A
100
AcDbEntity
  8
LEVEL001
  6
Continuous
 62
     1
100
AcDbLine
 10
165.30000000011
 20
833.9662973484699
 30
0.0
 11
172.00000000011
 21
833.9662973484699
 31
0.0
  0
ARC
  5
29F
330
A
100
AcDbEntity
  8
LEVEL001
  6
Continuous
 62
     1
100
AcDbCircle
 10
172.00000000009
 20
832.9662973484699
 30
0.0
 40
1.0
100
AcDbArc
 50
0.0
 51
89.999999999003
  0
LINE
  5
2A0
330
A
100
AcDbEntity
  8
LEVEL001
  6
Continuous
 62
     1
100
AcDbLine
 10
173.00000000011
 20
832.9662973484699
 30
0.0
 11
173.00000000011
 21
816.26629734847
 31
0.0
  0
LINE
  5
2A1
330
A
100
AcDbEntity
  8
LEVEL001
  6
Continuous
 62
     1
100
AcDbLine
 10
172.00000000011
 20
817.7662973484698
 30
0.0
 11
162.00000000011
 21
817.7662973484698
 31
0.0
  0
ARC
  5
2A2
330
A
100
AcDbEntity
  8
LEVEL001
  6
Continuous
 62
     1
100
AcDbCircle
 10
172.00000000016
 20
817.2662973484699
 30
0.0
 40
0.5
100
AcDbArc
 50
0.0
 51
90.00000000601898
  0
LINE
  5
2A3
330
A
100
AcDbEntity
  8
LEVEL001
  6
Continuous
 62
     1
100
AcDbLine
 10
170.50000000011
 20
816.26629734847
 30
0.0
 11
172.15108473974
 21
816.7896702390299
 31
0.0
  0
ARC
  5
2A4
330
A
100
AcDbEntity
  8
LEVEL001
  6
Continuous
 62
     1
100
AcDbCircle
 10
172.00000000011
 20
817.2662973484799
 30
0.0
 40
0.5
100
AcDbArc
 50
287.58795377365
 51
0.0
  0
LINE
  5
2A5
330
A
100
AcDbEntity
  8
LEVEL001
  6
Continuous
 62
     1
100
AcDbLine
 10
170.50000000011
 20
816.26629734847
 30
0.0
 11
170.50000000011
 21
816.7662973484699
 31
0.0
  0
LINE
  5
2A6
330
A
100
AcDbEntity
  8
LEVEL001
  6
Continuous
 62
     1
100
AcDbLine
 10
170.50000000011
 20
816.7662973484699
 30
0.0
 11
168.50000000011
 21
816.26629734847
 31
0.0
  0
LINE
  5
2A7
330
A
100
AcDbEntity
  8
LEVEL001
  6
Continuous
 62
     1
100
AcDbLine
 10
168.50000000011
 20
816.26629734847
 30
0.0
 11
168.50000000011
 21
816.7662973484699
 31
0.0
  0
LINE
  5
2A8
330
A
100
AcDbEntity
  8
LEVEL001
  6
Continuous
 62
     1
100
AcDbLine
 10
168.50000000011
 20
816.7662973484699
 30
0.0
 11
166.50000000011
 21
816.26629734847
 31
0.0
  0
LINE
  5
2A9
330
A
100
AcDbEntity
  8
LEVEL001
  6
Continuous
 62
     1
100
AcDbLine
 10
166.50000000011
 20
816.26629734847
 30
0.0
 11
164.00000000011
 21
816.26629734847
 31
0.0
  0
LINE
  5
2AA
330
A
100
AcDbEntity
  8
LEVEL001
  6
Continuous
 62
     1
100
AcDbLine
 10
177.00000000011
 20
840.26629734847
 30
0.0
 11
162.00000000011
 21
840.26629734847
 31
0.0
  0
LINE
  5
2AB
330
A
100
AcDbEntity
  8
LEVEL001
  6
Continuous
 62
     1
100
AcDbLine
 10
165.30000000011
 20
836.2662973484699
 30
0.0
 11
165.30000000011
 21
833.9662973484699
 31
0.0
  0
LINE
  5
2AC
330
A
100
AcDbEntity
  8
LEVEL001
  6
Continuous
 62
     1
100
AcDbLine
 10
164.00000000011
 20
816.26629734847
 30
0.0
 11
164.00000000011
 21
803.2662973484699
 31
0.0
  0
LINE
  5
2AD
330
A
100
AcDbEntity
  8
LEVEL001
  6
Continuous
 62
     1
100
AcDbLine
 10
173.00000000011
 20
766.26629734847
 30
0.0
 11
173.00000000011
 21
790.2662973484699
 31
0.0
  0
LINE
  5
2AE
330
A
100
AcDbEntity
  8
LEVEL001
  6
Continuous
 62
     1
100
AcDbLine
 10
166.50000000011
 20
764.2662973484699
 30
0.0
 11
168.50000000011
 21
763.7662973484699
 31
0.0
  0
LINE
  5
2AF
330
A
100
AcDbEntity
  8
LEVEL001
  6
Continuous
 62
     1
100
AcDbLine
 10
168.50000000011
 20
763.7662973484699
 30
0.0
 11
168.50000000011
 21
764.2662973484699
 31
0.0
  0
LINE
  5
2B0
330
A
100
AcDbEntity
  8
LEVEL001
  6
Continuous
 62
     1
100
AcDbLine
 10
168.50000000011
 20
764.2662973484699
 30
0.0
 11
170.50000000011
 21
763.7662973484699
 31
0.0
  0
LINE
  5
2B1
330
A
100
AcDbEntity
  8
LEVEL001
  6
Continuous
 62
     1
100
AcDbLine
 10
170.50000000011
 20
763.7662973484699
 30
0.0
 11
170.50000000011
 21
764.2662973484699
 31
0.0
  0
LINE
  5
2B2
330
A
100
AcDbEntity
  8
LEVEL001
  6
Continuous
 62
     1
100
AcDbLine
 10
170.50000000011
 20
764.2662973484699
 30
0.0
 11
173.00000000011
 21
764.2662973484699
 31
0.0
  0
LINE
  5
2B3
330
A
100
AcDbEntity
  8
LEVEL001
  6
Continuous
 62
     1
100
AcDbLine
 10
173.00000000011
 20
766.26629734847
 30
0.0
 11
165.50000000011
 21
766.26629734847
 31
0.0
  0
ARC
  5
2B4
330
A
100
AcDbEntity
  8
LEVEL001
  6
Continuous
 62
     1
100
AcDbCircle
 10
165.50000000011
 20
765.26629734843
 30
0.0
 40
1.0
100
AcDbArc
 50
90.0
 51
179.99999999768
  0
LINE
  5
2B5
330
A
100
AcDbEntity
  8
LEVEL001
  6
Continuous
 62
     1
100
AcDbLine
 10
165.50000000011
 20
764.2662973484699
 30
0.0
 11
166.50000000011
 21
764.2662973484699
 31
0.0
  0
ARC
  5
2B6
330
A
100
AcDbEntity
  8
LEVEL001
  6
Continuous
 62
     1
100
AcDbCircle
 10
165.50000000009
 20
765.2662973484699
 30
0.0
 40
1.0
100
AcDbArc
 50
180.0
 51
270.00000000129
  0
LINE
  5
2B7
330
A
100
AcDbEntity
  8
LEVEL001
  6
Continuous
 62
     1
100
AcDbLine
 10
175.30000000011
 20
746.2662973484699
 30
0.0
 11
175.30000000011
 21
790.2662973484699
 31
0.0
  0
LINE
  5
2B8
330
A
100
AcDbEntity
  8
LEVEL001
  6
Continuous
 62
     1
100
AcDbLine
 10
173.00000000011
 20
747.56629734847
 30
0.0
 11
173.00000000011
 21
764.2662973484699
 31
0.0
  0
ARC
  5
2B9
330
A
100
AcDbEntity
  8
LEVEL001
  6
Continuous
 62
     1
100
AcDbCircle
 10
172.00000000011
 20
763.2662973484699
 30
0.0
 40
0.5
100
AcDbArc
 50
270.00000000005
 51
0.0
  0
LINE
  5
2BA
330
A
100
AcDbEntity
  8
LEVEL001
  6
Continuous
 62
     1
100
AcDbLine
 10
172.00000000011
 20
762.7662973484699
 30
0.0
 11
162.00000000011
 21
762.7662973484699
 31
0.0
  0
LINE
  5
2BB
330
A
100
AcDbEntity
  8
LEVEL001
  6
Continuous
 62
     1
100
AcDbLine
 10
170.50000000011
 20
764.2662973484699
 30
0.0
 11
172.15108473974
 21
763.74292445791
 31
0.0
  0
ARC
  5
2BC
330
A
100
AcDbEntity
  8
LEVEL001
  6
Continuous
 62
     1
100
AcDbCircle
 10
172.00000000014
 20
763.2662973484599
 30
0.0
 40
0.5
100
AcDbArc
 50
0.0
 51
72.412046229436
  0
LINE
  5
2BD
330
A
100
AcDbEntity
  8
LEVEL001
  6
Continuous
 62
     1
100
AcDbLine
 10
170.50000000011
 20
764.2662973484699
 30
0.0
 11
170.50000000011
 21
763.7662973484699
 31
0.0
  0
LINE
  5
2BE
330
A
100
AcDbEntity
  8
LEVEL001
  6
Continuous
 62
     1
100
AcDbLine
 10
170.50000000011
 20
763.7662973484699
 30
0.0
 11
168.50000000011
 21
764.2662973484699
 31
0.0
  0
LINE
  5
2BF
330
A
100
AcDbEntity
  8
LEVEL001
  6
Continuous
 62
     1
100
AcDbLine
 10
168.50000000011
 20
764.2662973484699
 30
0.0
 11
168.50000000011
 21
763.7662973484699
 31
0.0
  0
LINE
  5
2C0
330
A
100
AcDbEntity
  8
LEVEL001
  6
Continuous
 62
     1
100
AcDbLine
 10
168.50000000011
 20
763.7662973484699
 30
0.0
 11
166.50000000011
 21
764.2662973484699
 31
0.0
  0
LINE
  5
2C1
330
A
100
AcDbEntity
  8
LEVEL001
  6
Continuous
 62
     1
100
AcDbLine
 10
166.50000000011
 20
764.2662973484699
 30
0.0
 11
164.00000000011
 21
764.2662973484699
 31
0.0
  0
LINE
  5
2C2
330
A
100
AcDbEntity
  8
LEVEL001
  6
Continuous
 62
     1
100
AcDbLine
 10
164.00000000011
 20
778.26629734843
 30
0.0
 11
164.00000000011
 21
764.2662973484699
 31
0.0
  0
LINE
  5
2C3
330
A
100
AcDbEntity
  8
LEVEL001
  6
Continuous
 62
     1
100
AcDbLine
 10
162.00000000011
 20
750.56629734847
 30
0.0
 11
168.30000000011
 21
750.56629734847
 31
0.0
  0
LINE
  5
2C4
330
A
100
AcDbEntity
  8
LEVEL001
  6
Continuous
 62
     1
100
AcDbLine
 10
171.30000000011
 20
747.56629734847
 30
0.0
 11
171.30000000011
 21
746.5662973484699
 31
0.0
  0
ARC
  5
2C5
330
A
100
AcDbEntity
  8
LEVEL001
  6
Continuous
 62
     1
100
AcDbCircle
 10
168.3000000001
 20
747.56629734847
 30
0.0
 40
3.0
100
AcDbArc
 50
0.0
 51
89.99999999989601
  0
LINE
  5
2C6
330
A
100
AcDbEntity
  8
LEVEL001
  6
Continuous
 62
     1
100
AcDbLine
 10
162.00000000011
 20
740.2662973484699
 30
0.0
 11
177.00000000011
 21
740.2662973484699
 31
0.0
  0
LINE
  5
2C7
330
A
100
AcDbEntity
  8
LEVEL001
  6
Continuous
 62
     1
100
AcDbLine
 10
165.30000000011
 20
744.2662973484699
 30
0.0
 11
173.30000000011
 21
744.2662973484699
 31
0.0
  0
LINE
  5
2C8
330
A
100
AcDbEntity
  8
LEVEL001
  6
Continuous
 62
     1
100
AcDbLine
 10
165.30000000011
 20
744.2662973484699
 30
0.0
 11
165.30000000011
 21
746.5662973484699
 31
0.0
  0
LINE
  5
2C9
330
A
100
AcDbEntity
  8
LEVEL001
  6
Continuous
 62
     1
100
AcDbLine
 10
165.30000000011
 20
746.5662973484699
 30
0.0
 11
172.00000000011
 21
746.5662973484699
 31
0.0
  0
ARC
  5
2CA
330
A
100
AcDbEntity
  8
LEVEL001
  6
Continuous
 62
     1
100
AcDbCircle
 10
172.00000000011
 20
747.56629734849
 30
0.0
 40
1.0
100
AcDbArc
 50
270.0
 51
0.0
  0
ARC
  5
2CB
330
A
100
AcDbEntity
  8
LEVEL001
  6
Continuous
 62
     1
100
AcDbCircle
 10
173.30000000011
 20
746.26629734845
 30
0.0
 40
2.0
100
AcDbArc
 50
270.0
 51
0.0
  0
ARC
  5
2CC
330
A
100
AcDbEntity
  8
LEVEL001
  6
Continuous
 62
     1
100
AcDbCircle
 10
177.00000000011
 20
743.2662973484899
 30
0.0
 40
3.0
100
AcDbArc
 50
270.0
 51
0.0
  0
ARC
  5
2CD
330
A
100
AcDbEntity
  8
LEVEL001
  6
Continuous
 62
     1
100
AcDbCircle
 10
546.90180032746
 20
841.26629734847
 30
0.0
 40
1.0
100
AcDbArc
 50
0.0
 51
90.000000000951
  0
LINE
  5
2CE
330
A
100
AcDbEntity
  8
LEVEL001
  6
Continuous
 62
     1
100
AcDbLine
 10
547.90180032744
 20
841.26629734847
 30
0.0
 11
547.90180032744
 21
739.2662973484699
 31
0.0
  0
LINE
  5
2CF
330
A
100
AcDbEntity
  8
LEVEL001
  6
Continuous
 62
     1
100
AcDbLine
 10
546.90180032744
 20
738.2662973484699
 30
0.0
 11
529.9018003276099
 21
738.2662973484699
 31
0.0
  0
LINE
  5
2D0
330
A
100
AcDbEntity
  8
LEVEL001
  6
Continuous
 62
     1
100
AcDbLine
 10
529.9018003276099
 20
738.2662973484699
 30
0.0
 11
527.90180032744
 21
740.2662973484699
 31
0.0
  0
LINE
  5
2D1
330
A
100
AcDbEntity
  8
LEVEL001
  6
Continuous
 62
     1
100
AcDbLine
 10
527.90180032744
 20
740.2662973484699
 30
0.0
 11
527.90180032744
 21
840.26629734847
 31
0.0
  0
LINE
  5
2D2
330
A
100
AcDbEntity
  8
LEVEL001
  6
Continuous
 62
     1
100
AcDbLine
 10
527.90180032744
 20
840.26629734847
 30
0.0
 11
529.9018003276
 21
842.2662973484699
 31
0.0
  0
LINE
  5
2D3
330
A
100
AcDbEntity
  8
LEVEL001
  6
Continuous
 62
     1
100
AcDbLine
 10
529.9018003276
 20
842.2662973484699
 30
0.0
 11
546.90180032744
 21
842.2662973484699
 31
0.0
  0
ARC
  5
2D4
330
A
100
AcDbEntity
  8
LEVEL001
  6
Continuous
 62
     1
100
AcDbCircle
 10
546.90180032744
 20
739.26629734845
 30
0.0
 40
1.0
100
AcDbArc
 50
270.0
 51
0.0
  0
LINE
  5
2D5
330
A
100
AcDbEntity
  8
LEVEL001
  6
Continuous
 62
     1
100
AcDbLine
 10
547.90180032744
 20
841.26629734847
 30
0.0
 11
547.90180032744
 21
806.9079785960401
 31
0.0
  0
LINE
  5
2D6
330
A
100
AcDbEntity
  8
LEVEL001
  6
Continuous
 62
     1
100
AcDbLine
 10
527.90180032744
 20
840.26629734847
 30
0.0
 11
280.61412367032
 21
840.26629734847
 31
0.0
  0
LINE
  5
2D7
330
A
100
AcDbEntity
  8
LEVEL001
  6
Continuous
 62
     1
100
AcDbLine
 10
285.10722886128
 20
740.2662973484699
 30
0.0
 11
527.90180032744
 21
740.2662973484699
 31
0.0
  0
LINE
  5
2D8
330
A
100
AcDbEntity
  8
LEVEL001
  6
Continuous
 62
     1
100
AcDbLine
 10
546.90180032744
 20
910.2662973484699
 30
0.0
 11
529.9018003276099
 21
910.2662973484699
 31
0.0
  0
LINE
  5
2D9
330
A
100
AcDbEntity
  8
LEVEL001
  6
Continuous
 62
     1
100
AcDbLine
 10
529.9018003276099
 20
910.2662973484699
 30
0.0
 11
527.90180032744
 21
912.2662973484699
 31
0.0
  0
ARC
  5
2DA
330
A
100
AcDbEntity
  8
LEVEL001
  6
Continuous
 62
     1
100
AcDbCircle
 10
546.90180032744
 20
911.26629734845
 30
0.0
 40
1.0
100
AcDbArc
 50
270.0
 51
0.0
  0
ARC
  5
2DB
330
A
100
AcDbEntity
  8
LEVEL001
  6
Continuous
 62
     1
100
AcDbCircle
 10
546.90180032746
 20
929.2662973484699
 30
0.0
 40
1.0
100
AcDbArc
 50
0.0
 51
90.00000000092502
  0
LINE
  5
2DC
330
A
100
AcDbEntity
  8
LEVEL001
  6
Continuous
 62
     1
100
AcDbLine
 10
527.90180032744
 20
912.2662973484699
 30
0.0
 11
527.90180032744
 21
930.2662973484698
 31
0.0
  0
LINE
  5
2DD
330
A
100
AcDbEntity
  8
LEVEL001
  6
Continuous
 62
     1
100
AcDbLine
 10
547.90180032744
 20
929.2662973484699
 30
0.0
 11
547.90180032744
 21
911.26629734848
 31
0.0
  0
LINE
  5
2DE
330
A
100
AcDbEntity
  8
LEVEL001
  6
Continuous
 62
     1
100
AcDbLine
 10
280.61412367032
 20
912.2662973484699
 30
0.0
 11
527.90180032744
 21
912.2662973484699
 31
0.0
  0
LINE
  5
2DF
330
A
100
AcDbEntity
  8
LEVEL001
  6
Continuous
 62
     1
100
AcDbLine
 10
740.00000000011
 20
854.96629734847
 30
0.0
 11
746.30000000011
 21
854.96629734847
 31
0.0
  0
LINE
  5
2E0
330
A
100
AcDbEntity
  8
LEVEL001
  6
Continuous
 62
     1
100
AcDbLine
 10
749.3000000001099
 20
857.9662973484699
 30
0.0
 11
749.3000000001099
 21
858.9662973484699
 31
0.0
  0
ARC
  5
2E1
330
A
100
AcDbEntity
  8
LEVEL001
  6
Continuous
 62
     1
100
AcDbCircle
 10
746.30000000011
 20
857.96629734849
 30
0.0
 40
3.0
100
AcDbArc
 50
270.0
 51
0.0
  0
LINE
  5
2E2
330
A
100
AcDbEntity
  8
LEVEL001
  6
Continuous
 62
     1
100
AcDbLine
 10
755.00000000011
 20
865.26629734847
 30
0.0
 11
740.00000000011
 21
865.26629734847
 31
0.0
  0
ARC
  5
2E3
330
A
100
AcDbEntity
  8
LEVEL001
  6
Continuous
 62
     1
100
AcDbCircle
 10
755.0000000001
 20
862.2662973484699
 30
0.0
 40
3.0
100
AcDbArc
 50
0.0
 51
89.999999999883
  0
LINE
  5
2E4
330
A
100
AcDbEntity
  8
LEVEL001
  6
Continuous
 62
     1
100
AcDbLine
 10
758.00000000011
 20
718.2662973484699
 30
0.0
 11
758.00000000011
 21
862.2662973484699
 31
0.0
  0
LINE
  5
2E5
330
A
100
AcDbEntity
  8
LEVEL001
  6
Continuous
 62
     1
100
AcDbLine
 10
743.30000000011
 20
861.2662973484699
 30
0.0
 11
751.30000000011
 21
861.2662973484699
 31
0.0
  0
LINE
  5
2E6
330
A
100
AcDbEntity
  8
LEVEL001
  6
Continuous
 62
     1
100
AcDbLine
 10
753.3000000001099
 20
859.2662973484699
 30
0.0
 11
753.3000000001099
 21
790.2662973484699
 31
0.0
  0
ARC
  5
2E7
330
A
100
AcDbEntity
  8
LEVEL001
  6
Continuous
 62
     1
100
AcDbCircle
 10
751.3000000001199
 20
859.2662973484699
 30
0.0
 40
2.0
100
AcDbArc
 50
0.0
 51
90.00000000031299
  0
LINE
  5
2E8
330
A
100
AcDbEntity
  8
LEVEL001
  6
Continuous
 62
     1
100
AcDbLine
 10
743.30000000011
 20
861.2662973484699
 30
0.0
 11
743.30000000011
 21
858.9662973484699
 31
0.0
  0
LINE
  5
2E9
330
A
100
AcDbEntity
  8
LEVEL001
  6
Continuous
 62
     1
100
AcDbLine
 10
743.30000000011
 20
858.9662973484699
 30
0.0
 11
750.00000000011
 21
858.9662973484699
 31
0.0
  0
ARC
  5
2EA
330
A
100
AcDbEntity
  8
LEVEL001
  6
Continuous
 62
     1
100
AcDbCircle
 10
750.0000000001
 20
857.9662973484699
 30
0.0
 40
1.0
100
AcDbArc
 50
0.0
 51
89.999999999687
  0
LINE
  5
2EB
330
A
100
AcDbEntity
  8
LEVEL001
  6
Continuous
 62
     1
100
AcDbLine
 10
751.00000000011
 20
857.9662973484699
 30
0.0
 11
751.00000000011
 21
816.26629734847
 31
0.0
  0
LINE
  5
2EC
330
A
100
AcDbEntity
  8
LEVEL001
  6
Continuous
 62
     1
100
AcDbLine
 10
751.00000000011
 20
814.26629734847
 30
0.0
 11
751.00000000011
 21
790.2662973484699
 31
0.0
  0
LINE
  5
2ED
330
A
100
AcDbEntity
  8
LEVEL001
  6
Continuous
 62
     1
100
AcDbLine
 10
744.50000000011
 20
816.26629734847
 30
0.0
 11
746.50000000011
 21
816.7662973484699
 31
0.0
  0
LINE
  5
2EE
330
A
100
AcDbEntity
  8
LEVEL001
  6
Continuous
 62
     1
100
AcDbLine
 10
746.50000000011
 20
816.7662973484699
 30
0.0
 11
746.50000000011
 21
816.26629734847
 31
0.0
  0
LINE
  5
2EF
330
A
100
AcDbEntity
  8
LEVEL001
  6
Continuous
 62
     1
100
AcDbLine
 10
746.50000000011
 20
816.26629734847
 30
0.0
 11
748.50000000011
 21
816.7662973484699
 31
0.0
  0
LINE
  5
2F0
330
A
100
AcDbEntity
  8
LEVEL001
  6
Continuous
 62
     1
100
AcDbLine
 10
748.50000000011
 20
816.7662973484699
 30
0.0
 11
748.50000000011
 21
816.26629734847
 31
0.0
  0
LINE
  5
2F1
330
A
100
AcDbEntity
  8
LEVEL001
  6
Continuous
 62
     1
100
AcDbLine
 10
748.50000000011
 20
816.26629734847
 30
0.0
 11
751.00000000011
 21
816.26629734847
 31
0.0
  0
LINE
  5
2F2
330
A
100
AcDbEntity
  8
LEVEL001
  6
Continuous
 62
     1
100
AcDbLine
 10
751.00000000011
 20
814.26629734847
 30
0.0
 11
743.50000000011
 21
814.26629734847
 31
0.0
  0
ARC
  5
2F3
330
A
100
AcDbEntity
  8
LEVEL001
  6
Continuous
 62
     1
100
AcDbCircle
 10
743.50000000011
 20
815.26629734847
 30
0.0
 40
1.0
100
AcDbArc
 50
180.0
 51
270.00000000027
  0
LINE
  5
2F4
330
A
100
AcDbEntity
  8
LEVEL001
  6
Continuous
 62
     1
100
AcDbLine
 10
743.50000000011
 20
816.26629734847
 30
0.0
 11
744.50000000011
 21
816.26629734847
 31
0.0
  0
ARC
  5
2F5
330
A
100
AcDbEntity
  8
LEVEL001
  6
Continuous
 62
     1
100
AcDbCircle
 10
743.50000000011
 20
815.26629734853
 30
0.0
 40
1.0
100
AcDbArc
 50
89.999999999948
 51
180.00000000326
  0
LINE
  5
2F6
330
A
100
AcDbEntity
  8
LEVEL001
  6
Continuous
 62
     1
100
AcDbLine
 10
750.00000000011
 20
817.7662973484698
 30
0.0
 11
740.00000000011
 21
817.7662973484698
 31
0.0
  0
ARC
  5
2F7
330
A
100
AcDbEntity
  8
LEVEL001
  6
Continuous
 62
     1
100
AcDbCircle
 10
750.0000000001599
 20
817.2662973484699
 30
0.0
 40
0.5
100
AcDbArc
 50
0.0
 51
90.00000000601898
  0
LINE
  5
2F8
330
A
100
AcDbEntity
  8
LEVEL001
  6
Continuous
 62
     1
100
AcDbLine
 10
748.50000000011
 20
816.26629734847
 30
0.0
 11
750.1510847397399
 21
816.7896702390299
 31
0.0
  0
ARC
  5
2F9
330
A
100
AcDbEntity
  8
LEVEL001
  6
Continuous
 62
     1
100
AcDbCircle
 10
750.00000000011
 20
817.2662973485699
 30
0.0
 40
0.5
100
AcDbArc
 50
287.58795377056
 51
0.0
  0
LINE
  5
2FA
330
A
100
AcDbEntity
  8
LEVEL001
  6
Continuous
 62
     1
100
AcDbLine
 10
748.50000000011
 20
816.26629734847
 30
0.0
 11
748.50000000011
 21
816.7662973484699
 31
0.0
  0
LINE
  5
2FB
330
A
100
AcDbEntity
  8
LEVEL001
  6
Continuous
 62
     1
100
AcDbLine
 10
748.50000000011
 20
816.7662973484699
 30
0.0
 11
746.50000000011
 21
816.26629734847
 31
0.0
  0
LINE
  5
2FC
330
A
100
AcDbEntity
  8
LEVEL001
  6
Continuous
 62
     1
100
AcDbLine
 10
746.50000000011
 20
816.26629734847
 30
0.0
 11
746.50000000011
 21
816.7662973484699
 31
0.0
  0
LINE
  5
2FD
330
A
100
AcDbEntity
  8
LEVEL001
  6
Continuous
 62
     1
100
AcDbLine
 10
746.50000000011
 20
816.7662973484699
 30
0.0
 11
744.50000000011
 21
816.26629734847
 31
0.0
  0
LINE
  5
2FE
330
A
100
AcDbEntity
  8
LEVEL001
  6
Continuous
 62
     1
100
AcDbLine
 10
744.50000000011
 20
816.26629734847
 30
0.0
 11
742.00000000011
 21
816.26629734847
 31
0.0
  0
LINE
  5
2FF
330
A
100
AcDbEntity
  8
LEVEL001
  6
Continuous
 62
     1
100
AcDbLine
 10
742.00000000011
 20
816.26629734847
 30
0.0
 11
742.00000000011
 21
790.76629734859
 31
0.0
  0
LINE
  5
300
330
A
100
AcDbEntity
  8
LEVEL001
  6
Continuous
 62
     1
100
AcDbLine
 10
742.00000000011
 20
790.76629734859
 30
0.0
 11
741.50000000003
 21
790.2662973485099
 31
0.0
  0
LINE
  5
301
330
A
100
AcDbEntity
  8
LEVEL001
  6
Continuous
 62
     1
100
AcDbLine
 10
741.50000000003
 20
790.2662973485099
 30
0.0
 11
742.00000000011
 21
789.76629734843
 31
0.0
  0
LINE
  5
302
330
A
100
AcDbEntity
  8
LEVEL001
  6
Continuous
 62
     1
100
AcDbLine
 10
742.00000000011
 20
789.76629734843
 30
0.0
 11
742.00000000011
 21
764.2662973484699
 31
0.0
  0
LINE
  5
303
330
A
100
AcDbEntity
  8
LEVEL001
  6
Continuous
 62
     1
100
AcDbLine
 10
751.00000000011
 20
766.26629734847
 30
0.0
 11
751.00000000011
 21
790.2662973484699
 31
0.0
  0
LINE
  5
304
330
A
100
AcDbEntity
  8
LEVEL001
  6
Continuous
 62
     1
100
AcDbLine
 10
744.50000000011
 20
764.2662973484699
 30
0.0
 11
746.50000000011
 21
763.7662973484699
 31
0.0
  0
LINE
  5
305
330
A
100
AcDbEntity
  8
LEVEL001
  6
Continuous
 62
     1
100
AcDbLine
 10
746.50000000011
 20
763.7662973484699
 30
0.0
 11
746.50000000011
 21
764.2662973484699
 31
0.0
  0
LINE
  5
306
330
A
100
AcDbEntity
  8
LEVEL001
  6
Continuous
 62
     1
100
AcDbLine
 10
746.50000000011
 20
764.2662973484699
 30
0.0
 11
748.50000000011
 21
763.7662973484699
 31
0.0
  0
LINE
  5
307
330
A
100
AcDbEntity
  8
LEVEL001
  6
Continuous
 62
     1
100
AcDbLine
 10
748.50000000011
 20
763.7662973484699
 30
0.0
 11
748.50000000011
 21
764.2662973484699
 31
0.0
  0
LINE
  5
308
330
A
100
AcDbEntity
  8
LEVEL001
  6
Continuous
 62
     1
100
AcDbLine
 10
748.50000000011
 20
764.2662973484699
 30
0.0
 11
751.00000000011
 21
764.2662973484699
 31
0.0
  0
LINE
  5
309
330
A
100
AcDbEntity
  8
LEVEL001
  6
Continuous
 62
     1
100
AcDbLine
 10
751.00000000011
 20
766.26629734847
 30
0.0
 11
743.50000000011
 21
766.26629734847
 31
0.0
  0
ARC
  5
30A
330
A
100
AcDbEntity
  8
LEVEL001
  6
Continuous
 62
     1
100
AcDbCircle
 10
743.50000000011
 20
765.26629734843
 30
0.0
 40
1.0
100
AcDbArc
 50
90.0
 51
179.99999999769
  0
LINE
  5
30B
330
A
100
AcDbEntity
  8
LEVEL001
  6
Continuous
 62
     1
100
AcDbLine
 10
743.50000000011
 20
764.2662973484699
 30
0.0
 11
744.50000000011
 21
764.2662973484699
 31
0.0
  0
ARC
  5
30C
330
A
100
AcDbEntity
  8
LEVEL001
  6
Continuous
 62
     1
100
AcDbCircle
 10
743.50000000006
 20
765.2662973484699
 30
0.0
 40
1.0
100
AcDbArc
 50
179.99999999997
 51
270.00000000307
  0
ARC
  5
30D
330
A
100
AcDbEntity
  8
LEVEL001
  6
Continuous
 62
     1
100
AcDbCircle
 10
750.00000000011
 20
763.2662973484
 30
0.0
 40
0.5
100
AcDbArc
 50
270.0000000001
 51
0.0
  0
LINE
  5
30E
330
A
100
AcDbEntity
  8
LEVEL001
  6
Continuous
 62
     1
100
AcDbLine
 10
750.00000000011
 20
762.7662973484699
 30
0.0
 11
740.00000000011
 21
762.7662973484699
 31
0.0
  0
LINE
  5
30F
330
A
100
AcDbEntity
  8
LEVEL001
  6
Continuous
 62
     1
100
AcDbLine
 10
748.50000000011
 20
764.2662973484699
 30
0.0
 11
750.1510847397399
 21
763.74292445791
 31
0.0
  0
ARC
  5
310
330
A
100
AcDbEntity
  8
LEVEL001
  6
Continuous
 62
     1
100
AcDbCircle
 10
750.0000000001299
 20
763.2662973484699
 30
0.0
 40
0.5
100
AcDbArc
 50
0.0
 51
72.412046228113
  0
LINE
  5
311
330
A
100
AcDbEntity
  8
LEVEL001
  6
Continuous
 62
     1
100
AcDbLine
 10
748.50000000011
 20
764.2662973484699
 30
0.0
 11
748.50000000011
 21
763.7662973484699
 31
0.0
  0
LINE
  5
312
330
A
100
AcDbEntity
  8
LEVEL001
  6
Continuous
 62
     1
100
AcDbLine
 10
748.50000000011
 20
763.7662973484699
 30
0.0
 11
746.50000000011
 21
764.2662973484699
 31
0.0
  0
LINE
  5
313
330
A
100
AcDbEntity
  8
LEVEL001
  6
Continuous
 62
     1
100
AcDbLine
 10
746.50000000011
 20
764.2662973484699
 30
0.0
 11
746.50000000011
 21
763.7662973484699
 31
0.0
  0
LINE
  5
314
330
A
100
AcDbEntity
  8
LEVEL001
  6
Continuous
 62
     1
100
AcDbLine
 10
746.50000000011
 20
763.7662973484699
 30
0.0
 11
744.50000000011
 21
764.2662973484699
 31
0.0
  0
LINE
  5
315
330
A
100
AcDbEntity
  8
LEVEL001
  6
Continuous
 62
     1
100
AcDbLine
 10
744.50000000011
 20
764.2662973484699
 30
0.0
 11
742.00000000011
 21
764.2662973484699
 31
0.0
  0
LINE
  5
316
330
A
100
AcDbEntity
  8
LEVEL001
  6
Continuous
 62
     1
100
AcDbLine
 10
753.3000000001099
 20
721.2662973484699
 30
0.0
 11
753.3000000001099
 21
790.2662973484699
 31
0.0
  0
LINE
  5
317
330
A
100
AcDbEntity
  8
LEVEL001
  6
Continuous
 62
     1
100
AcDbLine
 10
751.00000000011
 20
722.56629734847
 30
0.0
 11
751.00000000011
 21
764.2662973484699
 31
0.0
  0
LINE
  5
318
330
A
100
AcDbEntity
  8
LEVEL001
  6
Continuous
 62
     1
100
AcDbLine
 10
740.00000000011
 20
725.56629734847
 30
0.0
 11
746.30000000011
 21
725.56629734847
 31
0.0
  0
LINE
  5
319
330
A
100
AcDbEntity
  8
LEVEL001
  6
Continuous
 62
     1
100
AcDbLine
 10
749.3000000001099
 20
722.56629734847
 30
0.0
 11
749.3000000001099
 21
721.5662973484699
 31
0.0
  0
ARC
  5
31A
330
A
100
AcDbEntity
  8
LEVEL001
  6
Continuous
 62
     1
100
AcDbCircle
 10
746.3000000001
 20
722.56629734847
 30
0.0
 40
3.0
100
AcDbArc
 50
0.0
 51
89.99999999987799
  0
LINE
  5
31B
330
A
100
AcDbEntity
  8
LEVEL001
  6
Continuous
 62
     1
100
AcDbLine
 10
740.00000000011
 20
715.2662973484699
 30
0.0
 11
755.00000000011
 21
715.2662973484699
 31
0.0
  0
ARC
  5
31C
330
A
100
AcDbEntity
  8
LEVEL001
  6
Continuous
 62
     1
100
AcDbCircle
 10
755.00000000011
 20
718.2662973484599
 30
0.0
 40
3.0
100
AcDbArc
 50
270.0
 51
0.0
  0
LINE
  5
31D
330
A
100
AcDbEntity
  8
LEVEL001
  6
Continuous
 62
     1
100
AcDbLine
 10
743.30000000011
 20
719.2662973484699
 30
0.0
 11
751.30000000011
 21
719.2662973484699
 31
0.0
  0
ARC
  5
31E
330
A
100
AcDbEntity
  8
LEVEL001
  6
Continuous
 62
     1
100
AcDbCircle
 10
751.30000000011
 20
721.2662973484599
 30
0.0
 40
2.0
100
AcDbArc
 50
270.0
 51
0.0
  0
LINE
  5
31F
330
A
100
AcDbEntity
  8
LEVEL001
  6
Continuous
 62
     1
100
AcDbLine
 10
743.30000000011
 20
719.2662973484699
 30
0.0
 11
743.30000000011
 21
721.5662973484699
 31
0.0
  0
LINE
  5
320
330
A
100
AcDbEntity
  8
LEVEL001
  6
Continuous
 62
     1
100
AcDbLine
 10
743.30000000011
 20
721.5662973484699
 30
0.0
 11
750.00000000011
 21
721.5662973484699
 31
0.0
  0
ARC
  5
321
330
A
100
AcDbEntity
  8
LEVEL001
  6
Continuous
 62
     1
100
AcDbCircle
 10
750.00000000011
 20
722.56629734848
 30
0.0
 40
1.0
100
AcDbArc
 50
270.0
 51
0.0
  0
LINE
  5
322
330
A
100
AcDbEntity
  8
LEVEL001
  6
Continuous
 62
     1
100
AcDbLine
 10
1094.075286416
 20
935.2662973484699
 30
0.0
 11
1092.0752864158
 21
937.2662973484699
 31
0.0
  0
ARC
  5
323
330
A
100
AcDbEntity
  8
LEVEL001
  6
Continuous
 62
     1
100
AcDbCircle
 10
1111.0752864158
 20
936.2662973485399
 30
0.0
 40
1.0
100
AcDbArc
 50
270.0
 51
0.0
  0
LINE
  5
324
330
A
100
AcDbEntity
  8
LEVEL001
  6
Continuous
 62
     1
100
AcDbLine
 10
1092.0752864158
 20
937.2662973484699
 30
0.0
 11
1092.0752864158
 21
955.2662973484698
 31
0.0
  0
LINE
  5
325
330
A
100
AcDbEntity
  8
LEVEL001
  6
Continuous
 62
     1
100
AcDbLine
 10
1112.0752864158
 20
954.2662973484699
 30
0.0
 11
1112.0752864158
 21
936.2662973484699
 31
0.0
  0
ARC
  5
326
330
A
100
AcDbEntity
  8
LEVEL001
  6
Continuous
 62
     1
100
AcDbCircle
 10
1111.0752864159
 20
954.2662973484699
 30
0.0
 40
1.0
100
AcDbArc
 50
0.0
 51
90.00000000229302
  0
LINE
  5
327
330
A
100
AcDbEntity
  8
LEVEL001
  6
Continuous
 62
     1
100
AcDbLine
 10
1092.0752864158
 20
955.2662973484698
 30
0.0
 11
1111.0752864158
 21
955.2662973484698
 31
0.0
  0
LINE
  5
328
330
A
100
AcDbEntity
  8
LEVEL001
  6
Continuous
 62
     1
100
AcDbLine
 10
1111.0752864158
 20
935.2662973484699
 30
0.0
 11
1094.075286416
 21
935.2662973484699
 31
0.0
  0
LINE
  5
329
330
A
100
AcDbEntity
  8
LEVEL001
  6
Continuous
 62
     1
100
AcDbLine
 10
849.2398210577999
 20
937.2662973484699
 30
0.0
 11
1092.0752864158
 21
937.2662973484699
 31
0.0
  0
ARC
  5
32A
330
A
100
AcDbEntity
  8
LEVEL001
  6
Continuous
 62
     1
100
AcDbCircle
 10
1111.0752864159
 20
866.26629734847
 30
0.0
 40
1.0
100
AcDbArc
 50
0.0
 51
90.00000000229302
  0
LINE
  5
32B
330
A
100
AcDbEntity
  8
LEVEL001
  6
Continuous
 62
     1
100
AcDbLine
 10
1112.0752864158
 20
866.26629734847
 30
0.0
 11
1112.0752864158
 21
714.2662973484699
 31
0.0
  0
LINE
  5
32C
330
A
100
AcDbEntity
  8
LEVEL001
  6
Continuous
 62
     1
100
AcDbLine
 10
1111.0752864158
 20
713.2662973484699
 30
0.0
 11
1094.075286416
 21
713.2662973484699
 31
0.0
  0
LINE
  5
32D
330
A
100
AcDbEntity
  8
LEVEL001
  6
Continuous
 62
     1
100
AcDbLine
 10
1094.075286416
 20
713.2662973484699
 30
0.0
 11
1092.0752864158
 21
715.2662973484699
 31
0.0
  0
LINE
  5
32E
330
A
100
AcDbEntity
  8
LEVEL001
  6
Continuous
 62
     1
100
AcDbLine
 10
1092.0752864158
 20
715.2662973484699
 30
0.0
 11
1092.0752864158
 21
865.26629734847
 31
0.0
  0
LINE
  5
32F
330
A
100
AcDbEntity
  8
LEVEL001
  6
Continuous
 62
     1
100
AcDbLine
 10
1092.0752864158
 20
865.26629734847
 30
0.0
 11
1094.075286416
 21
867.2662973484699
 31
0.0
  0
LINE
  5
330
330
A
100
AcDbEntity
  8
LEVEL001
  6
Continuous
 62
     1
100
AcDbLine
 10
1094.075286416
 20
867.2662973484699
 30
0.0
 11
1111.0752864158
 21
867.2662973484699
 31
0.0
  0
ARC
  5
331
330
A
100
AcDbEntity
  8
LEVEL001
  6
Continuous
 62
     1
100
AcDbCircle
 10
1111.0752864158
 20
714.2662973485499
 30
0.0
 40
1.0
100
AcDbArc
 50
270.00000000003
 51
0.0
  0
ARC
  5
332
330
A
100
AcDbEntity
  8
LEVEL001
  6
Continuous
 62
     1
100
AcDbCircle
 10
1110.0752864158
 20
866.26629734847
 30
0.0
 40
0.2
100
AcDbArc
 50
118.82885114219
 51
298.82885114219
  0
ARC
  5
333
330
A
100
AcDbEntity
  8
LEVEL001
  6
Continuous
 62
     1
100
AcDbCircle
 10
1110.0752864158
 20
866.26629734847
 30
0.0
 40
0.2
100
AcDbArc
 50
298.82885114219
 51
118.82885114219
  0
LINE
  5
334
330
A
100
AcDbEntity
  8
LEVEL001
  6
Continuous
 62
     1
100
AcDbLine
 10
1109.8824084658
 20
866.61672294173
 30
0.0
 11
1109.6895305158
 21
866.96714853498
 31
0.0
  0
LINE
  5
335
330
A
100
AcDbEntity
  8
LEVEL001
  6
Continuous
 62
     1
100
AcDbLine
 10
1092.0752864158
 20
865.26629734847
 30
0.0
 11
849.2398210577999
 21
865.26629734847
 31
0.0
  0
LINE
  5
336
330
A
100
AcDbEntity
  8
LEVEL001
  6
Continuous
 62
     1
100
AcDbLine
 10
849.2398210577999
 20
715.2662973484699
 30
0.0
 11
1092.0752864158
 21
715.2662973484699
 31
0.0
  0
LINE
  5
337
330
A
100
AcDbEntity
  8
LEVEL001
  6
Continuous
 62
     3
370
    30
100
AcDbLine
 10
1137.2143210198
 20
955.2662973484698
 30
0.0
 11
802.79863222275
 21
955.2662973484698
 31
0.0
  0
LINE
  5
338
330
A
100
AcDbEntity
  8
LEVEL001
  6
Continuous
 62
     1
100
AcDbLine
 10
164.00000000011
 20
803.2662973484699
 30
0.0
 11
164.00000000011
 21
790.76629734859
 31
0.0
  0
LINE
  5
339
330
A
100
AcDbEntity
  8
LEVEL001
  6
Continuous
 62
     1
100
AcDbLine
 10
164.00000000011
 20
790.76629734859
 30
0.0
 11
163.50000000003
 21
790.2662973485099
 31
0.0
  0
LINE
  5
33A
330
A
100
AcDbEntity
  8
LEVEL001
  6
Continuous
 62
     1
100
AcDbLine
 10
164.00000000011
 20
789.76629734843
 30
0.0
 11
164.00000000011
 21
778.26629734843
 31
0.0
  0
LINE
  5
33B
330
A
100
AcDbEntity
  8
LEVEL001
  6
Continuous
 62
     1
100
AcDbLine
 10
163.50000000003
 20
790.2662973485099
 30
0.0
 11
164.00000000011
 21
789.76629734843
 31
0.0
  0
TEXT
  5
914
330
A
100
AcDbEntity
  8
LEVEL001
 62
     8
100
AcDbText
 10
1235.1462109932
 20
820.15382611449
 30
0.0
 40
14.0
  1
取付用プレート(Ｐ１)
 41
0.8
100
AcDbText
  0
TEXT
  5
915
330
A
100
AcDbEntity
  8
LEVEL001
 62
     8
100
AcDbText
 10
1235.1462109932
 20
801.4871594478199
 30
0.0
 40
14.0
  1
　･材質:アルミ
 41
0.8
100
AcDbText
  0
TEXT
  5
916
330
A
100
AcDbEntity
  8
LEVEL001
 62
     8
100
AcDbText
 10
1235.1462109932
 20
782.82049278116
 30
0.0
 40
14.0
  1
　
100
AcDbText
  0
TEXT
  5
917
330
A
100
AcDbEntity
  8
LEVEL001
 62
     8
100
AcDbText
 10
1235.1462109932
 20
764.15382611449
 30
0.0
 40
14.0
  1
●ＧＫ１００
 41
0.8
100
AcDbText
  0
TEXT
  5
918
330
A
100
AcDbEntity
  8
LEVEL001
 62
     8
100
AcDbText
 10
1235.1462109932
 20
745.4871594478199
 30
0.0
 40
14.0
  1
　･エンドキャップ(ＫＣ１００)･･･ＡＢＳ
 41
0.8
100
AcDbText
  0
TEXT
  5
919
330
A
100
AcDbEntity
  8
LEVEL001
 62
     8
100
AcDbText
 10
1235.1462109932
 20
726.82049278116
 30
0.0
 40
14.0
  1
　
100
AcDbText
  0
TEXT
  5
91A
330
A
100
AcDbEntity
  8
LEVEL001
 62
     8
100
AcDbText
 10
1235.1462109932
 20
708.15382611449
 30
0.0
 40
14.0
  1
●ＧＫ１５０
 41
0.8
100
AcDbText
  0
TEXT
  5
91B
330
A
100
AcDbEntity
  8
LEVEL001
 62
     8
100
AcDbText
 10
1235.1462109932
 20
689.48715944782
 30
0.0
 40
14.0
  1
　･エンドキャップ(ＫＣ１５０)･･･ＡＢＳ
 41
0.8
100
AcDbText
  0
TEXT
  5
91C
330
A
100
AcDbEntity
  8
LEVEL001
 62
     8
100
AcDbText
 10
1235.1462109932
 20
670.82049278116
 30
0.0
 40
14.0
  1

 41
0.5
100
AcDbText
  0
TEXT
  5
91D
330
A
100
AcDbEntity
  8
LEVEL001
 62
     8
100
AcDbText
 10
1235.1462109932
 20
652.1538261144899
 30
0.0
 40
14.0
  1
●ＧＫ２００
 41
0.8
100
AcDbText
  0
TEXT
  5
91E
330
A
100
AcDbEntity
  8
LEVEL001
 62
     8
100
AcDbText
 10
1235.1462109932
 20
633.4871594478199
 30
0.0
 40
14.0
  1
　･エンドキャップ(ＫＣ２００)･･･ＡＢＳ
 41
0.8
100
AcDbText
  0
TEXT
  5
91F
330
A
100
AcDbEntity
  8
LEVEL001
 62
     8
100
AcDbText
 10
1235.1462109932
 20
614.82049278116
 30
0.0
 40
14.0
  1

 41
0.5
100
AcDbText
  0
TEXT
  5
920
330
A
100
AcDbEntity
  8
LEVEL001
 62
     8
100
AcDbText
 10
1235.1462109932
 20
596.15382611449
 30
0.0
 40
14.0
  1
仕上色
 41
0.8
100
AcDbText
  0
TEXT
  5
92A
330
A
100
AcDbEntity
  8
LEVEL001
 62
     8
100
AcDbText
 10
1216.5600000001
 20
290.4697217676
 30
0.0
 40
12.0
  1
　※本製品は予告無しに変更する事があります。
 41
0.8
 72
     1
 11
1345.2000000001
 21
296.4697217676
 31
0.0
100
AcDbText
 73
     2
  0
LWPOLYLINE
  5
92B
330
A
100
AcDbEntity
  8
LEVEL001
  6
Continuous
 62
     6
370
    15
100
AcDbPolyline
 90
        3
 70
     0
 43
0.0
 10
177.18790495436
 20
837.7982777621399
 10
195.00000000011
 20
870.2662973484699
 10
237.00000000011
 20
870.2662973484699
  0
LWPOLYLINE
  5
930
330
A
100
AcDbEntity
  8
LEVEL001
  6
Continuous
 62
     6
370
    15
100
AcDbPolyline
 90
        4
 70
     0
 43
0.0
 10
181.95912876557
 20
844.3055579675
 10
177.18790495436
 20
837.7982777621399
 10
180.11234520765
 20
845.3187113621799
 10
181.95912876557
 20
844.3055579675
  0
TEXT
  5
936
330
A
100
AcDbEntity
  8
LEVEL001
 62
     6
370
    15
100
AcDbText
 10
195.00000000011
 20
872.26629734847
 30
0.0
 40
12.0
  1
特殊樹脂
 41
0.8
100
AcDbText
  0
LWPOLYLINE
  5
937
330
A
100
AcDbEntity
  8
LEVEL001
  6
Continuous
 62
     6
370
    15
100
AcDbPolyline
 90
        3
 70
     0
 43
0.0
 10
173.89565970933
 20
745.7413437795199
 10
195.00000000011
 20
710.2662973484699
 10
217.00000000011
 20
710.2662973484699
  0
LWPOLYLINE
  5
93C
330
A
100
AcDbEntity
  8
LEVEL001
  6
Continuous
 62
     6
370
    15
100
AcDbPolyline
 90
        4
 70
     0
 43
0.0
 10
177.08069145383
 20
738.3275158132
 10
173.89565970933
 20
745.7413437795199
 10
178.8910040037
 20
739.40448274992
 10
177.08069145383
 20
738.3275158132
  0
TEXT
  5
942
330
A
100
AcDbEntity
  8
LEVEL001
 62
     6
370
    15
100
AcDbText
 10
195.00000000011
 20
712.26629734847
 30
0.0
 40
12.0
  1
芯金
 41
0.8
100
AcDbText
  0
LWPOLYLINE
  5
943
330
A
100
AcDbEntity
  8
LEVEL001
  6
Continuous
 62
     6
370
    15
100
AcDbPolyline
 90
        3
 70
     0
 43
0.0
 10
162.93949930373
 20
770.6760536681099
 10
146.68493135634
 20
750.59875479678
 10
84.68493135633599
 20
750.59875479678
  0
LWPOLYLINE
  5
948
330
A
100
AcDbEntity
  8
LEVEL001
  6
Continuous
 62
     6
370
    15
100
AcDbPolyline
 90
        4
 70
     0
 43
0.0
 10
157.08705017686
 20
765.12104587828
 10
162.93949930373
 20
770.6760536681099
 10
158.72420935674
 20
763.7956028841499
 10
157.08705017686
 20
765.12104587828
  0
TEXT
  5
94E
330
A
100
AcDbEntity
  8
LEVEL001
 62
     6
370
    15
100
AcDbText
 10
84.68493135633599
 20
752.5987547967799
 30
0.0
 40
12.0
  1
取付プレート
 41
0.8
100
AcDbText
  0
LWPOLYLINE
  5
94F
330
A
100
AcDbEntity
  8
LEVEL001
  6
Continuous
 62
     6
370
    15
100
AcDbPolyline
 90
        3
 70
     0
 43
0.0
 10
740.93949930373
 20
770.6760536681099
 10
724.68493135634
 20
750.59875479678
 10
662.68493135634
 20
750.59875479678
  0
LWPOLYLINE
  5
954
330
A
100
AcDbEntity
  8
LEVEL001
  6
Continuous
 62
     6
370
    15
100
AcDbPolyline
 90
        4
 70
     0
 43
0.0
 10
735.0870501768599
 20
765.12104587828
 10
740.93949930373
 20
770.6760536681099
 10
736.7242093567399
 20
763.7956028841499
 10
735.0870501768599
 20
765.12104587828
  0
TEXT
  5
95A
330
A
100
AcDbEntity
  8
LEVEL001
 62
     6
370
    15
100
AcDbText
 10
662.68493135634
 20
752.5987547967799
 30
0.0
 40
12.0
  1
取付プレート
 41
0.8
100
AcDbText
  0
LWPOLYLINE
  5
95B
330
A
100
AcDbEntity
  8
LEVEL001
  6
Continuous
 62
     6
370
    15
100
AcDbPolyline
 90
        3
 70
     0
 43
0.0
 10
755.1879049543499
 20
862.7982777621399
 10
773.00000000011
 20
895.2662973484699
 10
815.0000000001099
 20
895.2662973484699
  0
LWPOLYLINE
  5
960
330
A
100
AcDbEntity
  8
LEVEL001
  6
Continuous
 62
     6
370
    15
100
AcDbPolyline
 90
        4
 70
     0
 43
0.0
 10
759.9591287655699
 20
869.3055579675
 10
755.1879049543499
 20
862.7982777621399
 10
758.11234520765
 20
870.3187113621799
 10
759.9591287655699
 20
869.3055579675
  0
TEXT
  5
966
330
A
100
AcDbEntity
  8
LEVEL001
 62
     6
370
    15
100
AcDbText
 10
773.00000000011
 20
897.26629734847
 30
0.0
 40
12.0
  1
特殊樹脂
 41
0.8
100
AcDbText
  0
LWPOLYLINE
  5
967
330
A
100
AcDbEntity
  8
LEVEL001
  6
Continuous
 62
     6
370
    15
100
AcDbPolyline
 90
        3
 70
     0
 43
0.0
 10
751.43624671972
 20
720.7413437795199
 10
772.5405870104999
 20
685.2662973484699
 10
794.5405870104999
 20
685.2662973484699
  0
LWPOLYLINE
  5
96C
330
A
100
AcDbEntity
  8
LEVEL001
  6
Continuous
 62
     6
370
    15
100
AcDbPolyline
 90
        4
 70
     0
 43
0.0
 10
754.62127846423
 20
713.3275158132
 10
751.43624671972
 20
720.7413437795199
 10
756.43159101409
 20
714.40448274992
 10
754.62127846423
 20
713.3275158132
  0
TEXT
  5
972
330
A
100
AcDbEntity
  8
LEVEL001
 62
     6
370
    15
100
AcDbText
 10
772.5405870104999
 20
687.26629734847
 30
0.0
 40
12.0
  1
芯金
 41
0.8
100
AcDbText
  0
LWPOLYLINE
  5
973
330
A
100
AcDbEntity
  8
LEVEL001
  6
Continuous
 62
     6
370
    15
100
AcDbPolyline
 90
        3
 70
     0
 43
0.0
 10
162.93949930373
 20
256.36816164153
 10
146.68493135634
 20
236.29086277019
 10
84.68493135633599
 20
236.29086277019
  0
LWPOLYLINE
  5
978
330
A
100
AcDbEntity
  8
LEVEL001
  6
Continuous
 62
     6
370
    15
100
AcDbPolyline
 90
        4
 70
     0
 43
0.0
 10
157.08705017686
 20
250.8131538517
 10
162.93949930373
 20
256.36816164153
 10
158.72420935674
 20
249.48771085756
 10
157.08705017686
 20
250.8131538517
  0
TEXT
  5
97E
330
A
100
AcDbEntity
  8
LEVEL001
 62
     6
370
    15
100
AcDbText
 10
84.68493135633599
 20
238.29086277019
 30
0.0
 40
12.0
  1
取付プレート
 41
0.8
100
AcDbText
  0
LWPOLYLINE
  5
97F
330
A
100
AcDbEntity
  8
LEVEL001
  6
Continuous
 62
     6
370
    15
100
AcDbPolyline
 90
        3
 70
     0
 43
0.0
 10
177.18790495435
 20
373.49038573555
 10
195.00000000011
 20
405.9584053218899
 10
237.00000000011
 20
405.9584053218899
  0
LWPOLYLINE
  5
984
330
A
100
AcDbEntity
  8
LEVEL001
  6
Continuous
 62
     6
370
    15
100
AcDbPolyline
 90
        4
 70
     0
 43
0.0
 10
181.95912876557
 20
379.99766594091
 10
177.18790495435
 20
373.49038573555
 10
180.11234520765
 20
381.0108193356
 10
181.95912876557
 20
379.99766594091
  0
TEXT
  5
98A
330
A
100
AcDbEntity
  8
LEVEL001
 62
     6
370
    15
100
AcDbText
 10
195.00000000011
 20
407.95840532189
 30
0.0
 40
12.0
  1
特殊樹脂
 41
0.8
100
AcDbText
  0
LWPOLYLINE
  5
98B
330
A
100
AcDbEntity
  8
LEVEL001
  6
Continuous
 62
     6
370
    15
100
AcDbPolyline
 90
        3
 70
     0
 43
0.0
 10
172.80771579866
 20
191.66067346106
 10
195.00000000011
 20
145.95840532189
 10
217.00000000011
 20
145.95840532189
  0
LWPOLYLINE
  5
990
330
A
100
AcDbEntity
  8
LEVEL001
  6
Continuous
 62
     6
370
    15
100
AcDbPolyline
 90
        4
 70
     0
 43
0.0
 10
175.35475958115
 20
184.00418338415
 10
172.80771579866
 20
191.66067346106
 10
177.2496166194
 20
184.92429539666
 10
175.35475958115
 20
184.00418338415
  0
TEXT
  5
996
330
A
100
AcDbEntity
  8
LEVEL001
 62
     6
370
    15
100
AcDbText
 10
195.00000000011
 20
147.95840532189
 30
0.0
 40
12.0
  1
芯金
 41
0.8
100
AcDbText
  0
LINE
  5
997
330
A
100
AcDbEntity
  8
LEVEL001
  6
Continuous
 62
     6
370
    15
100
AcDbLine
 10
162.00000000011
 20
870.2662973484699
 30
0.0
 11
180.00000000011
 21
870.2662973484699
 31
0.0
  0
LINE
  5
998
330
A
100
AcDbEntity
  8
LEVEL001
  6
Continuous
 62
     6
370
    15
100
AcDbLine
 10
180.00000000011
 20
845.2662973484699
 30
0.0
 11
180.00000000011
 21
874.26629734847
 31
0.0
  0
CIRCLE
  5
999
330
A
100
AcDbEntity
  8
LEVEL001
  6
Continuous
 62
     6
370
    15
100
AcDbCircle
 10
162.00000000011
 20
870.2662973484699
 30
0.0
 40
0.8
  0
CIRCLE
  5
99A
330
A
100
AcDbEntity
  8
LEVEL001
  6
Continuous
 62
     6
370
    15
100
AcDbCircle
 10
180.00000000011
 20
870.2662973484699
 30
0.0
 40
0.8
  0
TEXT
  5
99B
330
A
100
AcDbEntity
  8
LEVEL001
 62
     6
370
    15
100
AcDbText
 10
160.00000000011
 20
872.26629734847
 30
0.0
 40
12.0
  1
１８
 41
0.8
100
AcDbText
  0
LINE
  5
99C
330
A
100
AcDbEntity
  8
LEVEL001
  6
Continuous
 62
     6
370
    15
100
AcDbLine
 10
210.00000000011
 20
840.26629734847
 30
0.0
 11
210.00000000011
 21
740.2662973484699
 31
0.0
  0
LINE
  5
99D
330
A
100
AcDbEntity
  8
LEVEL001
  6
Continuous
 62
     6
370
    15
100
AcDbLine
 10
185.00000000011
 20
840.26629734847
 30
0.0
 11
214.00000000011
 21
840.26629734847
 31
0.0
  0
LINE
  5
99E
330
A
100
AcDbEntity
  8
LEVEL001
  6
Continuous
 62
     6
370
    15
100
AcDbLine
 10
185.00000000011
 20
740.2662973484699
 30
0.0
 11
214.00000000011
 21
740.2662973484699
 31
0.0
  0
CIRCLE
  5
99F
330
A
100
AcDbEntity
  8
LEVEL001
  6
Continuous
 62
     6
370
    15
100
AcDbCircle
 10
210.00000000011
 20
840.26629734847
 30
0.0
 40
0.8
  0
CIRCLE
  5
9A0
330
A
100
AcDbEntity
  8
LEVEL001
  6
Continuous
 62
     6
370
    15
100
AcDbCircle
 10
210.00000000011
 20
740.2662973484699
 30
0.0
 40
0.8
  0
TEXT
  5
9A1
330
A
100
AcDbEntity
  8
LEVEL001
 62
     6
370
    15
100
AcDbText
 10
208.00000000011
 20
774.2662973484699
 30
0.0
 40
12.0
  1
１００
 50
90.0
 41
0.8
100
AcDbText
  0
LINE
  5
9A2
330
A
100
AcDbEntity
  8
LEVEL001
  6
Continuous
 62
     6
370
    15
100
AcDbLine
 10
758.00000000011
 20
895.2662973484699
 30
0.0
 11
740.00000000011
 21
895.2662973484699
 31
0.0
  0
LINE
  5
9A3
330
A
100
AcDbEntity
  8
LEVEL001
  6
Continuous
 62
     6
370
    15
100
AcDbLine
 10
758.00000000011
 20
869.2662973484699
 30
0.0
 11
758.00000000011
 21
899.26629734847
 31
0.0
  0
CIRCLE
  5
9A4
330
A
100
AcDbEntity
  8
LEVEL001
  6
Continuous
 62
     6
370
    15
100
AcDbCircle
 10
758.00000000011
 20
895.2662973484699
 30
0.0
 40
0.8
  0
CIRCLE
  5
9A5
330
A
100
AcDbEntity
  8
LEVEL001
  6
Continuous
 62
     6
370
    15
100
AcDbCircle
 10
740.00000000011
 20
895.2662973484699
 30
0.0
 40
0.8
  0
TEXT
  5
9A6
330
A
100
AcDbEntity
  8
LEVEL001
 62
     6
370
    15
100
AcDbText
 10
738.00000000011
 20
897.26629734847
 30
0.0
 40
12.0
  1
１８
 41
0.8
100
AcDbText
  0
LINE
  5
9A7
330
A
100
AcDbEntity
  8
LEVEL001
  6
Continuous
 62
     6
370
    15
100
AcDbLine
 10
787.5405870104999
 20
865.26629734847
 30
0.0
 11
787.5405870104999
 21
715.2662973484699
 31
0.0
  0
LINE
  5
9A8
330
A
100
AcDbEntity
  8
LEVEL001
  6
Continuous
 62
     6
370
    15
100
AcDbLine
 10
762.00000000011
 20
865.26629734847
 30
0.0
 11
791.5405870104999
 21
865.26629734847
 31
0.0
  0
LINE
  5
9A9
330
A
100
AcDbEntity
  8
LEVEL001
  6
Continuous
 62
     6
370
    15
100
AcDbLine
 10
763.00000000011
 20
715.2662973484699
 30
0.0
 11
791.5405870104999
 21
715.2662973484699
 31
0.0
  0
CIRCLE
  5
9AA
330
A
100
AcDbEntity
  8
LEVEL001
  6
Continuous
 62
     6
370
    15
100
AcDbCircle
 10
787.5405870104999
 20
865.26629734847
 30
0.0
 40
0.8
  0
CIRCLE
  5
9AB
330
A
100
AcDbEntity
  8
LEVEL001
  6
Continuous
 62
     6
370
    15
100
AcDbCircle
 10
787.5405870104999
 20
715.2662973484699
 30
0.0
 40
0.8
  0
TEXT
  5
9AC
330
A
100
AcDbEntity
  8
LEVEL001
 62
     6
370
    15
100
AcDbText
 10
785.5405870104999
 20
774.2662973484699
 30
0.0
 40
12.0
  1
１５０
 50
90.0
 41
0.8
100
AcDbText
  0
LINE
  5
9AD
330
A
100
AcDbEntity
  8
LEVEL001
  6
Continuous
 62
     6
370
    15
100
AcDbLine
 10
162.00000000011
 20
405.9584053218899
 30
0.0
 11
180.00000000011
 21
405.9584053218899
 31
0.0
  0
LINE
  5
9AE
330
A
100
AcDbEntity
  8
LEVEL001
  6
Continuous
 62
     6
370
    15
100
AcDbLine
 10
180.00000000011
 20
379.95840532189
 30
0.0
 11
180.00000000011
 21
409.9584053218899
 31
0.0
  0
CIRCLE
  5
9AF
330
A
100
AcDbEntity
  8
LEVEL001
  6
Continuous
 62
     6
370
    15
100
AcDbCircle
 10
162.00000000011
 20
405.9584053218899
 30
0.0
 40
0.8
  0
CIRCLE
  5
9B0
330
A
100
AcDbEntity
  8
LEVEL001
  6
Continuous
 62
     6
370
    15
100
AcDbCircle
 10
180.00000000011
 20
405.9584053218899
 30
0.0
 40
0.8
  0
TEXT
  5
9B1
330
A
100
AcDbEntity
  8
LEVEL001
 62
     6
370
    15
100
AcDbText
 10
160.00000000011
 20
407.95840532189
 30
0.0
 40
12.0
  1
１８
 41
0.8
100
AcDbText
  0
LINE
  5
9B2
330
A
100
AcDbEntity
  8
LEVEL001
  6
Continuous
 62
     6
370
    15
100
AcDbLine
 10
210.00000000011
 20
375.95840532189
 30
0.0
 11
210.00000000011
 21
175.95840532189
 31
0.0
  0
LINE
  5
9B3
330
A
100
AcDbEntity
  8
LEVEL001
  6
Continuous
 62
     6
370
    15
100
AcDbLine
 10
184.00000000011
 20
375.95840532189
 30
0.0
 11
214.00000000011
 21
375.95840532189
 31
0.0
  0
LINE
  5
9B4
330
A
100
AcDbEntity
  8
LEVEL001
  6
Continuous
 62
     6
370
    15
100
AcDbLine
 10
185.00000000011
 20
175.95840532189
 30
0.0
 11
214.00000000011
 21
175.95840532189
 31
0.0
  0
CIRCLE
  5
9B5
330
A
100
AcDbEntity
  8
LEVEL001
  6
Continuous
 62
     6
370
    15
100
AcDbCircle
 10
210.00000000011
 20
375.95840532189
 30
0.0
 40
0.8
  0
CIRCLE
  5
9B6
330
A
100
AcDbEntity
  8
LEVEL001
  6
Continuous
 62
     6
370
    15
100
AcDbCircle
 10
210.00000000011
 20
175.95840532189
 30
0.0
 40
0.8
  0
TEXT
  5
9B7
330
A
100
AcDbEntity
  8
LEVEL001
 62
     6
370
    15
100
AcDbText
 10
208.00000000011
 20
259.95840532189
 30
0.0
 40
12.0
  1
２００
 50
90.0
 41
0.8
100
AcDbText
  0
LWPOLYLINE
  5
9B8
330
A
100
AcDbEntity
  8
LEVEL001
  6
Continuous
 62
     6
370
    15
100
AcDbPolyline
 90
        3
 70
     0
 43
0.0
 10
527.78793635181
 20
492.89649270653
 10
544.0752864158199
 20
475.08598564326
 10
616.0752864158199
 20
475.08598564326
  0
LWPOLYLINE
  5
9BD
330
A
100
AcDbEntity
  8
LEVEL001
  6
Continuous
 62
     6
370
    15
100
AcDbPolyline
 90
        4
 70
     0
 43
0.0
 10
532.40948269263
 20
486.2820704530399
 10
527.78793635181
 20
492.89649270653
 10
533.96394577135
 20
487.70359563673
 10
532.40948269263
 20
486.2820704530399
  0
TEXT
  5
9C3
330
A
100
AcDbEntity
  8
LEVEL001
 62
     6
370
    15
100
AcDbText
 10
544.0752864158199
 20
477.08598564326
 30
0.0
 40
12.0
  1
エンドキャップ
 41
0.8
100
AcDbText
  0
LWPOLYLINE
  5
9C4
330
A
100
AcDbEntity
  8
LEVEL001
  6
Continuous
 62
     6
370
    15
100
AcDbPolyline
 90
        3
 70
     0
 43
0.0
 10
527.78793635181
 20
182.93490148558
 10
544.0752864158199
 20
165.12439442231
 10
616.0752864158199
 20
165.12439442231
  0
LWPOLYLINE
  5
9C9
330
A
100
AcDbEntity
  8
LEVEL001
  6
Continuous
 62
     6
370
    15
100
AcDbPolyline
 90
        4
 70
     0
 43
0.0
 10
532.40948269263
 20
176.32047923209
 10
527.78793635181
 20
182.93490148558
 10
533.96394577135
 20
177.74200441578
 10
532.40948269263
 20
176.32047923209
  0
TEXT
  5
9CF
330
A
100
AcDbEntity
  8
LEVEL001
 62
     6
370
    15
100
AcDbText
 10
544.0752864158199
 20
167.12439442231
 30
0.0
 40
12.0
  1
エンドキャップ
 41
0.8
100
AcDbText
  0
LINE
  5
9D0
330
A
100
AcDbEntity
  8
LEVEL001
  6
Continuous
 62
     6
370
    15
100
AcDbLine
 10
514.07528641582
 20
147.59778154021
 30
0.0
 11
534.0752864158199
 21
147.59778154021
 31
0.0
  0
LINE
  5
9D1
330
A
100
AcDbEntity
  8
LEVEL001
  6
Continuous
 62
     6
370
    15
100
AcDbLine
 10
514.07528641582
 20
173.59778154021
 30
0.0
 11
514.07528641582
 21
143.59778154021
 31
0.0
  0
LINE
  5
9D2
330
A
100
AcDbEntity
  8
LEVEL001
  6
Continuous
 62
     6
370
    15
100
AcDbLine
 10
534.0752864158199
 20
171.59778154021
 30
0.0
 11
534.0752864158199
 21
143.59778154021
 31
0.0
  0
CIRCLE
  5
9D3
330
A
100
AcDbEntity
  8
LEVEL001
  6
Continuous
 62
     6
370
    15
100
AcDbCircle
 10
514.07528641582
 20
147.59778154021
 30
0.0
 40
0.8
  0
CIRCLE
  5
9D4
330
A
100
AcDbEntity
  8
LEVEL001
  6
Continuous
 62
     6
370
    15
100
AcDbCircle
 10
534.0752864158199
 20
147.59778154021
 30
0.0
 40
0.8
  0
TEXT
  5
9D5
330
A
100
AcDbEntity
  8
LEVEL001
 62
     6
370
    15
100
AcDbText
 10
513.0752864158199
 20
149.59778154021
 30
0.0
 40
12.0
  1
２０
 41
0.8
100
AcDbText
  0
LWPOLYLINE
  5
9D6
330
A
100
AcDbEntity
  8
LEVEL001
  6
Continuous
 62
     6
370
    15
100
AcDbPolyline
 90
        3
 70
     0
 43
0.0
 10
541.6144502634299
 20
919.4987317116599
 10
557.9018003274399
 20
901.6882246483801
 10
629.90180032744
 20
901.6882246483801
  0
LWPOLYLINE
  5
9DB
330
A
100
AcDbEntity
  8
LEVEL001
  6
Continuous
 62
     6
370
    15
100
AcDbPolyline
 90
        4
 70
     0
 43
0.0
 10
546.2359966042499
 20
912.88430945817
 10
541.6144502634299
 20
919.4987317116599
 10
547.7904596829699
 20
914.30583464186
 10
546.2359966042499
 20
912.88430945817
  0
TEXT
  5
9E1
330
A
100
AcDbEntity
  8
LEVEL001
 62
     6
370
    15
100
AcDbText
 10
557.9018003274399
 20
903.68822464838
 30
0.0
 40
12.0
  1
エンドキャップ
 41
0.8
100
AcDbText
  0
LWPOLYLINE
  5
9E2
330
A
100
AcDbEntity
  8
LEVEL001
  6
Continuous
 62
     6
370
    15
100
AcDbPolyline
 90
        3
 70
     0
 43
0.0
 10
541.6144502634299
 20
745.60341729384
 10
557.9018003274399
 20
727.7929102305599
 10
629.90180032744
 20
727.7929102305599
  0
LWPOLYLINE
  5
9E7
330
A
100
AcDbEntity
  8
LEVEL001
  6
Continuous
 62
     8
100
AcDbPolyline
 90
        4
 70
     0
 43
0.0
 10
546.2359966042499
 20
738.98899504035
 10
541.6144502634299
 20
745.60341729384
 10
547.7904596829699
 20
740.41052022404
 10
546.2359966042499
 20
738.98899504035
  0
TEXT
  5
9ED
330
A
100
AcDbEntity
  8
LEVEL001
 62
     6
370
    15
100
AcDbText
 10
557.9018003274399
 20
729.79291023056
 30
0.0
 40
12.0
  1
エンドキャップ
 41
0.8
100
AcDbText
  0
LINE
  5
9EE
330
A
100
AcDbEntity
  8
LEVEL001
  6
Continuous
 62
     6
370
    15
100
AcDbLine
 10
280.61412367032
 20
870.2662973484699
 30
0.0
 11
497.90180032744
 21
870.2662973484699
 31
0.0
  0
CIRCLE
  5
9EF
330
A
100
AcDbEntity
  8
LEVEL001
  6
Continuous
 62
     6
370
    15
100
AcDbCircle
 10
280.61412367032
 20
870.2662973484699
 30
0.0
 40
0.8
  0
TEXT
  5
9F0
330
A
100
AcDbEntity
  8
LEVEL001
 62
     6
370
    15
100
AcDbText
 10
363.25796199888
 20
872.26629734847
 30
0.0
 40
12.0
  1
＠≦４５０
 41
0.8
100
AcDbText
  0
LINE
  5
9F1
330
A
100
AcDbEntity
  8
LEVEL001
  6
Continuous
 62
     6
370
    15
100
AcDbLine
 10
497.90180032744
 20
870.2662973484699
 30
0.0
 11
547.90180032744
 21
870.2662973484699
 31
0.0
  0
LINE
  5
9F2
330
A
100
AcDbEntity
  8
LEVEL001
  6
Continuous
 62
     6
370
    15
100
AcDbLine
 10
497.90180032744
 20
844.2662973484699
 30
0.0
 11
497.90180032744
 21
874.26629734847
 31
0.0
  0
LINE
  5
9F3
330
A
100
AcDbEntity
  8
LEVEL001
  6
Continuous
 62
     6
370
    15
100
AcDbLine
 10
547.90180032744
 20
846.2662973484698
 30
0.0
 11
547.90180032744
 21
874.26629734847
 31
0.0
  0
CIRCLE
  5
9F4
330
A
100
AcDbEntity
  8
LEVEL001
  6
Continuous
 62
     6
370
    15
100
AcDbCircle
 10
497.90180032744
 20
870.2662973484699
 30
0.0
 40
0.8
  0
CIRCLE
  5
9F5
330
A
100
AcDbEntity
  8
LEVEL001
  6
Continuous
 62
     6
370
    15
100
AcDbCircle
 10
547.90180032744
 20
870.2662973484699
 30
0.0
 40
0.8
  0
TEXT
  5
9F6
330
A
100
AcDbEntity
  8
LEVEL001
 62
     6
370
    15
100
AcDbText
 10
511.9018003274399
 20
872.26629734847
 30
0.0
 40
12.0
  1
５０
 41
0.8
100
AcDbText
  0
LINE
  5
9F7
330
A
100
AcDbEntity
  8
LEVEL001
  6
Continuous
 62
     6
370
    15
100
AcDbLine
 10
527.90180032744
 20
710.2662973484699
 30
0.0
 11
547.90180032744
 21
710.2662973484699
 31
0.0
  0
LINE
  5
9F8
330
A
100
AcDbEntity
  8
LEVEL001
  6
Continuous
 62
     6
370
    15
100
AcDbLine
 10
527.90180032744
 20
736.2662973484699
 30
0.0
 11
527.90180032744
 21
706.2662973484699
 31
0.0
  0
LINE
  5
9F9
330
A
100
AcDbEntity
  8
LEVEL001
  6
Continuous
 62
     6
370
    15
100
AcDbLine
 10
547.90180032744
 20
734.2662973484699
 30
0.0
 11
547.90180032744
 21
706.2662973484699
 31
0.0
  0
CIRCLE
  5
9FA
330
A
100
AcDbEntity
  8
LEVEL001
  6
Continuous
 62
     6
370
    15
100
AcDbCircle
 10
527.90180032744
 20
710.2662973484699
 30
0.0
 40
0.8
  0
CIRCLE
  5
9FB
330
A
100
AcDbEntity
  8
LEVEL001
  6
Continuous
 62
     6
370
    15
100
AcDbCircle
 10
547.90180032744
 20
710.2662973484699
 30
0.0
 40
0.8
  0
TEXT
  5
9FC
330
A
100
AcDbEntity
  8
LEVEL001
 62
     6
370
    15
100
AcDbText
 10
526.90180032744
 20
712.26629734847
 30
0.0
 40
12.0
  1
２０
 41
0.8
100
AcDbText
  0
LWPOLYLINE
  5
9FD
330
A
100
AcDbEntity
  8
LEVEL001
  6
Continuous
 62
     6
370
    15
100
AcDbPolyline
 90
        3
 70
     0
 43
0.0
 10
1105.7879363518
 20
944.4987317116599
 10
1122.0752864158
 20
926.6882246483801
 10
1194.0752864158
 20
926.6882246483801
  0
LWPOLYLINE
  5
A02
330
A
100
AcDbEntity
  8
LEVEL001
  6
Continuous
 62
     6
370
    15
100
AcDbPolyline
 90
        4
 70
     0
 43
0.0
 10
1110.4094826926
 20
937.88430945817
 10
1105.7879363518
 20
944.4987317116599
 10
1111.9639457713
 20
939.30583464186
 10
1110.4094826926
 20
937.88430945817
  0
TEXT
  5
A08
330
A
100
AcDbEntity
  8
LEVEL001
 62
     6
370
    15
100
AcDbText
 10
1122.0752864158
 20
928.68822464838
 30
0.0
 40
12.0
  1
エンドキャップ
 41
0.8
100
AcDbText
  0
LWPOLYLINE
  5
A09
330
A
100
AcDbEntity
  8
LEVEL001
  6
Continuous
 62
     6
370
    15
100
AcDbPolyline
 90
        3
 70
     0
 43
0.0
 10
1105.7879363518
 20
720.60341729384
 10
1122.0752864158
 20
702.79291023057
 10
1194.0752864158
 20
702.79291023057
  0
LWPOLYLINE
  5
A0E
330
A
100
AcDbEntity
  8
LEVEL001
  6
Continuous
 62
     6
370
    15
100
AcDbPolyline
 90
        4
 70
     0
 43
0.0
 10
1110.4094826926
 20
713.98899504035
 10
1105.7879363518
 20
720.60341729384
 10
1111.9639457713
 20
715.41052022404
 10
1110.4094826926
 20
713.98899504035
  0
TEXT
  5
A14
330
A
100
AcDbEntity
  8
LEVEL001
 62
     6
370
    15
100
AcDbText
 10
1122.0752864158
 20
704.7929102305699
 30
0.0
 40
12.0
  1
エンドキャップ
 41
0.8
100
AcDbText
  0
LINE
  5
A15
330
A
100
AcDbEntity
  8
LEVEL001
  6
Continuous
 62
     6
370
    15
100
AcDbLine
 10
849.2398210577999
 20
895.2662973484699
 30
0.0
 11
1062.0752864158
 21
895.2662973484699
 31
0.0
  0
CIRCLE
  5
A16
330
A
100
AcDbEntity
  8
LEVEL001
  6
Continuous
 62
     6
370
    15
100
AcDbCircle
 10
849.2398210577999
 20
895.2662973484699
 30
0.0
 40
0.8
  0
TEXT
  5
A17
330
A
100
AcDbEntity
  8
LEVEL001
 62
     6
370
    15
100
AcDbText
 10
929.6575537368099
 20
897.26629734847
 30
0.0
 40
12.0
  1
＠≦４５０
 41
0.8
100
AcDbText
  0
LINE
  5
A18
330
A
100
AcDbEntity
  8
LEVEL001
  6
Continuous
 62
     6
370
    15
100
AcDbLine
 10
1062.0752864158
 20
895.2662973484699
 30
0.0
 11
1112.0752864158
 21
895.2662973484699
 31
0.0
  0
LINE
  5
A19
330
A
100
AcDbEntity
  8
LEVEL001
  6
Continuous
 62
     6
370
    15
100
AcDbLine
 10
1062.0752864158
 20
869.2662973484699
 30
0.0
 11
1062.0752864158
 21
899.26629734847
 31
0.0
  0
LINE
  5
A1A
330
A
100
AcDbEntity
  8
LEVEL001
  6
Continuous
 62
     6
370
    15
100
AcDbLine
 10
1112.0752864158
 20
871.2662973484698
 30
0.0
 11
1112.0752864158
 21
899.26629734847
 31
0.0
  0
CIRCLE
  5
A1B
330
A
100
AcDbEntity
  8
LEVEL001
  6
Continuous
 62
     6
370
    15
100
AcDbCircle
 10
1062.0752864158
 20
895.2662973484699
 30
0.0
 40
0.8
  0
CIRCLE
  5
A1C
330
A
100
AcDbEntity
  8
LEVEL001
  6
Continuous
 62
     6
370
    15
100
AcDbCircle
 10
1112.0752864158
 20
895.2662973484699
 30
0.0
 40
0.8
  0
TEXT
  5
A1D
330
A
100
AcDbEntity
  8
LEVEL001
 62
     6
370
    15
100
AcDbText
 10
1076.0752864158
 20
897.26629734847
 30
0.0
 40
12.0
  1
５０
 41
0.8
100
AcDbText
  0
LINE
  5
A1E
330
A
100
AcDbEntity
  8
LEVEL001
  6
Continuous
 62
     6
370
    15
100
AcDbLine
 10
1092.0752864158
 20
685.2662973484699
 30
0.0
 11
1112.0752864158
 21
685.2662973484699
 31
0.0
  0
LINE
  5
A1F
330
A
100
AcDbEntity
  8
LEVEL001
  6
Continuous
 62
     6
370
    15
100
AcDbLine
 10
1092.0752864158
 20
711.2662973484699
 30
0.0
 11
1092.0752864158
 21
681.2662973484699
 31
0.0
  0
LINE
  5
A20
330
A
100
AcDbEntity
  8
LEVEL001
  6
Continuous
 62
     6
370
    15
100
AcDbLine
 10
1112.0752864158
 20
709.2662973484699
 30
0.0
 11
1112.0752864158
 21
681.2662973484699
 31
0.0
  0
CIRCLE
  5
A21
330
A
100
AcDbEntity
  8
LEVEL001
  6
Continuous
 62
     6
370
    15
100
AcDbCircle
 10
1092.0752864158
 20
685.2662973484699
 30
0.0
 40
0.8
  0
CIRCLE
  5
A22
330
A
100
AcDbEntity
  8
LEVEL001
  6
Continuous
 62
     6
370
    15
100
AcDbCircle
 10
1112.0752864158
 20
685.2662973484699
 30
0.0
 40
0.8
  0
TEXT
  5
A23
330
A
100
AcDbEntity
  8
LEVEL001
 62
     6
370
    15
100
AcDbText
 10
1091.0752864158
 20
687.26629734847
 30
0.0
 40
12.0
  1
２０
 41
0.8
100
AcDbText
  0
LINE
  5
A24
330
A
100
AcDbEntity
  8
LEVEL001
  6
Continuous
 62
     6
370
    15
100
AcDbLine
 10
261.45424598469
 20
407.59778154021
 30
0.0
 11
484.07528641582
 21
407.59778154021
 31
0.0
  0
CIRCLE
  5
A25
330
A
100
AcDbEntity
  8
LEVEL001
  6
Continuous
 62
     6
370
    15
100
AcDbCircle
 10
261.45424598469
 20
407.59778154021
 30
0.0
 40
0.8
  0
TEXT
  5
A26
330
A
100
AcDbEntity
  8
LEVEL001
 62
     6
370
    15
100
AcDbText
 10
346.76476620026
 20
409.59778154021
 30
0.0
 40
12.0
  1
＠≦４５０
 41
0.8
100
AcDbText
  0
LINE
  5
A27
330
A
100
AcDbEntity
  8
LEVEL001
  6
Continuous
 62
     6
370
    15
100
AcDbLine
 10
484.07528641582
 20
407.59778154021
 30
0.0
 11
534.0752864158199
 21
407.59778154021
 31
0.0
  0
LINE
  5
A28
330
A
100
AcDbEntity
  8
LEVEL001
  6
Continuous
 62
     6
370
    15
100
AcDbLine
 10
484.07528641582
 20
381.59778154021
 30
0.0
 11
484.07528641582
 21
411.59778154021
 31
0.0
  0
LINE
  5
A29
330
A
100
AcDbEntity
  8
LEVEL001
  6
Continuous
 62
     6
370
    15
100
AcDbLine
 10
534.0752864158199
 20
383.59778154021
 30
0.0
 11
534.0752864158199
 21
411.59778154021
 31
0.0
  0
CIRCLE
  5
A2A
330
A
100
AcDbEntity
  8
LEVEL001
  6
Continuous
 62
     6
370
    15
100
AcDbCircle
 10
484.07528641582
 20
407.59778154021
 30
0.0
 40
0.8
  0
CIRCLE
  5
A2B
330
A
100
AcDbEntity
  8
LEVEL001
  6
Continuous
 62
     6
370
    15
100
AcDbCircle
 10
534.0752864158199
 20
407.59778154021
 30
0.0
 40
0.8
  0
TEXT
  5
A2C
330
A
100
AcDbEntity
  8
LEVEL001
 62
     6
370
    15
100
AcDbText
 10
498.0752864158199
 20
409.59778154021
 30
0.0
 40
12.0
  1
５０
 41
0.8
100
AcDbText
  0
TEXT
  5
1422
330
A
100
AcDbEntity
  8
LEVEL001
 62
     8
100
AcDbText
 10
1235.1462109932
 20
582.82049278116
 30
0.0
 40
10.0
  1
　　　Ｐ０１－パールグレイ　　　（白鼠）
 41
0.8
100
AcDbText
  0
TEXT
  5
1423
330
A
100
AcDbEntity
  8
LEVEL001
 62
     8
100
AcDbText
 10
1235.1462109932
 20
569.48715944782
 30
0.0
 40
10.0
  1
　　　Ｐ０３－グレイ　　　　　　（鼠）
 41
0.8
100
AcDbText
  0
TEXT
  5
1424
330
A
100
AcDbEntity
  8
LEVEL001
 62
     8
100
AcDbText
 10
1235.1462109932
 20
556.15382611449
 30
0.0
 40
10.0
  1
　　　Ｐ０６－アイボリー　　　　（白茶)
 41
0.8
100
AcDbText
  0
TEXT
  5
1425
330
A
100
AcDbEntity
  8
LEVEL001
 62
     8
100
AcDbText
 10
1235.1462109932
 20
542.82049278116
 30
0.0
 40
10.0
  1
　　　Ｐ０７－ダークアイボリー　 (薄黄)  ※受注生産
 41
0.8
100
AcDbText
  0
TEXT
  5
1426
330
A
100
AcDbEntity
  8
LEVEL001
 62
     8
100
AcDbText
 10
1235.1462109932
 20
529.4871594478199
 30
0.0
 40
10.0
  1
　　　Ｐ０９－ココアブラウン　　 (灰黄赤)※受注生産
 41
0.8
100
AcDbText
  0
TEXT
  5
1427
330
A
100
AcDbEntity
  8
LEVEL001
 62
     8
100
AcDbText
 10
1235.1462109932
 20
476.15382611449
 30
0.0
 40
10.0
  1
　　　Ｐ２０－プロセスブルー　　 (濃紺)　※受注生産
 41
0.8
100
AcDbText
  0
TEXT
  5
1428
330
A
100
AcDbEntity
  8
LEVEL001
 62
     8
100
AcDbText
 10
1235.1462109932
 20
516.4391604220127
 30
0.0
 40
10.0
  1
　　　Ｐ１１－チェコレート　　　 (濃茶)
 41
0.8
100
AcDbText
  0
TEXT
  5
1429
330
A
100
AcDbEntity
  8
LEVEL001
 62
     8
100
AcDbText
 10
1235.1462109932
 20
503.1058270886827
 30
0.0
 40
10.0
  1
　　　Ｐ１５－エンジ　　　　　　 (濃赤)　※受注生産
 41
0.8
100
AcDbText
  0
TEXT
  5
142A
330
A
100
AcDbEntity
  8
LEVEL001
 62
     8
100
AcDbText
 10
1235.1462109932
 20
489.5839877930487
 30
0.0
 40
10.0
  1
　　　Ｐ１６－リーフグリーン　　 (若葉)　※受注生産
 41
0.8
100
AcDbText
  0
TEXT
  5
142B
330
A
100
AcDbEntity
  8
LEVEL001
 62
     8
100
AcDbText
 10
1487.4203382433
 20
162.0
 30
0.0
 40
12.0
  1
平成２６年１２月　１日
 41
0.8
 72
     1
 11
1548.8603382433
 21
168.0
 31
0.0
100
AcDbText
 73
     2
  0
HATCH
  5
1479
330
A
100
AcDbEntity
  8
0
  6
Continuous
100
AcDbHatch
 10
0.0
 20
0.0
 30
0.0
210
0.0
220
0.0
230
1.0
  2
SOLID
 70
     1
 71
     1
 91
        9
 92
        7
 72
     0
 73
     1
 93
        6
 10
1297.8000000002
 20
1121.9
 10
1276.2000000002
 20
1121.9
 10
1250.6000000002
 20
1083.5
 10
1276.2000000002
 20
1045.1
 10
1297.8000000002
 20
1045.1
 10
1272.2000000002
 20
1083.5
 97
        4
330
14E
330
149
330
154
330
14F
 92
        7
 72
     0
 73
     1
 93
        6
 10
1330.2000000002
 20
1121.9
 10
1308.6000000002
 20
1121.9
 10
1283.0000000002
 20
1083.5
 10
1308.6000000002
 20
1045.1
 10
1330.2000000002
 20
1045.1
 10
1304.6000000002
 20
1083.5
 97
        4
330
15A
330
155
330
160
330
15B
 92
        7
 72
     0
 73
     1
 93
        3
 10
1333.4000000002
 20
1083.5
 10
1315.4000000002
 20
1083.5
 10
1333.4000000002
 20
1054.7
 97
        2
330
12C
330
133
 92
        7
 72
     1
 73
     1
 93
        6
 10
1376.6000000002
 20
1088.3
 42
0.0
 10
1347.8000000002
 20
1088.3
 42
0.0
 10
1347.8000000002
 20
1045.1
 42
0.0
 10
1362.2000000002
 20
1045.1
 42
0.0
 10
1362.2000000002
 20
1052.3
 42
0.0
 10
1376.6000000002
 20
1052.3
 42
1.0
 97
        3
330
101
330
C5
330
100
 92
       22
 72
     1
 73
     1
 93
        4
 10
1376.6000000002
 20
1073.9
 42
-1.0
 10
1376.6000000002
 20
1066.7
 42
0.0
 10
1362.2000000002
 20
1066.7
 42
0.0
 10
1362.2000000002
 20
1073.9
 42
0.0
 97
        4
330
104
330
103
330
102
330
105
 92
        7
 72
     0
 73
     1
 93
        4
 10
1434.2000000002
 20
1088.3
 10
1412.6000000002
 20
1088.3
 10
1383.8000000002
 20
1045.1
 10
1405.4000000002
 20
1045.1
 97
        2
330
D2
330
106
 92
       23
 72
     0
 73
     1
 93
        3
 10
1429.4000000002
 20
1072.4466769389
 10
1411.1688820409
 20
1045.1
 10
1429.4000000002
 20
1045.1
 97
        2
330
10B
330
EE
 92
        7
 72
     0
 73
     1
 93
       22
 10
1484.6000000002
 20
1073.9
 10
1499.0000000002
 20
1073.9
 10
1499.0000000002
 20
1045.1
 10
1542.2000000002
 20
1045.1
 10
1542.2000000002
 20
1059.5
 10
1513.4000000002
 20
1059.5
 10
1513.4000000002
 20
1063.1
 10
1538.6000000002
 20
1063.1
 10
1538.6000000002
 20
1070.3
 10
1513.4000000002
 20
1070.3
 10
1513.4000000002
 20
1073.9
 10
1542.2000000002
 20
1073.9
 10
1542.2000000002
 20
1088.3
 10
1455.8000000002
 20
1088.3
 10
1455.8000000002
 20
1073.9
 10
1470.2000000002
 20
1073.9
 10
1470.2000000002
 20
1059.5
 10
1448.6000000002
 20
1059.5
 10
1448.6000000002
 20
1088.3
 10
1434.2000000002
 20
1088.3
 10
1434.2000000002
 20
1045.1
 10
1484.6000000002
 20
1045.1
 97
        2
330
D2
330
10D
 92
        7
 72
     1
 73
     1
 93
        8
 10
1585.4000000002
 20
1059.5
 42
0.0
 10
1563.8000000002
 20
1059.5
 42
-1.0
 10
1563.8000000002
 20
1073.9
 42
0.0
 10
1585.4000000002
 20
1073.9
 42
0.0
 10
1585.4000000002
 20
1088.3
 42
0.0
 10
1563.8000000002
 20
1088.3
 42
1.0
 10
1563.8000000002
 20
1045.1
 42
0.0
 10
1585.4000000002
 20
1045.1
 42
0.0
 97
        7
330
125
330
126
330
127
330
F6
330
12A
330
123
330
124
 75
     1
 76
     1
 47
0.5879473828323011
 98
        9
 10
1263.34242088716
 20
1093.792068667058
 10
1300.410373224224
 20
1091.440280264165
 10
1332.182918174016
 20
1078.505441077951
 10
1369.839254078857
 20
1080.857229480844
 10
1369.839254078857
 20
1080.857229480844
 10
1407.4955899837
 20
1066.158544536999
 10
1419.263194255171
 20
1050.283962421401
 10
1444.563553501448
 20
1052.635750824292
 10
1575.772351190959
 20
1052.635750824292
1001
GradientColor1ACI
1070
     5
1001
GradientColor2ACI
1070
     2
1001
ACAD
1010
0.0
1020
0.0
1030
0.0
  0
ENDSEC
  0
SECTION
  2
OBJECTS
  0
DICTIONARY
  5
40
330
0
100
AcDbDictionary
281
     1
  3
ACAD_CIP_PREVIOUS_PRODUCT_INFO
350
140F
  3
ACAD_COLOR
350
AB6
  3
ACAD_GROUP
350
41
  3
ACAD_LAYOUT
350
AB9
  3
ACAD_MATERIAL
350
AB5
  3
ACAD_MLEADERSTYLE
350
140A
  3
ACAD_MLINESTYLE
350
42
  3
ACAD_PLOTSETTINGS
350
ABA
  3
ACAD_PLOTSTYLENAME
350
AB3
  3
ACAD_SCALELIST
350
13F8
  3
ACAD_TABLESTYLE
350
AB7
  3
ACAD_VISUALSTYLE
350
13DF
  3
ACDB_RECOMPOSE_DATA
350
14DB
  3
AcDbVariableDictionary
350
ADB
  3
DWGPROPS
350
14DC
  0
DICTIONARY
  5
1411
330
6B
100
AcDbDictionary
280
     1
281
     1
  3
ACAD_LAYERSTATES
360
1412
  0
DICTIONARY
  5
14C6
330
38
100
AcDbDictionary
280
     1
281
     1
  3
ADSK_XREC_LAYER_RECONCILED
360
14C7
  0
DICTIONARY
  5
14C8
330
39
100
AcDbDictionary
280
     1
281
     1
  3
ADSK_XREC_LAYER_RECONCILED
360
14C9
  0
DICTIONARY
  5
142F
330
A
100
AcDbDictionary
280
     1
281
     1
  3
ACAD_SORTENTS
360
1430
  0
XRECORD
  5
140F
102
{ACAD_REACTORS
330
40
102
}
330
40
100
AcDbXrecord
280
     1
300
ACDLT
300
2012
300
ACDLT_F_S
  0
DICTIONARY
  5
AB6
102
{ACAD_REACTORS
330
40
102
}
330
40
100
AcDbDictionary
281
     1
  0
DICTIONARY
  5
41
102
{ACAD_REACTORS
330
40
102
}
330
0
100
AcDbDictionary
281
     1
  0
DICTIONARY
  5
AB9
102
{ACAD_REACTORS
330
40
102
}
330
40
100
AcDbDictionary
281
     1
  3
Model
350
ABB
  3
レイアウト1
350
ABC
  0
DICTIONARY
  5
AB5
102
{ACAD_REACTORS
330
40
102
}
330
40
100
AcDbDictionary
281
     1
  3
ByBlock
350
13CF
  3
ByLayer
350
13C7
  3
Global
350
13D7
  0
DICTIONARY
  5
140A
102
{ACAD_REACTORS
330
40
102
}
330
40
100
AcDbDictionary
281
     1
  3
Standard
350
140B
  0
DICTIONARY
  5
42
102
{ACAD_REACTORS
330
40
102
}
330
0
100
AcDbDictionary
281
     1
  3
STANDARD
350
43
  0
DICTIONARY
  5
ABA
102
{ACAD_REACTORS
330
40
102
}
330
40
100
AcDbDictionary
281
     1
  0
ACDBDICTIONARYWDFLT
  5
AB3
102
{ACAD_REACTORS
330
40
102
}
330
40
100
AcDbDictionary
281
     1
  3
Normal
350
AB4
100
AcDbDictionaryWithDefault
340
AB4
  0
DICTIONARY
  5
13F8
102
{ACAD_REACTORS
330
40
102
}
330
40
100
AcDbDictionary
281
     1
  3
A0
350
13F9
  3
A1
350
13FA
  3
A2
350
13FB
  3
A3
350
13FC
  3
A4
350
13FD
  3
A5
350
13FE
  3
A6
350
13FF
  3
A7
350
1400
  3
A8
350
1401
  3
A9
350
1402
  3
B0
350
1403
  3
B1
350
1404
  3
B2
350
1405
  3
B3
350
1406
  3
B4
350
1407
  3
B5
350
1408
  3
B6
350
1409
  0
DICTIONARY
  5
AB7
102
{ACAD_REACTORS
330
40
102
}
330
40
100
AcDbDictionary
281
     1
  3
Standard
350
AB8
  0
DICTIONARY
  5
13DF
102
{ACAD_REACTORS
330
40
102
}
330
40
100
AcDbDictionary
281
     1
  3
2dWireframe
350
13E5
  3
Basic
350
13E4
  3
Brighten
350
13EB
  3
ColorChange
350
13EF
  3
Conceptual
350
13E8
  3
Dim
350
13EA
  3
EdgeColorOff
350
13F7
  3
Facepattern
350
13EE
  3
Flat
350
13E0
  3
FlatWithEdges
350
13E1
  3
Gouraud
350
13E2
  3
GouraudWithEdges
350
13E3
  3
Hidden
350
13E7
  3
JitterOff
350
13F5
  3
Linepattern
350
13ED
  3
OverhangOff
350
13F6
  3
Realistic
350
13E9
  3
Shaded
350
13F4
  3
Shaded with edges
350
13F3
  3
Shades of Gray
350
13F0
  3
Sketchy
350
13F1
  3
Thicken
350
13EC
  3
Wireframe
350
13E6
  3
X-Ray
350
13F2
  0
XRECORD
  5
14DB
102
{ACAD_REACTORS
330
40
102
}
330
40
100
AcDbXrecord
280
     1
 90
        1
330
AB8
  0
DICTIONARY
  5
ADB
102
{ACAD_REACTORS
330
40
102
}
330
40
100
AcDbDictionary
281
     1
  3
CANNOSCALE
350
14D3
  3
CMLEADERSTYLE
350
14D2
  3
CTABLESTYLE
350
ADC
  3
DIMASSOC
350
ADD
  3
INDEXCTL
350
14D5
  3
PROJECTNAME
350
ADE
  3
SORTENTS
350
14D4
  3
XCLIPFRAME
350
14D6
  0
XRECORD
  5
14DC
102
{ACAD_REACTORS
330
40
102
}
330
40
100
AcDbXrecord
280
     1
  1
DWGPROPS COOKIE
  2

  3

  4

  6

  7

  8
kg-paltec
  9

300
=
301
=
302
=
303
=
304
=
305
=
306
=
307
=
308
=
309
=
 40
0.0625047453703704
 41
2451212.682759178
 42
2458321.616413623
  1

 90
        0
  0
DICTIONARY
  5
1412
102
{ACAD_REACTORS
330
1411
102
}
330
1411
100
AcDbDictionary
281
     1
  0
XRECORD
  5
14C7
102
{ACAD_REACTORS
330
14C6
102
}
330
14C6
100
AcDbXrecord
280
     1
290
     1
  0
XRECORD
  5
14C9
102
{ACAD_REACTORS
330
14C8
102
}
330
14C8
100
AcDbXrecord
280
     1
290
     1
  0
SORTENTSTABLE
  5
1430
102
{ACAD_REACTORS
330
142F
102
}
330
142F
100
AcDbSortentsTable
330
A
331
2A8
  5
2B1
331
171
  5
17B
331
2CA
  5
2D3
331
2EC
  5
2F5
331
9B7
  5
9D2
331
1F7
  5
22E
331
328
  5
331
331
239
  5
242
331
102
  5
108
331
D0
  5
EE
331
9FB
  5
A16
331
25B
  5
264
331
306
  5
30F
331
124
  5
12A
331
27D
  5
286
331
948
  5
96C
331
160
  5
16F
331
297
  5
2A0
331
1479
  5
CD
331
2DB
  5
2E4
331
1BC
  5
1C5
331
A1E
  5
A27
331
2FD
  5
306
331
C1
  5
C1
331
2B9
  5
2C2
331
9A6
  5
9AF
331
317
  5
320
331
339
  5
39C
331
24A
  5
253
331
113
  5
119
331
26C
  5
275
331
135
  5
15A
331
937
  5
95B
331
1EE
  5
205
331
2C8
  5
2D1
331
2EA
  5
2F3
331
1D3
  5
1F3
331
304
  5
30D
331
9B5
  5
9D0
331
1F5
  5
22C
331
CE
  5
D1
331
237
  5
240
331
100
  5
106
331
9F9
  5
A14
331
259
  5
262
331
326
  5
32F
331
122
  5
128
331
27B
  5
284
331
144
  5
161
331
295
  5
29E
331
2B7
  5
2C0
331
180
  5
1B6
331
2D9
  5
2E2
331
1BA
  5
1C3
331
98A
  5
99C
331
A1C
  5
A25
331
2FB
  5
304
331
BF
  5
BF
331
9A4
  5
9AD
331
1EC
  5
1F7
331
226
  5
235
331
111
  5
117
331
248
  5
251
331
142A
  5
1437
331
26A
  5
273
331
133
  5
154
331
337
  5
39A
331
315
  5
31E
331
2A6
  5
2AF
331
16F
  5
179
331
AE
  5
AE
331
A09
  5
A1B
331
2E8
  5
2F1
331
A2B
  5
A40
331
302
  5
30B
331
9B3
  5
9C9
331
1F3
  5
226
331
324
  5
32D
331
9D5
  5
9F0
331
235
  5
23E
331
9F7
  5
A09
331
257
  5
260
331
FE
  5
104
331
120
  5
126
331
279
  5
282
331
293
  5
29C
331
2B5
  5
2BE
331
17E
  5
1B4
331
966
  5
98A
331
2D7
  5
2E0
331
1B8
  5
1C1
331
BD
  5
BD
331
A1A
  5
A23
331
9A2
  5
9AB
331
313
  5
31C
331
9C4
  5
9D6
331
335
  5
398
331
246
  5
24F
331
10F
  5
115
331
1428
  5
1435
331
268
  5
271
331
2A4
  5
2AD
331
2F9
  5
302
331
16D
  5
176
331
2C6
  5
2CF
331
19F
  5
1B7
331
AC
  5
AC
331
A29
  5
A3A
331
300
  5
309
331
9B1
  5
9C3
331
322
  5
32B
331
9D3
  5
9EE
331
233
  5
23C
331
FC
  5
102
331
9F5
  5
A02
331
255
  5
25E
331
11E
  5
124
331
277
  5
280
331
920
  5
948
331
15A
  5
16D
331
291
  5
29A
331
942
  5
966
331
2B3
  5
2BC
331
17C
  5
1B2
331
2D5
  5
2DE
331
1B6
  5
1BF
331
BB
  5
BB
331
A18
  5
A21
331
2F7
  5
300
331
9A0
  5
9A9
331
311
  5
31A
331
333
  5
396
331
10D
  5
113
331
1426
  5
1433
331
266
  5
26F
331
244
  5
24D
331
917
  5
920
331
2A2
  5
2AB
331
16B
  5
174
331
2C4
  5
2CD
331
2E6
  5
2EF
331
AA
  5
AA
331
320
  5
329
331
9D1
  5
9E7
331
231
  5
23A
331
9F3
  5
9FC
331
253
  5
25C
331
11C
  5
122
331
91E
  5
942
331
28F
  5
298
331
275
  5
27E
331
2B1
  5
2BA
331
17A
  5
1A5
331
2D3
  5
2DC
331
1B4
  5
1BD
331
984
  5
99B
331
B9
  5
B9
331
A16
  5
A1F
331
2F5
  5
2FE
331
99E
  5
9A7
331
1E6
  5
1F5
331
30F
  5
318
331
331
  5
33A
331
9E2
  5
9F4
331
242
  5
24B
331
1424
  5
1431
331
264
  5
26D
331
915
  5
91E
331
286
  5
28F
331
10B
  5
111
331
14F
  5
16A
331
2A0
  5
2A9
331
169
  5
172
331
2C2
  5
2CB
331
973
  5
997
331
2E4
  5
2ED
331
1C5
  5
1EF
331
A27
  5
A34
331
9AF
  5
9B8
331
9F1
  5
9FA
331
251
  5
25A
331
11A
  5
120
331
273
  5
27C
331
91C
  5
937
331
28D
  5
296
331
2AF
  5
2B8
331
960
  5
984
331
2D1
  5
2DA
331
1B2
  5
1BB
331
A14
  5
A1D
331
2F3
  5
2FC
331
99C
  5
9A5
331
30D
  5
316
331
32F
  5
338
331
240
  5
249
331
109
  5
10F
331
1422
  5
142B
331
A02
  5
A19
331
284
  5
28D
331
12B
  5
149
331
262
  5
26B
331
206
  5
233
331
94F
  5
973
331
2C0
  5
2C9
331
29E
  5
2A7
331
1C3
  5
1ED
331
A25
  5
A32
331
9AD
  5
9B6
331
31E
  5
327
331
9CF
  5
9E1
331
2E2
  5
2EB
331
B7
  5
B7
331
118
  5
11E
331
271
  5
27A
331
91A
  5
930
331
13A
  5
15B
331
93C
  5
960
331
154
  5
16B
331
176
  5
180
331
2AD
  5
2B6
331
2CF
  5
2D8
331
2F1
  5
2FA
331
99A
  5
9A3
331
30B
  5
314
331
32D
  5
336
331
107
  5
10D
331
23E
  5
247
331
204
  5
231
331
129
  5
13A
331
282
  5
28B
331
260
  5
269
331
28B
  5
294
331
92B
  5
94F
331
29C
  5
2A5
331
2BE
  5
2C7
331
2E0
  5
2E9
331
A23
  5
A2C
331
9AB
  5
9B4
331
22D
  5
238
331
F6
  5
101
331
31C
  5
325
331
1C1
  5
1E7
331
9EF
  5
9F8
331
24F
  5
258
331
918
  5
92A
331
289
  5
292
331
2AB
  5
2B4
331
174
  5
17E
331
2CD
  5
2D6
331
97E
  5
999
331
2EF
  5
2F8
331
1A6
  5
1BA
331
998
  5
9A1
331
309
  5
312
331
23C
  5
245
331
105
  5
10B
331
25E
  5
267
331
127
  5
133
331
280
  5
289
331
32B
  5
334
331
149
  5
168
331
29A
  5
2A3
331
2BC
  5
2C5
331
2DE
  5
2E7
331
1BF
  5
1D4
331
A21
  5
A2A
331
C4
  5
C4
331
9A9
  5
9B2
331
31A
  5
323
331
22B
  5
236
331
F4
  5
FF
331
9ED
  5
9F6
331
24D
  5
256
331
116
  5
11C
331
26F
  5
278
331
2A9
  5
2B2
331
172
  5
17C
331
95A
  5
97E
331
2CB
  5
2D4
331
1A4
  5
1B8
331
A0E
  5
A1C
331
2ED
  5
2F6
331
996
  5
99F
331
307
  5
310
331
9B8
  5
9D3
331
D1
  5
FC
331
23A
  5
243
331
103
  5
109
331
9FC
  5
A17
331
25C
  5
265
331
329
  5
332
331
125
  5
12B
331
27E
  5
287
331
298
  5
2A1
331
2BA
  5
2C3
331
2DC
  5
2E5
331
1BD
  5
1D2
331
A1F
  5
A28
331
2FE
  5
307
331
C2
  5
C2
331
161
  5
170
331
9A7
  5
9B0
331
1EF
  5
206
331
9C9
  5
9DB
331
318
  5
321
331
24B
  5
254
331
114
  5
11A
331
26D
  5
276
331
33A
  5
39D
331
170
  5
17A
331
2C9
  5
2D2
331
2EB
  5
2F4
331
1D4
  5
1F4
331
9B6
  5
9D1
331
1F6
  5
22D
331
CF
  5
D2
331
238
  5
241
331
101
  5
107
331
9FA
  5
A15
331
25A
  5
263
331
327
  5
330
331
305
  5
30E
331
123
  5
129
331
27C
  5
285
331
296
  5
29F
331
2DA
  5
2E3
331
1BB
  5
1C4
331
98B
  5
99D
331
A1D
  5
A26
331
2FC
  5
305
331
C0
  5
C0
331
2B8
  5
2C1
331
9A5
  5
9AE
331
1ED
  5
204
331
316
  5
31F
331
112
  5
118
331
249
  5
252
331
142B
  5
1438
331
26B
  5
274
331
134
  5
155
331
338
  5
39B
331
936
  5
95A
331
2A7
  5
2B0
331
AF
  5
AF
331
978
  5
998
331
2E9
  5
2F2
331
1D2
  5
1F2
331
A2C
  5
A41
331
303
  5
30C
331
9B4
  5
9CF
331
1F4
  5
22B
331
CD
  5
D0
331
9D6
  5
9F1
331
236
  5
23F
331
FF
  5
105
331
9F8
  5
A0E
331
258
  5
261
331
325
  5
32E
331
121
  5
127
331
27A
  5
283
331
294
  5
29D
331
2B6
  5
2BF
331
17F
  5
1B5
331
967
  5
98B
331
2D8
  5
2E1
331
1B9
  5
1C2
331
BE
  5
BE
331
A1B
  5
A24
331
9A3
  5
9AC
331
314
  5
31D
331
225
  5
234
331
336
  5
399
331
9E7
  5
9F5
331
247
  5
250
331
110
  5
116
331
1429
  5
1436
331
269
  5
272
331
EE
  5
FE
331
132
  5
14F
331
2A5
  5
2AE
331
2FA
  5
303
331
16E
  5
177
331
2C7
  5
2D0
331
AD
  5
AD
331
A08
  5
A1A
331
990
  5
99E
331
A2A
  5
A3B
331
301
  5
30A
331
9B2
  5
9C4
331
1F2
  5
225
331
323
  5
32C
331
9D4
  5
9EF
331
234
  5
23D
331
FD
  5
103
331
9F6
  5
A08
331
256
  5
25F
331
11F
  5
125
331
278
  5
281
331
292
  5
29B
331
15B
  5
16E
331
943
  5
967
331
2B4
  5
2BD
331
17D
  5
1B3
331
2D6
  5
2DF
331
1B7
  5
1C0
331
BC
  5
BC
331
A19
  5
A22
331
2F8
  5
301
331
9A1
  5
9AA
331
312
  5
31B
331
9C3
  5
9D5
331
334
  5
397
331
245
  5
24E
331
10E
  5
114
331
1427
  5
1434
331
267
  5
270
331
2A3
  5
2AC
331
16C
  5
175
331
954
  5
978
331
2C5
  5
2CE
331
2E7
  5
2F0
331
AB
  5
AB
331
A28
  5
A39
331
9B0
  5
9BD
331
321
  5
32A
331
9D2
  5
9ED
331
232
  5
23B
331
9F4
  5
9FD
331
254
  5
25D
331
11D
  5
123
331
276
  5
27F
331
13F
  5
160
331
91F
  5
943
331
290
  5
299
331
2B2
  5
2BB
331
17B
  5
1A6
331
2D4
  5
2DD
331
1B5
  5
1BE
331
BA
  5
BA
331
A17
  5
A20
331
2F6
  5
2FF
331
99F
  5
9A8
331
1E7
  5
1F6
331
310
  5
319
331
332
  5
33B
331
243
  5
24C
331
1425
  5
1432
331
265
  5
26E
331
916
  5
91F
331
287
  5
290
331
10C
  5
112
331
930
  5
954
331
2A1
  5
2AA
331
16A
  5
173
331
2C3
  5
2CC
331
2E5
  5
2EE
331
A9
  5
A9
331
9D0
  5
9E2
331
9F2
  5
9FB
331
252
  5
25B
331
11B
  5
121
331
274
  5
27D
331
91D
  5
93C
331
28E
  5
297
331
2B0
  5
2B9
331
179
  5
1A4
331
2D2
  5
2DB
331
1B3
  5
1BC
331
B8
  5
B8
331
A15
  5
A1E
331
2F4
  5
2FD
331
99D
  5
9A6
331
30E
  5
317
331
330
  5
339
331
9E1
  5
9F3
331
10A
  5
110
331
1423
  5
142E
331
263
  5
26C
331
241
  5
24A
331
914
  5
91D
331
12C
  5
14E
331
29F
  5
2A8
331
14E
  5
169
331
2C1
  5
2CA
331
972
  5
996
331
2E3
  5
2EC
331
1C4
  5
1EE
331
A26
  5
A33
331
9AE
  5
9B7
331
31F
  5
328
331
168
  5
171
331
285
  5
28E
331
9F0
  5
9F9
331
250
  5
259
331
119
  5
11F
331
272
  5
27B
331
91B
  5
936
331
28C
  5
295
331
155
  5
16C
331
2AE
  5
2B7
331
177
  5
19F
331
2D0
  5
2D9
331
2F2
  5
2FB
331
99B
  5
9A4
331
30C
  5
315
331
9BD
  5
9D4
331
32E
  5
337
331
108
  5
10E
331
23F
  5
248
331
205
  5
232
331
12A
  5
13F
331
283
  5
28C
331
261
  5
26A
331
94E
  5
972
331
2BF
  5
2C8
331
29D
  5
2A6
331
2E1
  5
2EA
331
A24
  5
A2D
331
9AC
  5
9B5
331
22E
  5
239
331
31D
  5
326
331
1C2
  5
1EC
331
B6
  5
B6
331
270
  5
279
331
919
  5
92B
331
28A
  5
293
331
2AC
  5
2B5
331
175
  5
17F
331
2CE
  5
2D7
331
97F
  5
99A
331
2F0
  5
2F9
331
999
  5
9A2
331
30A
  5
313
331
32C
  5
335
331
106
  5
10C
331
25F
  5
268
331
128
  5
134
331
23D
  5
246
331
281
  5
28A
331
92A
  5
94E
331
2BD
  5
2C6
331
C5
  5
CF
331
29B
  5
2A4
331
2DF
  5
2E8
331
1C0
  5
1E6
331
A22
  5
A2B
331
9AA
  5
9B3
331
31B
  5
324
331
22C
  5
237
331
F5
  5
100
331
9EE
  5
9F7
331
24E
  5
257
331
117
  5
11D
331
288
  5
291
331
2AA
  5
2B3
331
173
  5
17D
331
95B
  5
97F
331
2CC
  5
2D5
331
2EE
  5
2F7
331
1A5
  5
1B9
331
997
  5
9A0
331
308
  5
311
331
D2
  5
FD
331
32A
  5
333
331
9DB
  5
9F2
331
23B
  5
244
331
104
  5
10A
331
9FD
  5
A18
331
25D
  5
266
331
126
  5
132
331
27F
  5
288
331
2BB
  5
2C4
331
299
  5
2A2
331
96C
  5
990
331
2DD
  5
2E6
331
1BE
  5
1D3
331
A20
  5
A29
331
2FF
  5
308
331
C3
  5
C3
331
9A8
  5
9B1
331
319
  5
322
331
24C
  5
255
331
26E
  5
277
331
115
  5
11B
331
33B
  5
39E
  0
LAYOUT
  5
ABB
102
{ACAD_XDICTIONARY
360
14DE
102
}
102
{ACAD_REACTORS
330
AB9
102
}
330
AB9
100
AcDbPlotSettings
  1

  2
クセロPDF2
  4

  6

 40
0.0
 41
0.0
 42
0.0
 43
0.0
 44
0.0
 45
0.0
 46
0.0
 47
0.0
 48
0.0
 49
0.0
140
0.0
141
0.0
142
1.0
143
1.0
 70
  1712
 72
     0
 73
     0
 74
     0
  7

 75
     0
147
1.0
148
0.0
149
0.0
100
AcDbLayout
  1
Model
 70
     1
 71
     0
 10
0.0
 20
0.0
 11
12.0
 21
9.0
 12
0.0
 22
0.0
 32
0.0
 14
0.0
 24
0.0
 34
0.0
 15
0.0
 25
0.0
 35
0.0
146
0.0
 13
0.0
 23
0.0
 33
0.0
 16
1.0
 26
0.0
 36
0.0
 17
0.0
 27
1.0
 37
0.0
 76
     0
330
A
331
13C0
  0
LAYOUT
  5
ABC
102
{ACAD_XDICTIONARY
360
14E0
102
}
102
{ACAD_REACTORS
330
AB9
102
}
330
AB9
100
AcDbPlotSettings
  1

  2
クセロPDF2
  4

  6

 40
0.0
 41
0.0
 42
0.0
 43
0.0
 44
0.0
 45
0.0
 46
0.0
 47
0.0
 48
0.0
 49
0.0
140
0.0
141
0.0
142
1.0
143
1.0
 70
   688
 72
     0
 73
     0
 74
     5
  7

 75
    16
147
1.0
148
0.0
149
0.0
100
AcDbLayout
  1
レイアウト1
 70
     1
 71
     1
 10
0.0
 20
0.0
 11
12.0
 21
9.0
 12
0.0
 22
0.0
 32
0.0
 14
1.000000000000000E+20
 24
1.000000000000000E+20
 34
1.000000000000000E+20
 15
-1.000000000000000E+20
 25
-1.000000000000000E+20
 35
-1.000000000000000E+20
146
0.0
 13
0.0
 23
0.0
 33
0.0
 16
1.0
 26
0.0
 36
0.0
 17
0.0
 27
1.0
 37
0.0
 76
     0
330
B
  0
MATERIAL
  5
13CF
102
{ACAD_XDICTIONARY
360
13D0
102
}
102
{ACAD_REACTORS
330
AB5
102
}
330
AB5
100
AcDbMaterial
  1
ByBlock
 72
     0
 43
0.0208333333333333
 43
0.0
 43
0.0
 43
0.0
 43
0.0
 43
0.0208333333333333
 43
0.0
 43
0.0
 43
0.0
 43
0.0
 43
1.0
 43
0.0
 43
0.0
 43
0.0
 43
0.0
 43
1.0
 77
     0
 47
0.0208333333333333
 47
0.0
 47
0.0
 47
0.0
 47
0.0
 47
0.0208333333333333
 47
0.0
 47
0.0
 47
0.0
 47
0.0
 47
1.0
 47
0.0
 47
0.0
 47
0.0
 47
0.0
 47
1.0
171
     0
 49
0.0208333333333333
 49
0.0
 49
0.0
 49
0.0
 49
0.0
 49
0.0208333333333333
 49
0.0
 49
0.0
 49
0.0
 49
0.0
 49
1.0
 49
0.0
 49
0.0
 49
0.0
 49
0.0
 49
1.0
175
     0
142
0.0208333333333333
142
0.0
142
0.0
142
0.0
142
0.0
142
0.0208333333333333
142
0.0
142
0.0
142
0.0
142
0.0
142
1.0
142
0.0
142
0.0
142
0.0
142
0.0
142
1.0
179
     0
144
0.0208333333333333
144
0.0
144
0.0
144
0.0
144
0.0
144
0.0208333333333333
144
0.0
144
0.0
144
0.0
144
0.0
144
1.0
144
0.0
144
0.0
144
0.0
144
0.0
144
1.0
147
0.0208333333333333
147
0.0
147
0.0
147
0.0
147
0.0
147
0.0208333333333333
147
0.0
147
0.0
147
0.0
147
0.0
147
1.0
147
0.0
147
0.0
147
0.0
147
0.0
147
1.0
  0
MATERIAL
  5
13C7
102
{ACAD_XDICTIONARY
360
13C8
102
}
102
{ACAD_REACTORS
330
AB5
102
}
330
AB5
100
AcDbMaterial
  1
ByLayer
 72
     0
 43
0.0208333333333333
 43
0.0
 43
0.0
 43
0.0
 43
0.0
 43
0.0208333333333333
 43
0.0
 43
0.0
 43
0.0
 43
0.0
 43
1.0
 43
0.0
 43
0.0
 43
0.0
 43
0.0
 43
1.0
 77
     0
 47
0.0208333333333333
 47
0.0
 47
0.0
 47
0.0
 47
0.0
 47
0.0208333333333333
 47
0.0
 47
0.0
 47
0.0
 47
0.0
 47
1.0
 47
0.0
 47
0.0
 47
0.0
 47
0.0
 47
1.0
171
     0
 49
0.0208333333333333
 49
0.0
 49
0.0
 49
0.0
 49
0.0
 49
0.0208333333333333
 49
0.0
 49
0.0
 49
0.0
 49
0.0
 49
1.0
 49
0.0
 49
0.0
 49
0.0
 49
0.0
 49
1.0
175
     0
142
0.0208333333333333
142
0.0
142
0.0
142
0.0
142
0.0
142
0.0208333333333333
142
0.0
142
0.0
142
0.0
142
0.0
142
1.0
142
0.0
142
0.0
142
0.0
142
0.0
142
1.0
179
     0
144
0.0208333333333333
144
0.0
144
0.0
144
0.0
144
0.0
144
0.0208333333333333
144
0.0
144
0.0
144
0.0
144
0.0
144
1.0
144
0.0
144
0.0
144
0.0
144
0.0
144
1.0
147
0.0208333333333333
147
0.0
147
0.0
147
0.0
147
0.0
147
0.0208333333333333
147
0.0
147
0.0
147
0.0
147
0.0
147
1.0
147
0.0
147
0.0
147
0.0
147
0.0
147
1.0
  0
MATERIAL
  5
13D7
102
{ACAD_XDICTIONARY
360
13D8
102
}
102
{ACAD_REACTORS
330
AB5
102
}
330
AB5
100
AcDbMaterial
  1
Global
 72
     0
 43
0.0208333333333333
 43
0.0
 43
0.0
 43
0.0
 43
0.0
 43
0.0208333333333333
 43
0.0
 43
0.0
 43
0.0
 43
0.0
 43
1.0
 43
0.0
 43
0.0
 43
0.0
 43
0.0
 43
1.0
 77
     0
 47
0.0208333333333333
 47
0.0
 47
0.0
 47
0.0
 47
0.0
 47
0.0208333333333333
 47
0.0
 47
0.0
 47
0.0
 47
0.0
 47
1.0
 47
0.0
 47
0.0
 47
0.0
 47
0.0
 47
1.0
171
     0
 49
0.0208333333333333
 49
0.0
 49
0.0
 49
0.0
 49
0.0
 49
0.0208333333333333
 49
0.0
 49
0.0
 49
0.0
 49
0.0
 49
1.0
 49
0.0
 49
0.0
 49
0.0
 49
0.0
 49
1.0
175
     0
142
0.0208333333333333
142
0.0
142
0.0
142
0.0
142
0.0
142
0.0208333333333333
142
0.0
142
0.0
142
0.0
142
0.0
142
1.0
142
0.0
142
0.0
142
0.0
142
0.0
142
1.0
179
     0
144
0.0208333333333333
144
0.0
144
0.0
144
0.0
144
0.0
144
0.0208333333333333
144
0.0
144
0.0
144
0.0
144
0.0
144
1.0
144
0.0
144
0.0
144
0.0
144
0.0
144
1.0
147
0.0208333333333333
147
0.0
147
0.0
147
0.0
147
0.0
147
0.0208333333333333
147
0.0
147
0.0
147
0.0
147
0.0
147
1.0
147
0.0
147
0.0
147
0.0
147
0.0
147
1.0
  0
MLEADERSTYLE
  5
140B
102
{ACAD_XDICTIONARY
360
14D9
102
}
102
{ACAD_REACTORS
330
140A
102
}
330
140A
100
AcDbMLeaderStyle
170
     2
171
     1
172
     0
 90
        2
 40
0.0
 41
0.0
173
     1
 91
-1056964608
340
1D
 92
       -2
290
     1
 42
0.09
291
     1
 43
0.36
  3
Standard
 44
0.18
300

342
7
174
     1
178
     6
175
     1
176
     0
 93
-1056964608
 45
0.18
292
     0
297
     0
 46
0.18
 94
-1056964608
 47
1.0
 49
1.0
140
1.0
293
     1
141
0.0
294
     1
177
     0
142
1.0
295
     0
296
     0
143
0.125
1001
ACAD_MLEADERVER
1070
     2
  0
MLINESTYLE
  5
43
102
{ACAD_REACTORS
330
42
102
}
330
0
100
AcDbMlineStyle
  2
STANDARD
 70
     0
  3

 62
   256
 51
90.0
 52
90.0
 71
     2
 49
0.5
 62
   256
  6
BYLAYER
 49
-0.5
 62
   256
  6
BYLAYER
  0
ACDBPLACEHOLDER
  5
AB4
102
{ACAD_REACTORS
330
AB3
102
}
330
AB3
  0
SCALE
  5
13F9
102
{ACAD_REACTORS
330
13F8
102
}
330
13F8
100
AcDbScale
 70
     0
300
1:1
140
1.0
141
1.0
290
     1
  0
SCALE
  5
13FA
102
{ACAD_REACTORS
330
13F8
102
}
330
13F8
100
AcDbScale
 70
     0
300
1/128" = 1'-0"
140
0.0078125
141
12.0
290
     0
  0
SCALE
  5
13FB
102
{ACAD_REACTORS
330
13F8
102
}
330
13F8
100
AcDbScale
 70
     0
300
1/64" = 1'-0"
140
0.015625
141
12.0
290
     0
  0
SCALE
  5
13FC
102
{ACAD_REACTORS
330
13F8
102
}
330
13F8
100
AcDbScale
 70
     0
300
1/32" = 1'-0"
140
0.03125
141
12.0
290
     0
  0
SCALE
  5
13FD
102
{ACAD_REACTORS
330
13F8
102
}
330
13F8
100
AcDbScale
 70
     0
300
1/16" = 1'-0"
140
0.0625
141
12.0
290
     0
  0
SCALE
  5
13FE
102
{ACAD_REACTORS
330
13F8
102
}
330
13F8
100
AcDbScale
 70
     0
300
3/32" = 1'-0"
140
0.09375
141
12.0
290
     0
  0
SCALE
  5
13FF
102
{ACAD_REACTORS
330
13F8
102
}
330
13F8
100
AcDbScale
 70
     0
300
1/8" = 1'-0"
140
0.125
141
12.0
290
     0
  0
SCALE
  5
1400
102
{ACAD_REACTORS
330
13F8
102
}
330
13F8
100
AcDbScale
 70
     0
300
3/16" = 1'-0"
140
0.1875
141
12.0
290
     0
  0
SCALE
  5
1401
102
{ACAD_REACTORS
330
13F8
102
}
330
13F8
100
AcDbScale
 70
     0
300
1/4" = 1'-0"
140
0.25
141
12.0
290
     0
  0
SCALE
  5
1402
102
{ACAD_REACTORS
330
13F8
102
}
330
13F8
100
AcDbScale
 70
     0
300
3/8" = 1'-0"
140
0.375
141
12.0
290
     0
  0
SCALE
  5
1403
102
{ACAD_REACTORS
330
13F8
102
}
330
13F8
100
AcDbScale
 70
     0
300
1/2" = 1'-0"
140
0.5
141
12.0
290
     0
  0
SCALE
  5
1404
102
{ACAD_REACTORS
330
13F8
102
}
330
13F8
100
AcDbScale
 70
     0
300
3/4" = 1'-0"
140
0.75
141
12.0
290
     0
  0
SCALE
  5
1405
102
{ACAD_REACTORS
330
13F8
102
}
330
13F8
100
AcDbScale
 70
     0
300
1" = 1'-0"
140
1.0
141
12.0
290
     0
  0
SCALE
  5
1406
102
{ACAD_REACTORS
330
13F8
102
}
330
13F8
100
AcDbScale
 70
     0
300
1-1/2" = 1'-0"
140
1.5
141
12.0
290
     0
  0
SCALE
  5
1407
102
{ACAD_REACTORS
330
13F8
102
}
330
13F8
100
AcDbScale
 70
     0
300
3" = 1'-0"
140
3.0
141
12.0
290
     0
  0
SCALE
  5
1408
102
{ACAD_REACTORS
330
13F8
102
}
330
13F8
100
AcDbScale
 70
     0
300
6" = 1'-0"
140
6.0
141
12.0
290
     0
  0
SCALE
  5
1409
102
{ACAD_REACTORS
330
13F8
102
}
330
13F8
100
AcDbScale
 70
     0
300
1'-0" = 1'-0"
140
12.0
141
12.0
290
     0
  0
TABLESTYLE
  5
AB8
102
{ACAD_XDICTIONARY
360
14D7
102
}
102
{ACAD_REACTORS
330
AB7
102
}
330
AB7
100
AcDbTableStyle
  3
Standard
 70
     0
 71
     0
 40
0.06
 41
0.06
280
     0
281
     0
  7
STANDARD
140
0.18
170
     2
 62
     0
 63
     7
283
     0
274
    -2
284
     1
 64
     0
275
    -2
285
     1
 65
     0
276
    -2
286
     1
 66
     0
277
    -2
287
     1
 67
     0
278
    -2
288
     1
 68
     0
279
    -2
289
     1
 69
     0
  7
STANDARD
140
0.25
170
     5
 62
     0
 63
     7
283
     0
274
    -2
284
     1
 64
     0
275
    -2
285
     1
 65
     0
276
    -2
286
     1
 66
     0
277
    -2
287
     1
 67
     0
278
    -2
288
     1
 68
     0
279
    -2
289
     1
 69
     0
  7
STANDARD
140
0.18
170
     5
 62
     0
 63
     7
283
     0
274
    -2
284
     1
 64
     0
275
    -2
285
     1
 65
     0
276
    -2
286
     1
 66
     0
277
    -2
287
     1
 67
     0
278
    -2
288
     1
 68
     0
279
    -2
289
     1
 69
     0
  0
VISUALSTYLE
  5
13E5
102
{ACAD_XDICTIONARY
360
14EF
102
}
102
{ACAD_REACTORS
330
13DF
102
}
330
13DF
100
AcDbVisualStyle
  2
2dWireframe
 70
     4
 71
     0
 72
     2
 73
     0
 90
        0
 40
-0.6
 41
-30.0
 62
     5
 63
     7
 74
     1
 91
        4
 64
     7
 65
   257
 75
     1
175
     1
 42
1.0
 92
        0
 66
   257
 43
1.0
 76
     1
 77
     6
 78
     2
 67
     7
 79
     5
170
     0
171
     0
290
     0
174
     0
 93
        1
 44
0.0
173
     0
291
     0
 45
0.0
1001
ACAD
1000
AcDbSavedByObjectVersion
1070
     0
  0
VISUALSTYLE
  5
13E4
102
{ACAD_XDICTIONARY
360
14ED
102
}
102
{ACAD_REACTORS
330
13DF
102
}
330
13DF
100
AcDbVisualStyle
  2
Basic
 70
     7
 71
     1
 72
     0
 73
     1
 90
        0
 40
-0.6
 41
-30.0
 62
     5
 63
     7
 74
     0
 91
        4
 64
     7
 65
   257
 75
     1
175
     1
 42
1.0
 92
        8
 66
     7
 43
1.0
 76
     1
 77
     6
 78
     2
 67
     7
 79
     5
170
     0
171
     0
290
     0
174
     0
 93
        1
 44
0.0
173
     0
291
     1
 45
0.0
1001
ACAD
1000
AcDbSavedByObjectVersion
1070
     0
  0
VISUALSTYLE
  5
13EB
102
{ACAD_XDICTIONARY
360
14FB
102
}
102
{ACAD_REACTORS
330
13DF
102
}
330
13DF
100
AcDbVisualStyle
  2
Brighten
 70
    12
 71
     2
 72
     2
 73
     0
 90
        0
 40
-0.6
 41
-30.0
 62
     5
 63
     7
 74
     1
 91
        4
 64
     7
 65
   257
 75
     1
175
     1
 42
1.0
 92
        8
 66
     7
 43
1.0
 76
     1
 77
     6
 78
     2
 67
     7
 79
     5
170
     0
171
     0
290
     0
174
     0
 93
        1
 44
50.0
173
     0
291
     1
 45
0.0
1001
ACAD
1000
AcDbSavedByObjectVersion
1070
     0
  0
VISUALSTYLE
  5
13EF
102
{ACAD_XDICTIONARY
360
1503
102
}
102
{ACAD_REACTORS
330
13DF
102
}
330
13DF
100
AcDbVisualStyle
  2
ColorChange
 70
    16
 71
     2
 72
     2
 73
     3
 90
        0
 40
-0.6
 41
-30.0
 62
     5
 63
     8
 74
     1
 91
        4
 64
     7
 65
   257
 75
     1
175
     1
 42
1.0
 92
        8
 66
     8
 43
1.0
 76
     1
 77
     6
 78
     2
 67
     7
 79
     5
170
     0
171
     0
290
     0
174
     0
 93
        1
 44
0.0
173
     0
291
     1
 45
0.0
1001
ACAD
1000
AcDbSavedByObjectVersion
1070
     0
  0
VISUALSTYLE
  5
13E8
102
{ACAD_XDICTIONARY
360
14F5
102
}
102
{ACAD_REACTORS
330
13DF
102
}
330
13DF
100
AcDbVisualStyle
  2
Conceptual
 70
     9
 71
     3
 72
     2
 73
     0
 90
        0
 40
-0.6
 41
-30.0
 62
     5
 63
     7
 74
     2
 91
        2
 64
     7
 65
   257
 75
     1
175
     1
 42
179.0
 92
        8
 66
     7
 43
1.0
 76
     1
 77
     6
 78
     2
 67
     7
 79
     3
170
     0
171
     0
290
     0
174
     0
 93
        1
 44
0.0
173
     0
291
     0
 45
0.0
1001
ACAD
1000
AcDbSavedByObjectVersion
1070
     0
  0
VISUALSTYLE
  5
13EA
102
{ACAD_XDICTIONARY
360
14F9
102
}
102
{ACAD_REACTORS
330
13DF
102
}
330
13DF
100
AcDbVisualStyle
  2
Dim
 70
    11
 71
     2
 72
     2
 73
     0
 90
        0
 40
-0.6
 41
-30.0
 62
     5
 63
     7
 74
     1
 91
        4
 64
     7
 65
   257
 75
     1
175
     1
 42
1.0
 92
        8
 66
     7
 43
1.0
 76
     1
 77
     6
 78
     2
 67
     7
 79
     5
170
     0
171
     0
290
     0
174
     0
 93
        1
 44
-50.0
173
     0
291
     1
 45
0.0
1001
ACAD
1000
AcDbSavedByObjectVersion
1070
     0
  0
VISUALSTYLE
  5
13F7
102
{ACAD_XDICTIONARY
360
1513
102
}
102
{ACAD_REACTORS
330
13DF
102
}
330
13DF
100
AcDbVisualStyle
  2
EdgeColorOff
 70
    22
 71
     2
 72
     2
 73
     0
 90
        0
 40
-0.6
 41
-30.0
 62
     5
 63
     7
 74
     1
 91
        4
 64
     7
 65
   257
 75
     1
175
     1
 42
1.0
 92
        8
 66
     7
 43
1.0
 76
     1
 77
     6
 78
     2
 67
     7
 79
     5
170
     0
171
     0
290
     0
174
     0
 93
        1
 44
0.0
173
     0
291
     1
 45
0.0
1001
ACAD
1000
AcDbSavedByObjectVersion
1070
     0
  0
VISUALSTYLE
  5
13EE
102
{ACAD_XDICTIONARY
360
1501
102
}
102
{ACAD_REACTORS
330
13DF
102
}
330
13DF
100
AcDbVisualStyle
  2
Facepattern
 70
    15
 71
     2
 72
     2
 73
     0
 90
        0
 40
-0.6
 41
-30.0
 62
     5
 63
     7
 74
     1
 91
        4
 64
     7
 65
   257
 75
     1
175
     1
 42
1.0
 92
        8
 66
     7
 43
1.0
 76
     1
 77
     6
 78
     2
 67
     7
 79
     5
170
     0
171
     0
290
     0
174
     0
 93
        1
 44
0.0
173
     0
291
     1
 45
0.0
1001
ACAD
1000
AcDbSavedByObjectVersion
1070
     0
  0
VISUALSTYLE
  5
13E0
102
{ACAD_XDICTIONARY
360
14E5
102
}
102
{ACAD_REACTORS
330
13DF
102
}
330
13DF
100
AcDbVisualStyle
  2
Flat
 70
     0
 71
     2
 72
     1
 73
     1
 90
        2
 40
-0.6
 41
30.0
 62
     5
 63
     7
 74
     0
 91
        0
 64
     7
 65
   257
 75
     1
175
     1
 42
1.0
 92
        8
 66
     7
 43
1.0
 76
     1
 77
     6
 78
     2
 67
     7
 79
     5
170
     0
171
     0
290
     0
174
     0
 93
       13
 44
0.0
173
     0
291
     1
 45
0.0
1001
ACAD
1000
AcDbSavedByObjectVersion
1070
     0
  0
VISUALSTYLE
  5
13E1
102
{ACAD_XDICTIONARY
360
14E7
102
}
102
{ACAD_REACTORS
330
13DF
102
}
330
13DF
100
AcDbVisualStyle
  2
FlatWithEdges
 70
     1
 71
     2
 72
     1
 73
     1
 90
        2
 40
-0.6
 41
30.0
 62
     5
 63
     7
 74
     1
 91
        0
 64
     7
 65
   257
 75
     1
175
     1
 42
1.0
 92
        0
 66
   257
 43
1.0
 76
     1
 77
     6
 78
     2
 67
     7
 79
     5
170
     0
171
     0
290
     0
174
     0
 93
       13
 44
0.0
173
     0
291
     1
 45
0.0
1001
ACAD
1000
AcDbSavedByObjectVersion
1070
     0
  0
VISUALSTYLE
  5
13E2
102
{ACAD_XDICTIONARY
360
14E9
102
}
102
{ACAD_REACTORS
330
13DF
102
}
330
13DF
100
AcDbVisualStyle
  2
Gouraud
 70
     2
 71
     2
 72
     2
 73
     1
 90
        2
 40
-0.6
 41
30.0
 62
     5
 63
     7
 74
     0
 91
        0
 64
     7
 65
   257
 75
     1
175
     1
 42
1.0
 92
        0
 66
     7
 43
1.0
 76
     1
 77
     6
 78
     2
 67
     7
 79
     5
170
     0
171
     0
290
     0
174
     0
 93
       13
 44
0.0
173
     0
291
     1
 45
0.0
1001
ACAD
1000
AcDbSavedByObjectVersion
1070
     0
  0
VISUALSTYLE
  5
13E3
102
{ACAD_XDICTIONARY
360
14EB
102
}
102
{ACAD_REACTORS
330
13DF
102
}
330
13DF
100
AcDbVisualStyle
  2
GouraudWithEdges
 70
     3
 71
     2
 72
     2
 73
     1
 90
        2
 40
-0.6
 41
30.0
 62
     5
 63
     7
 74
     1
 91
        0
 64
     7
 65
   257
 75
     1
175
     1
 42
1.0
 92
        0
 66
   257
 43
1.0
 76
     1
 77
     6
 78
     2
 67
     7
 79
     5
170
     0
171
     0
290
     0
174
     0
 93
       13
 44
0.0
173
     0
291
     1
 45
0.0
1001
ACAD
1000
AcDbSavedByObjectVersion
1070
     0
  0
VISUALSTYLE
  5
13E7
102
{ACAD_XDICTIONARY
360
14F3
102
}
102
{ACAD_REACTORS
330
13DF
102
}
330
13DF
100
AcDbVisualStyle
  2
Hidden
 70
     6
 71
     1
 72
     2
 73
     2
 90
        0
 40
-0.6
 41
-30.0
 62
     5
 63
     7
 74
     2
 91
        2
 64
     7
 65
   257
 75
     2
175
     1
 42
40.0
 92
        0
 66
   257
 43
1.0
 76
     1
 77
     6
 78
     2
 67
     7
 79
     3
170
     0
171
     0
290
     0
174
     0
 93
        1
 44
0.0
173
     0
291
     0
 45
0.0
1001
ACAD
1000
AcDbSavedByObjectVersion
1070
     0
  0
VISUALSTYLE
  5
13F5
102
{ACAD_XDICTIONARY
360
150F
102
}
102
{ACAD_REACTORS
330
13DF
102
}
330
13DF
100
AcDbVisualStyle
  2
JitterOff
 70
    20
 71
     2
 72
     2
 73
     0
 90
        0
 40
-0.6
 41
-30.0
 62
     5
 63
     7
 74
     1
 91
        4
 64
     7
 65
   257
 75
     1
175
     1
 42
1.0
 92
       10
 66
     7
 43
1.0
 76
     1
 77
     6
 78
     2
 67
     7
 79
     5
170
     0
171
     0
290
     0
174
     0
 93
        1
 44
0.0
173
     0
291
     1
 45
0.0
1001
ACAD
1000
AcDbSavedByObjectVersion
1070
     0
  0
VISUALSTYLE
  5
13ED
102
{ACAD_XDICTIONARY
360
14FF
102
}
102
{ACAD_REACTORS
330
13DF
102
}
330
13DF
100
AcDbVisualStyle
  2
Linepattern
 70
    14
 71
     2
 72
     2
 73
     0
 90
        0
 40
-0.6
 41
-30.0
 62
     5
 63
     7
 74
     1
 91
        4
 64
     7
 65
   257
 75
     7
175
     7
 42
1.0
 92
        8
 66
     7
 43
1.0
 76
     1
 77
     6
 78
     2
 67
     7
 79
     5
170
     0
171
     0
290
     0
174
     0
 93
        1
 44
0.0
173
     0
291
     1
 45
0.0
1001
ACAD
1000
AcDbSavedByObjectVersion
1070
     0
  0
VISUALSTYLE
  5
13F6
102
{ACAD_XDICTIONARY
360
1511
102
}
102
{ACAD_REACTORS
330
13DF
102
}
330
13DF
100
AcDbVisualStyle
  2
OverhangOff
 70
    21
 71
     2
 72
     2
 73
     0
 90
        0
 40
-0.6
 41
-30.0
 62
     5
 63
     7
 74
     1
 91
        4
 64
     7
 65
   257
 75
     1
175
     1
 42
1.0
 92
        9
 66
     7
 43
1.0
 76
     1
 77
     6
 78
     2
 67
     7
 79
     5
170
     0
171
     0
290
     0
174
     0
 93
        1
 44
0.0
173
     0
291
     1
 45
0.0
1001
ACAD
1000
AcDbSavedByObjectVersion
1070
     0
  0
VISUALSTYLE
  5
13E9
102
{ACAD_XDICTIONARY
360
14F7
102
}
102
{ACAD_REACTORS
330
13DF
102
}
330
13DF
100
AcDbVisualStyle
  2
Realistic
 70
     8
 71
     2
 72
     3
 73
     0
 90
        2
 40
-0.6
 41
30.0
 62
     5
 63
     7
 74
     0
 91
        0
 64
     7
 65
   257
 75
     1
175
     1
 42
1.0
 92
        8
 66
   257
 43
1.0
 76
     1
 77
     6
 78
     2
 67
     7
 79
     3
170
     0
171
     0
290
     0
174
     0
 93
       13
 44
0.0
173
     0
291
     0
 45
0.0
1001
ACAD
1000
AcDbSavedByObjectVersion
1070
     0
  0
VISUALSTYLE
  5
13F4
102
{ACAD_XDICTIONARY
360
150D
102
}
102
{ACAD_REACTORS
330
13DF
102
}
330
13DF
100
AcDbVisualStyle
  2
Shaded
 70
    27
 71
     2
 72
     2
 73
     1
 90
        2
 40
-0.6
 41
30.0
 62
     5
 63
     7
 74
     0
 91
        4
 64
     7
 65
   257
 75
     1
175
     1
 42
1.0
 92
        8
 66
   257
 43
1.0
 76
     1
 77
     6
 78
     2
 67
     8
 79
     3
170
     0
171
     0
290
     0
174
     0
 93
        5
 44
0.0
173
     0
291
     0
 45
0.0
1001
ACAD
1000
AcDbSavedByObjectVersion
1070
     0
  0
VISUALSTYLE
  5
13F3
102
{ACAD_XDICTIONARY
360
150B
102
}
102
{ACAD_REACTORS
330
13DF
102
}
330
13DF
100
AcDbVisualStyle
  2
Shaded with edges
 70
    26
 71
     2
 72
     2
 73
     1
 90
        2
 40
-0.6
 41
30.0
 62
     5
 63
     7
 74
     1
 91
       10
 64
     7
 65
   257
 75
     2
175
     1
 42
1.0
 92
        8
 66
   257
 43
1.0
 76
     1
 77
     6
 78
     2
 67
     7
 79
     3
170
     0
171
     0
290
     0
174
     0
 93
        5
 44
0.0
173
     0
291
     0
 45
0.0
1001
ACAD
1000
AcDbSavedByObjectVersion
1070
     0
  0
VISUALSTYLE
  5
13F0
102
{ACAD_XDICTIONARY
360
1505
102
}
102
{ACAD_REACTORS
330
13DF
102
}
330
13DF
100
AcDbVisualStyle
  2
Shades of Gray
 70
    23
 71
     2
 72
     2
 73
     3
 90
        0
 40
-0.6
 41
-30.0
 62
     5
 63
     7
 74
     2
 91
        2
 64
     7
 65
     7
 75
     1
175
     1
 42
40.0
 92
        8
 66
     7
 43
1.0
 76
     1
 77
     6
 78
     2
 67
     7
 79
     3
170
     0
171
     0
290
     0
174
     0
 93
        1
 44
0.0
173
     0
291
     0
 45
0.0
1001
ACAD
1000
AcDbSavedByObjectVersion
1070
     0
  0
VISUALSTYLE
  5
13F1
102
{ACAD_XDICTIONARY
360
1507
102
}
102
{ACAD_REACTORS
330
13DF
102
}
330
13DF
100
AcDbVisualStyle
  2
Sketchy
 70
    24
 71
     1
 72
     2
 73
     2
 90
        0
 40
-0.6
 41
-30.0
 62
     5
 63
     7
 74
     2
 91
        2
 64
     7
 65
     7
 75
     1
175
     1
 42
40.0
 92
       11
 66
     7
 43
1.0
 76
     1
 77
     6
 78
     2
 67
     7
 79
     6
170
     0
171
     0
290
     0
174
     0
 93
        1
 44
0.0
173
     0
291
     0
 45
0.0
1001
ACAD
1000
AcDbSavedByObjectVersion
1070
     0
  0
VISUALSTYLE
  5
13EC
102
{ACAD_XDICTIONARY
360
14FD
102
}
102
{ACAD_REACTORS
330
13DF
102
}
330
13DF
100
AcDbVisualStyle
  2
Thicken
 70
    13
 71
     2
 72
     2
 73
     0
 90
        0
 40
-0.6
 41
-30.0
 62
     5
 63
     7
 74
     1
 91
        4
 64
     7
 65
   257
 75
     1
175
     1
 42
1.0
 92
       12
 66
     7
 43
1.0
 76
     1
 77
     6
 78
     2
 67
     7
 79
     5
170
     0
171
     0
290
     0
174
     0
 93
        1
 44
0.0
173
     0
291
     1
 45
0.0
1001
ACAD
1000
AcDbSavedByObjectVersion
1070
     0
  0
VISUALSTYLE
  5
13E6
102
{ACAD_XDICTIONARY
360
14F1
102
}
102
{ACAD_REACTORS
330
13DF
102
}
330
13DF
100
AcDbVisualStyle
  2
Wireframe
 70
     5
 71
     0
 72
     2
 73
     0
 90
        0
 40
-0.6
 41
-30.0
 62
     5
 63
     7
 74
     1
 91
        4
 64
     7
 65
   257
 75
     1
175
     1
 42
1.0
 92
        0
 66
   257
 43
1.0
 76
     1
 77
     6
 78
     2
 67
     7
 79
     3
170
     0
171
     0
290
     0
174
     0
 93
        1
 44
0.0
173
     0
291
     0
 45
0.0
1001
ACAD
1000
AcDbSavedByObjectVersion
1070
     0
  0
VISUALSTYLE
  5
13F2
102
{ACAD_XDICTIONARY
360
1509
102
}
102
{ACAD_REACTORS
330
13DF
102
}
330
13DF
100
AcDbVisualStyle
  2
X-Ray
 70
    25
 71
     2
 72
     2
 73
     1
 90
        1
 40
0.5
 41
-30.0
 62
     5
 63
     7
 74
     1
 91
        0
 64
     7
 65
   257
 75
     1
175
     1
 42
1.0
 92
        8
 66
     7
 43
1.0
 76
     1
 77
     6
 78
     2
 67
     7
 79
     3
170
     0
171
     0
290
     0
174
     0
 93
       13
 44
0.0
173
     0
291
     0
 45
0.0
1001
ACAD
1000
AcDbSavedByObjectVersion
1070
     0
  0
DICTIONARYVAR
  5
14D3
102
{ACAD_REACTORS
330
ADB
102
}
330
ADB
100
DictionaryVariables
280
     0
  1
1:1
  0
DICTIONARYVAR
  5
14D2
102
{ACAD_REACTORS
330
ADB
102
}
330
ADB
100
DictionaryVariables
280
     0
  1
STANDARD
  0
DICTIONARYVAR
  5
ADC
102
{ACAD_REACTORS
330
ADB
102
}
330
ADB
100
DictionaryVariables
280
     0
  1
STANDARD
  0
DICTIONARYVAR
  5
ADD
102
{ACAD_REACTORS
330
ADB
102
}
330
ADB
100
DictionaryVariables
280
     0
  1
1
  0
DICTIONARYVAR
  5
14D5
102
{ACAD_REACTORS
330
ADB
102
}
330
ADB
100
DictionaryVariables
280
     0
  1
0
  0
DICTIONARYVAR
  5
ADE
102
{ACAD_REACTORS
330
ADB
102
}
330
ADB
100
DictionaryVariables
280
     0
  1

  0
DICTIONARYVAR
  5
14D4
102
{ACAD_REACTORS
330
ADB
102
}
330
ADB
100
DictionaryVariables
280
     0
  1
127
  0
DICTIONARYVAR
  5
14D6
102
{ACAD_REACTORS
330
ADB
102
}
330
ADB
100
DictionaryVariables
280
     0
  1
2
  0
DICTIONARY
  5
14DE
330
ABB
100
AcDbDictionary
280
     1
281
     1
  3
ACAD_XREC_ROUNDTRIP
360
14DF
  0
DICTIONARY
  5
14E0
330
ABC
100
AcDbDictionary
280
     1
281
     1
  3
ACAD_XREC_ROUNDTRIP
360
14E1
  0
DICTIONARY
  5
13D0
330
13CF
100
AcDbDictionary
280
     1
281
     1
  3
ACAD_XREC_ROUNDTRIP
360
14E3
  3
BUMPTILE
360
13D2
  3
DIFFUSETILE
360
13D1
  3
OPACITYTILE
360
13D5
  3
REFLECTIONTILE
360
13D4
  3
REFRACTIONTILE
360
13D6
  3
SPECULARTILE
360
13D3
  0
DICTIONARY
  5
13C8
330
13C7
100
AcDbDictionary
280
     1
281
     1
  3
ACAD_XREC_ROUNDTRIP
360
14E2
  3
BUMPTILE
360
13CA
  3
DIFFUSETILE
360
13C9
  3
OPACITYTILE
360
13CD
  3
REFLECTIONTILE
360
13CC
  3
REFRACTIONTILE
360
13CE
  3
SPECULARTILE
360
13CB
  0
DICTIONARY
  5
13D8
330
13D7
100
AcDbDictionary
280
     1
281
     1
  3
ACAD_XREC_ROUNDTRIP
360
14E4
  3
BUMPTILE
360
13DA
  3
DIFFUSETILE
360
13D9
  3
OPACITYTILE
360
13DD
  3
REFLECTIONTILE
360
13DC
  3
REFRACTIONTILE
360
13DE
  3
SPECULARTILE
360
13DB
  0
DICTIONARY
  5
14D9
330
140B
100
AcDbDictionary
280
     1
281
     1
  3
ACAD_XREC_ROUNDTRIP
360
14DA
  0
DICTIONARY
  5
14D7
330
AB8
100
AcDbDictionary
280
     1
281
     1
  3
ACAD_ROUNDTRIP_2008_TABLESTYLE_CELLSTYLEMAP
360
14D8
  3
ACAD_XREC_ROUNDTRIP
360
14DD
  0
DICTIONARY
  5
14EF
330
13E5
100
AcDbDictionary
280
     1
281
     1
  3
ACAD_XREC_ROUNDTRIP
360
14F0
  0
DICTIONARY
  5
14ED
330
13E4
100
AcDbDictionary
280
     1
281
     1
  3
ACAD_XREC_ROUNDTRIP
360
14EE
  0
DICTIONARY
  5
14FB
330
13EB
100
AcDbDictionary
280
     1
281
     1
  3
ACAD_XREC_ROUNDTRIP
360
14FC
  0
DICTIONARY
  5
1503
330
13EF
100
AcDbDictionary
280
     1
281
     1
  3
ACAD_XREC_ROUNDTRIP
360
1504
  0
DICTIONARY
  5
14F5
330
13E8
100
AcDbDictionary
280
     1
281
     1
  3
ACAD_XREC_ROUNDTRIP
360
14F6
  0
DICTIONARY
  5
14F9
330
13EA
100
AcDbDictionary
280
     1
281
     1
  3
ACAD_XREC_ROUNDTRIP
360
14FA
  0
DICTIONARY
  5
1513
330
13F7
100
AcDbDictionary
280
     1
281
     1
  3
ACAD_XREC_ROUNDTRIP
360
1514
  0
DICTIONARY
  5
1501
330
13EE
100
AcDbDictionary
280
     1
281
     1
  3
ACAD_XREC_ROUNDTRIP
360
1502
  0
DICTIONARY
  5
14E5
330
13E0
100
AcDbDictionary
280
     1
281
     1
  3
ACAD_XREC_ROUNDTRIP
360
14E6
  0
DICTIONARY
  5
14E7
330
13E1
100
AcDbDictionary
280
     1
281
     1
  3
ACAD_XREC_ROUNDTRIP
360
14E8
  0
DICTIONARY
  5
14E9
330
13E2
100
AcDbDictionary
280
     1
281
     1
  3
ACAD_XREC_ROUNDTRIP
360
14EA
  0
DICTIONARY
  5
14EB
330
13E3
100
AcDbDictionary
280
     1
281
     1
  3
ACAD_XREC_ROUNDTRIP
360
14EC
  0
DICTIONARY
  5
14F3
330
13E7
100
AcDbDictionary
280
     1
281
     1
  3
ACAD_XREC_ROUNDTRIP
360
14F4
  0
DICTIONARY
  5
150F
330
13F5
100
AcDbDictionary
280
     1
281
     1
  3
ACAD_XREC_ROUNDTRIP
360
1510
  0
DICTIONARY
  5
14FF
330
13ED
100
AcDbDictionary
280
     1
281
     1
  3
ACAD_XREC_ROUNDTRIP
360
1500
  0
DICTIONARY
  5
1511
330
13F6
100
AcDbDictionary
280
     1
281
     1
  3
ACAD_XREC_ROUNDTRIP
360
1512
  0
DICTIONARY
  5
14F7
330
13E9
100
AcDbDictionary
280
     1
281
     1
  3
ACAD_XREC_ROUNDTRIP
360
14F8
  0
DICTIONARY
  5
150D
330
13F4
100
AcDbDictionary
280
     1
281
     1
  3
ACAD_XREC_ROUNDTRIP
360
150E
  0
DICTIONARY
  5
150B
330
13F3
100
AcDbDictionary
280
     1
281
     1
  3
ACAD_XREC_ROUNDTRIP
360
150C
  0
DICTIONARY
  5
1505
330
13F0
100
AcDbDictionary
280
     1
281
     1
  3
ACAD_XREC_ROUNDTRIP
360
1506
  0
DICTIONARY
  5
1507
330
13F1
100
AcDbDictionary
280
     1
281
     1
  3
ACAD_XREC_ROUNDTRIP
360
1508
  0
DICTIONARY
  5
14FD
330
13EC
100
AcDbDictionary
280
     1
281
     1
  3
ACAD_XREC_ROUNDTRIP
360
14FE
  0
DICTIONARY
  5
14F1
330
13E6
100
AcDbDictionary
280
     1
281
     1
  3
ACAD_XREC_ROUNDTRIP
360
14F2
  0
DICTIONARY
  5
1509
330
13F2
100
AcDbDictionary
280
     1
281
     1
  3
ACAD_XREC_ROUNDTRIP
360
150A
  0
XRECORD
  5
14DF
102
{ACAD_REACTORS
330
14DE
102
}
330
14DE
100
AcDbXrecord
280
     1
102
SHADEPLOT
 70
     0
102
SHADEPLOTRESLEVEL
 70
     2
102
SHADEPLOTCUSTOMDPI
 70
   300
  0
XRECORD
  5
14E1
102
{ACAD_REACTORS
330
14E0
102
}
330
14E0
100
AcDbXrecord
280
     1
102
SHADEPLOT
 70
     0
102
SHADEPLOTRESLEVEL
 70
     2
102
SHADEPLOTCUSTOMDPI
 70
   300
  0
XRECORD
  5
14E3
102
{ACAD_REACTORS
330
13D0
102
}
330
13D0
100
AcDbXrecord
280
     1
102
MATERIAL
148
0.0
149
0.0
149
0.0
 93
        0
 94
      127
282
     0
 72
     0
 77
     0
171
     0
175
     0
179
     0
273
     0
  0
XRECORD
  5
13D2
102
{ACAD_REACTORS
330
13D0
102
}
330
13D0
100
AcDbXrecord
280
     1
270
     1
271
     1
  0
XRECORD
  5
13D1
102
{ACAD_REACTORS
330
13D0
102
}
330
13D0
100
AcDbXrecord
280
     1
270
     1
271
     1
  0
XRECORD
  5
13D5
102
{ACAD_REACTORS
330
13D0
102
}
330
13D0
100
AcDbXrecord
280
     1
270
     1
271
     1
  0
XRECORD
  5
13D4
102
{ACAD_REACTORS
330
13D0
102
}
330
13D0
100
AcDbXrecord
280
     1
270
     1
271
     1
  0
XRECORD
  5
13D6
102
{ACAD_REACTORS
330
13D0
102
}
330
13D0
100
AcDbXrecord
280
     1
270
     1
271
     1
  0
XRECORD
  5
13D3
102
{ACAD_REACTORS
330
13D0
102
}
330
13D0
100
AcDbXrecord
280
     1
270
     1
271
     1
  0
XRECORD
  5
14E2
102
{ACAD_REACTORS
330
13C8
102
}
330
13C8
100
AcDbXrecord
280
     1
102
MATERIAL
148
0.0
149
0.0
149
0.0
 93
        0
 94
      127
282
     0
 72
     0
 77
     0
171
     0
175
     0
179
     0
273
     0
  0
XRECORD
  5
13CA
102
{ACAD_REACTORS
330
13C8
102
}
330
13C8
100
AcDbXrecord
280
     1
270
     1
271
     1
  0
XRECORD
  5
13C9
102
{ACAD_REACTORS
330
13C8
102
}
330
13C8
100
AcDbXrecord
280
     1
270
     1
271
     1
  0
XRECORD
  5
13CD
102
{ACAD_REACTORS
330
13C8
102
}
330
13C8
100
AcDbXrecord
280
     1
270
     1
271
     1
  0
XRECORD
  5
13CC
102
{ACAD_REACTORS
330
13C8
102
}
330
13C8
100
AcDbXrecord
280
     1
270
     1
271
     1
  0
XRECORD
  5
13CE
102
{ACAD_REACTORS
330
13C8
102
}
330
13C8
100
AcDbXrecord
280
     1
270
     1
271
     1
  0
XRECORD
  5
13CB
102
{ACAD_REACTORS
330
13C8
102
}
330
13C8
100
AcDbXrecord
280
     1
270
     1
271
     1
  0
XRECORD
  5
14E4
102
{ACAD_REACTORS
330
13D8
102
}
330
13D8
100
AcDbXrecord
280
     1
102
MATERIAL
148
0.0
149
0.0
149
0.0
 93
        0
 94
      127
282
     0
 72
     0
 77
     0
171
     0
175
     0
179
     0
273
     0
  0
XRECORD
  5
13DA
102
{ACAD_REACTORS
330
13D8
102
}
330
13D8
100
AcDbXrecord
280
     1
270
     1
271
     1
  0
XRECORD
  5
13D9
102
{ACAD_REACTORS
330
13D8
102
}
330
13D8
100
AcDbXrecord
280
     1
270
     1
271
     1
  0
XRECORD
  5
13DD
102
{ACAD_REACTORS
330
13D8
102
}
330
13D8
100
AcDbXrecord
280
     1
270
     1
271
     1
  0
XRECORD
  5
13DC
102
{ACAD_REACTORS
330
13D8
102
}
330
13D8
100
AcDbXrecord
280
     1
270
     1
271
     1
  0
XRECORD
  5
13DE
102
{ACAD_REACTORS
330
13D8
102
}
330
13D8
100
AcDbXrecord
280
     1
270
     1
271
     1
  0
XRECORD
  5
13DB
102
{ACAD_REACTORS
330
13D8
102
}
330
13D8
100
AcDbXrecord
280
     1
270
     1
271
     1
  0
XRECORD
  5
14DA
102
{ACAD_REACTORS
330
14D9
102
}
330
14D9
100
AcDbXrecord
280
     1
102
ACAD_ROUNDTRIP_2012_MLEADER_STYLE
298
     1
  0
CELLSTYLEMAP
  5
14D8
102
{ACAD_REACTORS
330
14D7
102
}
330
14D7
100
AcDbCellStyleMap
 90
        3
300
CELLSTYLE
  1
TABLEFORMAT_BEGIN
 90
        5
170
     1
 91
        0
 92
    32768
 62
   257
 93
        1
300
CONTENTFORMAT
  1
CONTENTFORMAT_BEGIN
 90
        0
 91
        0
 92
        4
 93
        0
300

 40
0.0
140
1.0
 94
        5
 62
     0
340
7
144
0.25
309
CONTENTFORMAT_END
171
     0
 94
        6
 95
        1
302
GRIDFORMAT
  1
GRIDFORMAT_BEGIN
 90
        0
 91
        1
 62
     0
 92
       -2
340
0
 93
        0
 40
0.045
309
GRIDFORMAT_END
 95
        2
302
GRIDFORMAT
  1
GRIDFORMAT_BEGIN
 90
        0
 91
        1
 62
     0
 92
       -2
340
0
 93
        0
 40
0.045
309
GRIDFORMAT_END
 95
        4
302
GRIDFORMAT
  1
GRIDFORMAT_BEGIN
 90
        0
 91
        1
 62
     0
 92
       -2
340
0
 93
        0
 40
0.045
309
GRIDFORMAT_END
 95
        8
302
GRIDFORMAT
  1
GRIDFORMAT_BEGIN
 90
        0
 91
        1
 62
     0
 92
       -2
340
0
 93
        0
 40
0.045
309
GRIDFORMAT_END
 95
       16
302
GRIDFORMAT
  1
GRIDFORMAT_BEGIN
 90
        0
 91
        1
 62
     0
 92
       -2
340
0
 93
        0
 40
0.045
309
GRIDFORMAT_END
 95
       32
302
GRIDFORMAT
  1
GRIDFORMAT_BEGIN
 90
        0
 91
        1
 62
     0
 92
       -2
340
0
 93
        0
 40
0.045
309
GRIDFORMAT_END
309
TABLEFORMAT_END
  1
CELLSTYLE_BEGIN
 90
        1
 91
        1
300
_TITLE
309
CELLSTYLE_END
300
CELLSTYLE
  1
TABLEFORMAT_BEGIN
 90
        5
170
     1
 91
        0
 92
        0
 62
   257
 93
        1
300
CONTENTFORMAT
  1
CONTENTFORMAT_BEGIN
 90
        0
 91
        0
 92
        4
 93
        0
300

 40
0.0
140
1.0
 94
        5
 62
     0
340
7
144
0.18
309
CONTENTFORMAT_END
171
     0
 94
        6
 95
        1
302
GRIDFORMAT
  1
GRIDFORMAT_BEGIN
 90
        0
 91
        1
 62
     0
 92
       -2
340
0
 93
        0
 40
0.045
309
GRIDFORMAT_END
 95
        2
302
GRIDFORMAT
  1
GRIDFORMAT_BEGIN
 90
        0
 91
        1
 62
     0
 92
       -2
340
0
 93
        0
 40
0.045
309
GRIDFORMAT_END
 95
        4
302
GRIDFORMAT
  1
GRIDFORMAT_BEGIN
 90
        0
 91
        1
 62
     0
 92
       -2
340
0
 93
        0
 40
0.045
309
GRIDFORMAT_END
 95
        8
302
GRIDFORMAT
  1
GRIDFORMAT_BEGIN
 90
        0
 91
        1
 62
     0
 92
       -2
340
0
 93
        0
 40
0.045
309
GRIDFORMAT_END
 95
       16
302
GRIDFORMAT
  1
GRIDFORMAT_BEGIN
 90
        0
 91
        1
 62
     0
 92
       -2
340
0
 93
        0
 40
0.045
309
GRIDFORMAT_END
 95
       32
302
GRIDFORMAT
  1
GRIDFORMAT_BEGIN
 90
        0
 91
        1
 62
     0
 92
       -2
340
0
 93
        0
 40
0.045
309
GRIDFORMAT_END
309
TABLEFORMAT_END
  1
CELLSTYLE_BEGIN
 90
        2
 91
        1
300
_HEADER
309
CELLSTYLE_END
300
CELLSTYLE
  1
TABLEFORMAT_BEGIN
 90
        5
170
     1
 91
        0
 92
        0
 62
   257
 93
        1
300
CONTENTFORMAT
  1
CONTENTFORMAT_BEGIN
 90
        0
 91
        0
 92
        4
 93
        0
300

 40
0.0
140
1.0
 94
        2
 62
     0
340
7
144
0.18
309
CONTENTFORMAT_END
171
     0
 94
        6
 95
        1
302
GRIDFORMAT
  1
GRIDFORMAT_BEGIN
 90
        0
 91
        1
 62
     0
 92
       -2
340
0
 93
        0
 40
0.045
309
GRIDFORMAT_END
 95
        2
302
GRIDFORMAT
  1
GRIDFORMAT_BEGIN
 90
        0
 91
        1
 62
     0
 92
       -2
340
0
 93
        0
 40
0.045
309
GRIDFORMAT_END
 95
        4
302
GRIDFORMAT
  1
GRIDFORMAT_BEGIN
 90
        0
 91
        1
 62
     0
 92
       -2
340
0
 93
        0
 40
0.045
309
GRIDFORMAT_END
 95
        8
302
GRIDFORMAT
  1
GRIDFORMAT_BEGIN
 90
        0
 91
        1
 62
     0
 92
       -2
340
0
 93
        0
 40
0.045
309
GRIDFORMAT_END
 95
       16
302
GRIDFORMAT
  1
GRIDFORMAT_BEGIN
 90
        0
 91
        1
 62
     0
 92
       -2
340
0
 93
        0
 40
0.045
309
GRIDFORMAT_END
 95
       32
302
GRIDFORMAT
  1
GRIDFORMAT_BEGIN
 90
        0
 91
        1
 62
     0
 92
       -2
340
0
 93
        0
 40
0.045
309
GRIDFORMAT_END
309
TABLEFORMAT_END
  1
CELLSTYLE_BEGIN
 90
        3
 91
        2
300
_DATA
309
CELLSTYLE_END
  0
XRECORD
  5
14DD
102
{ACAD_REACTORS
330
14D7
102
}
330
14D7
100
AcDbXrecord
280
     1
102
ACAD_ROUNDTRIP_PRE2007_TABLESTYLE
 90
        4
 91
        0
  1

 92
        4
 93
        0
  2

 94
        4
 95
        0
  3

  0
XRECORD
  5
14F0
102
{ACAD_REACTORS
330
14EF
102
}
330
14EF
100
AcDbXrecord
280
     1
102
RTVSPropertyOp0
 70
     1
102
RTVSPropertyOp1
 70
     1
102
RTVSPropertyOp2
 70
     1
102
RTVSPropertyOp3
 70
     1
102
RTVSPropertyOp4
 70
     1
102
RTVSPropertyOp5
 70
     1
102
RTVSPropertyOp6
 70
     1
102
RTVSPropertyOp7
 70
     1
102
RTVSPropertyOp8
 70
     1
102
RTVSPropertyOp9
 70
     1
102
RTVSPropertyOp10
 70
     1
102
RTVSPropertyOp11
 70
     1
102
RTVSPropertyOp12
 70
     1
102
RTVSPropertyOp13
 70
     1
102
RTVSPropertyOp14
 70
     1
102
RTVSPropertyOp15
 70
     1
102
RTVSPropertyOp16
 70
     1
102
RTVSPropertyOp17
 70
     1
102
RTVSPropertyOp18
 70
     1
102
RTVSPropertyOp19
 70
     1
102
RTVSPropertyOp20
 70
     1
102
RTVSPropertyOp21
 70
     1
102
RTVSPropertyOp22
 70
     1
102
RTVSPropertyOp23
 70
     1
102
RTVSPropertyOp24
 70
     1
102
RTVSPropertyOp25
 70
     1
102
RTVSPropertyOp26
 70
     1
102
RTVSPropertyOp27
 70
     1
102
RTVSPropertyOp28
 70
     1
102
RTVSPropertyOp29
 70
     1
102
RTVSPropertyOp30
 70
     1
102
RTVSPropertyOp31
 70
     1
102
RTVSPropertyOp32
 70
     1
  0
XRECORD
  5
14EE
102
{ACAD_REACTORS
330
14ED
102
}
330
14ED
100
AcDbXrecord
280
     1
102
RTVSPropertyOp0
 70
     1
102
RTVSPropertyOp1
 70
     1
102
RTVSPropertyOp2
 70
     1
102
RTVSPropertyOp3
 70
     1
102
RTVSPropertyOp4
 70
     1
102
RTVSPropertyOp5
 70
     1
102
RTVSPropertyOp6
 70
     1
102
RTVSPropertyOp7
 70
     1
102
RTVSPropertyOp8
 70
     1
102
RTVSPropertyOp9
 70
     1
102
RTVSPropertyOp10
 70
     1
102
RTVSPropertyOp11
 70
     1
102
RTVSPropertyOp12
 70
     1
102
RTVSPropertyOp13
 70
     1
102
RTVSPropertyOp14
 70
     1
102
RTVSPropertyOp15
 70
     1
102
RTVSPropertyOp16
 70
     1
102
RTVSPropertyOp17
 70
     1
102
RTVSPropertyOp18
 70
     1
102
RTVSPropertyOp19
 70
     1
102
RTVSPropertyOp20
 70
     1
102
RTVSPropertyOp21
 70
     1
102
RTVSPropertyOp22
 70
     1
102
RTVSPropertyOp23
 70
     1
102
RTVSPropertyOp24
 70
     1
102
RTVSPropertyOp25
 70
     1
102
RTVSPropertyOp26
 70
     1
102
RTVSPropertyOp27
 70
     1
102
RTVSPropertyOp28
 70
     1
102
RTVSPropertyOp29
 70
     1
102
RTVSPropertyOp30
 70
     1
102
RTVSPropertyOp31
 70
     1
102
RTVSPropertyOp32
 70
     1
  0
XRECORD
  5
14FC
102
{ACAD_REACTORS
330
14FB
102
}
330
14FB
100
AcDbXrecord
280
     1
102
RTVSPropertyOp0
 70
     1
102
RTVSPropertyOp1
 70
     1
102
RTVSPropertyOp2
 70
     1
102
RTVSPropertyOp3
 70
     1
102
RTVSPropertyOp4
 70
     1
102
RTVSPropertyOp5
 70
     1
102
RTVSPropertyOp6
 70
     1
102
RTVSPropertyOp7
 70
     1
102
RTVSPropertyOp8
 70
     1
102
RTVSPropertyOp9
 70
     1
102
RTVSPropertyOp10
 70
     1
102
RTVSPropertyOp11
 70
     1
102
RTVSPropertyOp12
 70
     1
102
RTVSPropertyOp13
 70
     1
102
RTVSPropertyOp14
 70
     1
102
RTVSPropertyOp15
 70
     1
102
RTVSPropertyOp16
 70
     1
102
RTVSPropertyOp17
 70
     1
102
RTVSPropertyOp18
 70
     1
102
RTVSPropertyOp19
 70
     1
102
RTVSPropertyOp20
 70
     1
102
RTVSPropertyOp21
 70
     1
102
RTVSPropertyOp22
 70
     1
102
RTVSPropertyOp23
 70
     1
102
RTVSPropertyOp24
 70
     1
102
RTVSPropertyOp25
 70
     1
102
RTVSPropertyOp26
 70
     1
102
RTVSPropertyOp27
 70
     1
102
RTVSPropertyOp28
 70
     1
102
RTVSPropertyOp29
 70
     1
102
RTVSPropertyOp30
 70
     1
102
RTVSPropertyOp31
 70
     1
102
RTVSPropertyOp32
 70
     1
  0
XRECORD
  5
1504
102
{ACAD_REACTORS
330
1503
102
}
330
1503
100
AcDbXrecord
280
     1
102
RTVSPropertyOp0
 70
     1
102
RTVSPropertyOp1
 70
     1
102
RTVSPropertyOp2
 70
     1
102
RTVSPropertyOp3
 70
     1
102
RTVSPropertyOp4
 70
     1
102
RTVSPropertyOp5
 70
     1
102
RTVSPropertyOp6
 70
     1
102
RTVSPropertyOp7
 70
     1
102
RTVSPropertyOp8
 70
     1
102
RTVSPropertyOp9
 70
     1
102
RTVSPropertyOp10
 70
     1
102
RTVSPropertyOp11
 70
     1
102
RTVSPropertyOp12
 70
     1
102
RTVSPropertyOp13
 70
     1
102
RTVSPropertyOp14
 70
     1
102
RTVSPropertyOp15
 70
     1
102
RTVSPropertyOp16
 70
     1
102
RTVSPropertyOp17
 70
     1
102
RTVSPropertyOp18
 70
     1
102
RTVSPropertyOp19
 70
     1
102
RTVSPropertyOp20
 70
     1
102
RTVSPropertyOp21
 70
     1
102
RTVSPropertyOp22
 70
     1
102
RTVSPropertyOp23
 70
     1
102
RTVSPropertyOp24
 70
     1
102
RTVSPropertyOp25
 70
     1
102
RTVSPropertyOp26
 70
     1
102
RTVSPropertyOp27
 70
     1
102
RTVSPropertyOp28
 70
     1
102
RTVSPropertyOp29
 70
     1
102
RTVSPropertyOp30
 70
     1
102
RTVSPropertyOp31
 70
     1
102
RTVSPropertyOp32
 70
     1
  0
XRECORD
  5
14F6
102
{ACAD_REACTORS
330
14F5
102
}
330
14F5
100
AcDbXrecord
280
     1
102
RTVSPropertyOp0
 70
     1
102
RTVSPropertyOp1
 70
     1
102
RTVSPropertyOp2
 70
     1
102
RTVSPropertyOp3
 70
     1
102
RTVSPropertyOp4
 70
     1
102
RTVSPropertyOp5
 70
     1
102
RTVSPropertyOp6
 70
     1
102
RTVSPropertyOp7
 70
     1
102
RTVSPropertyOp8
 70
     1
102
RTVSPropertyOp9
 70
     1
102
RTVSPropertyOp10
 70
     1
102
RTVSPropertyOp11
 70
     1
102
RTVSPropertyOp12
 70
     1
102
RTVSPropertyOp13
 70
     1
102
RTVSPropertyOp14
 70
     1
102
RTVSPropertyOp15
 70
     1
102
RTVSPropertyOp16
 70
     1
102
RTVSPropertyOp17
 70
     1
102
RTVSPropertyOp18
 70
     1
102
RTVSPropertyOp19
 70
     1
102
RTVSPropertyOp20
 70
     1
102
RTVSPropertyOp21
 70
     1
102
RTVSPropertyOp22
 70
     1
102
RTVSPropertyOp23
 70
     1
102
RTVSPropertyOp24
 70
     1
102
RTVSPropertyOp25
 70
     1
102
RTVSPropertyOp26
 70
     1
102
RTVSPropertyOp27
 70
     1
102
RTVSPropertyOp28
 70
     1
102
RTVSPropertyOp29
 70
     1
102
RTVSPropertyOp30
 70
     1
102
RTVSPropertyOp31
 70
     1
102
RTVSPropertyOp32
 70
     1
  0
XRECORD
  5
14FA
102
{ACAD_REACTORS
330
14F9
102
}
330
14F9
100
AcDbXrecord
280
     1
102
RTVSPropertyOp0
 70
     1
102
RTVSPropertyOp1
 70
     1
102
RTVSPropertyOp2
 70
     1
102
RTVSPropertyOp3
 70
     1
102
RTVSPropertyOp4
 70
     1
102
RTVSPropertyOp5
 70
     1
102
RTVSPropertyOp6
 70
     1
102
RTVSPropertyOp7
 70
     1
102
RTVSPropertyOp8
 70
     1
102
RTVSPropertyOp9
 70
     1
102
RTVSPropertyOp10
 70
     1
102
RTVSPropertyOp11
 70
     1
102
RTVSPropertyOp12
 70
     1
102
RTVSPropertyOp13
 70
     1
102
RTVSPropertyOp14
 70
     1
102
RTVSPropertyOp15
 70
     1
102
RTVSPropertyOp16
 70
     1
102
RTVSPropertyOp17
 70
     1
102
RTVSPropertyOp18
 70
     1
102
RTVSPropertyOp19
 70
     1
102
RTVSPropertyOp20
 70
     1
102
RTVSPropertyOp21
 70
     1
102
RTVSPropertyOp22
 70
     1
102
RTVSPropertyOp23
 70
     1
102
RTVSPropertyOp24
 70
     1
102
RTVSPropertyOp25
 70
     1
102
RTVSPropertyOp26
 70
     1
102
RTVSPropertyOp27
 70
     1
102
RTVSPropertyOp28
 70
     1
102
RTVSPropertyOp29
 70
     1
102
RTVSPropertyOp30
 70
     1
102
RTVSPropertyOp31
 70
     1
102
RTVSPropertyOp32
 70
     1
  0
XRECORD
  5
1514
102
{ACAD_REACTORS
330
1513
102
}
330
1513
100
AcDbXrecord
280
     1
102
RTVSPropertyOp0
 70
     0
102
RTVSPropertyOp1
 70
     0
102
RTVSPropertyOp2
 70
     0
102
RTVSPropertyOp3
 70
     0
102
RTVSPropertyOp4
 70
     0
102
RTVSPropertyOp5
 70
     0
102
RTVSPropertyOp6
 70
     0
102
RTVSPropertyOp7
 70
     0
102
RTVSPropertyOp8
 70
     0
102
RTVSPropertyOp9
 70
     0
102
RTVSPropertyOp10
 70
     0
102
RTVSPropertyOp11
 70
     0
102
RTVSPropertyOp12
 70
     0
102
RTVSPropertyOp13
 70
     0
102
RTVSPropertyOp14
 70
     2
102
RTVSPropertyOp15
 70
     0
102
RTVSPropertyOp16
 70
     0
102
RTVSPropertyOp17
 70
     0
102
RTVSPropertyOp18
 70
     0
102
RTVSPropertyOp19
 70
     0
102
RTVSPropertyOp20
 70
     0
102
RTVSPropertyOp21
 70
     0
102
RTVSPropertyOp22
 70
     0
102
RTVSPropertyOp23
 70
     0
102
RTVSPropertyOp24
 70
     0
102
RTVSPropertyOp25
 70
     0
102
RTVSPropertyOp26
 70
     0
102
RTVSPropertyOp27
 70
     0
102
RTVSPropertyOp28
 70
     0
102
RTVSPropertyOp29
 70
     0
102
RTVSPropertyOp30
 70
     0
102
RTVSPropertyOp31
 70
     0
102
RTVSPropertyOp32
 70
     0
  0
XRECORD
  5
1502
102
{ACAD_REACTORS
330
1501
102
}
330
1501
100
AcDbXrecord
280
     1
102
RTVSPropertyOp0
 70
     1
102
RTVSPropertyOp1
 70
     1
102
RTVSPropertyOp2
 70
     1
102
RTVSPropertyOp3
 70
     1
102
RTVSPropertyOp4
 70
     1
102
RTVSPropertyOp5
 70
     1
102
RTVSPropertyOp6
 70
     1
102
RTVSPropertyOp7
 70
     1
102
RTVSPropertyOp8
 70
     1
102
RTVSPropertyOp9
 70
     1
102
RTVSPropertyOp10
 70
     1
102
RTVSPropertyOp11
 70
     1
102
RTVSPropertyOp12
 70
     1
102
RTVSPropertyOp13
 70
     1
102
RTVSPropertyOp14
 70
     1
102
RTVSPropertyOp15
 70
     1
102
RTVSPropertyOp16
 70
     1
102
RTVSPropertyOp17
 70
     1
102
RTVSPropertyOp18
 70
     1
102
RTVSPropertyOp19
 70
     1
102
RTVSPropertyOp20
 70
     1
102
RTVSPropertyOp21
 70
     1
102
RTVSPropertyOp22
 70
     1
102
RTVSPropertyOp23
 70
     1
102
RTVSPropertyOp24
 70
     1
102
RTVSPropertyOp25
 70
     1
102
RTVSPropertyOp26
 70
     1
102
RTVSPropertyOp27
 70
     1
102
RTVSPropertyOp28
 70
     1
102
RTVSPropertyOp29
 70
     1
102
RTVSPropertyOp30
 70
     1
102
RTVSPropertyOp31
 70
     1
102
RTVSPropertyOp32
 70
     1
  0
XRECORD
  5
14E6
102
{ACAD_REACTORS
330
14E5
102
}
330
14E5
100
AcDbXrecord
280
     1
102
RTVSPropertyOp0
 70
     1
102
RTVSPropertyOp1
 70
     1
102
RTVSPropertyOp2
 70
     1
102
RTVSPropertyOp3
 70
     1
102
RTVSPropertyOp4
 70
     1
102
RTVSPropertyOp5
 70
     1
102
RTVSPropertyOp6
 70
     1
102
RTVSPropertyOp7
 70
     1
102
RTVSPropertyOp8
 70
     1
102
RTVSPropertyOp9
 70
     1
102
RTVSPropertyOp10
 70
     1
102
RTVSPropertyOp11
 70
     1
102
RTVSPropertyOp12
 70
     1
102
RTVSPropertyOp13
 70
     1
102
RTVSPropertyOp14
 70
     1
102
RTVSPropertyOp15
 70
     1
102
RTVSPropertyOp16
 70
     1
102
RTVSPropertyOp17
 70
     1
102
RTVSPropertyOp18
 70
     1
102
RTVSPropertyOp19
 70
     1
102
RTVSPropertyOp20
 70
     1
102
RTVSPropertyOp21
 70
     1
102
RTVSPropertyOp22
 70
     1
102
RTVSPropertyOp23
 70
     1
102
RTVSPropertyOp24
 70
     1
102
RTVSPropertyOp25
 70
     1
102
RTVSPropertyOp26
 70
     1
102
RTVSPropertyOp27
 70
     1
102
RTVSPropertyOp28
 70
     1
102
RTVSPropertyOp29
 70
     1
102
RTVSPropertyOp30
 70
     1
102
RTVSPropertyOp31
 70
     1
102
RTVSPropertyOp32
 70
     1
  0
XRECORD
  5
14E8
102
{ACAD_REACTORS
330
14E7
102
}
330
14E7
100
AcDbXrecord
280
     1
102
RTVSPropertyOp0
 70
     1
102
RTVSPropertyOp1
 70
     1
102
RTVSPropertyOp2
 70
     1
102
RTVSPropertyOp3
 70
     1
102
RTVSPropertyOp4
 70
     1
102
RTVSPropertyOp5
 70
     1
102
RTVSPropertyOp6
 70
     1
102
RTVSPropertyOp7
 70
     1
102
RTVSPropertyOp8
 70
     1
102
RTVSPropertyOp9
 70
     1
102
RTVSPropertyOp10
 70
     1
102
RTVSPropertyOp11
 70
     1
102
RTVSPropertyOp12
 70
     1
102
RTVSPropertyOp13
 70
     1
102
RTVSPropertyOp14
 70
     1
102
RTVSPropertyOp15
 70
     1
102
RTVSPropertyOp16
 70
     1
102
RTVSPropertyOp17
 70
     1
102
RTVSPropertyOp18
 70
     1
102
RTVSPropertyOp19
 70
     1
102
RTVSPropertyOp20
 70
     1
102
RTVSPropertyOp21
 70
     1
102
RTVSPropertyOp22
 70
     1
102
RTVSPropertyOp23
 70
     1
102
RTVSPropertyOp24
 70
     1
102
RTVSPropertyOp25
 70
     1
102
RTVSPropertyOp26
 70
     1
102
RTVSPropertyOp27
 70
     1
102
RTVSPropertyOp28
 70
     1
102
RTVSPropertyOp29
 70
     1
102
RTVSPropertyOp30
 70
     1
102
RTVSPropertyOp31
 70
     1
102
RTVSPropertyOp32
 70
     1
  0
XRECORD
  5
14EA
102
{ACAD_REACTORS
330
14E9
102
}
330
14E9
100
AcDbXrecord
280
     1
102
RTVSPropertyOp0
 70
     1
102
RTVSPropertyOp1
 70
     1
102
RTVSPropertyOp2
 70
     1
102
RTVSPropertyOp3
 70
     1
102
RTVSPropertyOp4
 70
     1
102
RTVSPropertyOp5
 70
     1
102
RTVSPropertyOp6
 70
     1
102
RTVSPropertyOp7
 70
     1
102
RTVSPropertyOp8
 70
     1
102
RTVSPropertyOp9
 70
     1
102
RTVSPropertyOp10
 70
     1
102
RTVSPropertyOp11
 70
     1
102
RTVSPropertyOp12
 70
     1
102
RTVSPropertyOp13
 70
     1
102
RTVSPropertyOp14
 70
     1
102
RTVSPropertyOp15
 70
     1
102
RTVSPropertyOp16
 70
     1
102
RTVSPropertyOp17
 70
     1
102
RTVSPropertyOp18
 70
     1
102
RTVSPropertyOp19
 70
     1
102
RTVSPropertyOp20
 70
     1
102
RTVSPropertyOp21
 70
     1
102
RTVSPropertyOp22
 70
     1
102
RTVSPropertyOp23
 70
     1
102
RTVSPropertyOp24
 70
     1
102
RTVSPropertyOp25
 70
     1
102
RTVSPropertyOp26
 70
     1
102
RTVSPropertyOp27
 70
     1
102
RTVSPropertyOp28
 70
     1
102
RTVSPropertyOp29
 70
     1
102
RTVSPropertyOp30
 70
     1
102
RTVSPropertyOp31
 70
     1
102
RTVSPropertyOp32
 70
     1
  0
XRECORD
  5
14EC
102
{ACAD_REACTORS
330
14EB
102
}
330
14EB
100
AcDbXrecord
280
     1
102
RTVSPropertyOp0
 70
     1
102
RTVSPropertyOp1
 70
     1
102
RTVSPropertyOp2
 70
     1
102
RTVSPropertyOp3
 70
     1
102
RTVSPropertyOp4
 70
     1
102
RTVSPropertyOp5
 70
     1
102
RTVSPropertyOp6
 70
     1
102
RTVSPropertyOp7
 70
     1
102
RTVSPropertyOp8
 70
     1
102
RTVSPropertyOp9
 70
     1
102
RTVSPropertyOp10
 70
     1
102
RTVSPropertyOp11
 70
     1
102
RTVSPropertyOp12
 70
     1
102
RTVSPropertyOp13
 70
     1
102
RTVSPropertyOp14
 70
     1
102
RTVSPropertyOp15
 70
     1
102
RTVSPropertyOp16
 70
     1
102
RTVSPropertyOp17
 70
     1
102
RTVSPropertyOp18
 70
     1
102
RTVSPropertyOp19
 70
     1
102
RTVSPropertyOp20
 70
     1
102
RTVSPropertyOp21
 70
     1
102
RTVSPropertyOp22
 70
     1
102
RTVSPropertyOp23
 70
     1
102
RTVSPropertyOp24
 70
     1
102
RTVSPropertyOp25
 70
     1
102
RTVSPropertyOp26
 70
     1
102
RTVSPropertyOp27
 70
     1
102
RTVSPropertyOp28
 70
     1
102
RTVSPropertyOp29
 70
     1
102
RTVSPropertyOp30
 70
     1
102
RTVSPropertyOp31
 70
     1
102
RTVSPropertyOp32
 70
     1
  0
XRECORD
  5
14F4
102
{ACAD_REACTORS
330
14F3
102
}
330
14F3
100
AcDbXrecord
280
     1
102
RTVSPropertyOp0
 70
     1
102
RTVSPropertyOp1
 70
     1
102
RTVSPropertyOp2
 70
     1
102
RTVSPropertyOp3
 70
     1
102
RTVSPropertyOp4
 70
     1
102
RTVSPropertyOp5
 70
     1
102
RTVSPropertyOp6
 70
     1
102
RTVSPropertyOp7
 70
     1
102
RTVSPropertyOp8
 70
     1
102
RTVSPropertyOp9
 70
     1
102
RTVSPropertyOp10
 70
     1
102
RTVSPropertyOp11
 70
     1
102
RTVSPropertyOp12
 70
     1
102
RTVSPropertyOp13
 70
     1
102
RTVSPropertyOp14
 70
     1
102
RTVSPropertyOp15
 70
     1
102
RTVSPropertyOp16
 70
     1
102
RTVSPropertyOp17
 70
     1
102
RTVSPropertyOp18
 70
     1
102
RTVSPropertyOp19
 70
     1
102
RTVSPropertyOp20
 70
     1
102
RTVSPropertyOp21
 70
     1
102
RTVSPropertyOp22
 70
     1
102
RTVSPropertyOp23
 70
     1
102
RTVSPropertyOp24
 70
     1
102
RTVSPropertyOp25
 70
     1
102
RTVSPropertyOp26
 70
     1
102
RTVSPropertyOp27
 70
     1
102
RTVSPropertyOp28
 70
     1
102
RTVSPropertyOp29
 70
     1
102
RTVSPropertyOp30
 70
     1
102
RTVSPropertyOp31
 70
     1
102
RTVSPropertyOp32
 70
     1
  0
XRECORD
  5
1510
102
{ACAD_REACTORS
330
150F
102
}
330
150F
100
AcDbXrecord
280
     1
102
RTVSPropertyOp0
 70
     0
102
RTVSPropertyOp1
 70
     0
102
RTVSPropertyOp2
 70
     0
102
RTVSPropertyOp3
 70
     0
102
RTVSPropertyOp4
 70
     0
102
RTVSPropertyOp5
 70
     0
102
RTVSPropertyOp6
 70
     0
102
RTVSPropertyOp7
 70
     0
102
RTVSPropertyOp8
 70
     0
102
RTVSPropertyOp9
 70
     0
102
RTVSPropertyOp10
 70
     0
102
RTVSPropertyOp11
 70
     0
102
RTVSPropertyOp12
 70
     0
102
RTVSPropertyOp13
 70
     0
102
RTVSPropertyOp14
 70
     2
102
RTVSPropertyOp15
 70
     0
102
RTVSPropertyOp16
 70
     0
102
RTVSPropertyOp17
 70
     0
102
RTVSPropertyOp18
 70
     0
102
RTVSPropertyOp19
 70
     0
102
RTVSPropertyOp20
 70
     0
102
RTVSPropertyOp21
 70
     0
102
RTVSPropertyOp22
 70
     0
102
RTVSPropertyOp23
 70
     0
102
RTVSPropertyOp24
 70
     0
102
RTVSPropertyOp25
 70
     0
102
RTVSPropertyOp26
 70
     0
102
RTVSPropertyOp27
 70
     0
102
RTVSPropertyOp28
 70
     0
102
RTVSPropertyOp29
 70
     0
102
RTVSPropertyOp30
 70
     0
102
RTVSPropertyOp31
 70
     0
102
RTVSPropertyOp32
 70
     0
  0
XRECORD
  5
1500
102
{ACAD_REACTORS
330
14FF
102
}
330
14FF
100
AcDbXrecord
280
     1
102
RTVSPropertyOp0
 70
     1
102
RTVSPropertyOp1
 70
     1
102
RTVSPropertyOp2
 70
     1
102
RTVSPropertyOp3
 70
     1
102
RTVSPropertyOp4
 70
     1
102
RTVSPropertyOp5
 70
     1
102
RTVSPropertyOp6
 70
     1
102
RTVSPropertyOp7
 70
     1
102
RTVSPropertyOp8
 70
     1
102
RTVSPropertyOp9
 70
     1
102
RTVSPropertyOp10
 70
     1
102
RTVSPropertyOp11
 70
     1
102
RTVSPropertyOp12
 70
     1
102
RTVSPropertyOp13
 70
     1
102
RTVSPropertyOp14
 70
     1
102
RTVSPropertyOp15
 70
     1
102
RTVSPropertyOp16
 70
     1
102
RTVSPropertyOp17
 70
     1
102
RTVSPropertyOp18
 70
     1
102
RTVSPropertyOp19
 70
     1
102
RTVSPropertyOp20
 70
     1
102
RTVSPropertyOp21
 70
     1
102
RTVSPropertyOp22
 70
     1
102
RTVSPropertyOp23
 70
     1
102
RTVSPropertyOp24
 70
     1
102
RTVSPropertyOp25
 70
     1
102
RTVSPropertyOp26
 70
     1
102
RTVSPropertyOp27
 70
     1
102
RTVSPropertyOp28
 70
     1
102
RTVSPropertyOp29
 70
     1
102
RTVSPropertyOp30
 70
     1
102
RTVSPropertyOp31
 70
     1
102
RTVSPropertyOp32
 70
     1
  0
XRECORD
  5
1512
102
{ACAD_REACTORS
330
1511
102
}
330
1511
100
AcDbXrecord
280
     1
102
RTVSPropertyOp0
 70
     0
102
RTVSPropertyOp1
 70
     0
102
RTVSPropertyOp2
 70
     0
102
RTVSPropertyOp3
 70
     0
102
RTVSPropertyOp4
 70
     0
102
RTVSPropertyOp5
 70
     0
102
RTVSPropertyOp6
 70
     0
102
RTVSPropertyOp7
 70
     0
102
RTVSPropertyOp8
 70
     0
102
RTVSPropertyOp9
 70
     0
102
RTVSPropertyOp10
 70
     0
102
RTVSPropertyOp11
 70
     0
102
RTVSPropertyOp12
 70
     0
102
RTVSPropertyOp13
 70
     0
102
RTVSPropertyOp14
 70
     2
102
RTVSPropertyOp15
 70
     0
102
RTVSPropertyOp16
 70
     0
102
RTVSPropertyOp17
 70
     0
102
RTVSPropertyOp18
 70
     0
102
RTVSPropertyOp19
 70
     0
102
RTVSPropertyOp20
 70
     0
102
RTVSPropertyOp21
 70
     0
102
RTVSPropertyOp22
 70
     0
102
RTVSPropertyOp23
 70
     0
102
RTVSPropertyOp24
 70
     0
102
RTVSPropertyOp25
 70
     0
102
RTVSPropertyOp26
 70
     0
102
RTVSPropertyOp27
 70
     0
102
RTVSPropertyOp28
 70
     0
102
RTVSPropertyOp29
 70
     0
102
RTVSPropertyOp30
 70
     0
102
RTVSPropertyOp31
 70
     0
102
RTVSPropertyOp32
 70
     0
  0
XRECORD
  5
14F8
102
{ACAD_REACTORS
330
14F7
102
}
330
14F7
100
AcDbXrecord
280
     1
102
RTVSPropertyOp0
 70
     1
102
RTVSPropertyOp1
 70
     1
102
RTVSPropertyOp2
 70
     1
102
RTVSPropertyOp3
 70
     1
102
RTVSPropertyOp4
 70
     1
102
RTVSPropertyOp5
 70
     1
102
RTVSPropertyOp6
 70
     1
102
RTVSPropertyOp7
 70
     1
102
RTVSPropertyOp8
 70
     1
102
RTVSPropertyOp9
 70
     1
102
RTVSPropertyOp10
 70
     1
102
RTVSPropertyOp11
 70
     1
102
RTVSPropertyOp12
 70
     1
102
RTVSPropertyOp13
 70
     1
102
RTVSPropertyOp14
 70
     1
102
RTVSPropertyOp15
 70
     1
102
RTVSPropertyOp16
 70
     1
102
RTVSPropertyOp17
 70
     1
102
RTVSPropertyOp18
 70
     1
102
RTVSPropertyOp19
 70
     1
102
RTVSPropertyOp20
 70
     1
102
RTVSPropertyOp21
 70
     1
102
RTVSPropertyOp22
 70
     1
102
RTVSPropertyOp23
 70
     1
102
RTVSPropertyOp24
 70
     1
102
RTVSPropertyOp25
 70
     1
102
RTVSPropertyOp26
 70
     1
102
RTVSPropertyOp27
 70
     1
102
RTVSPropertyOp28
 70
     1
102
RTVSPropertyOp29
 70
     1
102
RTVSPropertyOp30
 70
     1
102
RTVSPropertyOp31
 70
     1
102
RTVSPropertyOp32
 70
     1
  0
XRECORD
  5
150E
102
{ACAD_REACTORS
330
150D
102
}
330
150D
100
AcDbXrecord
280
     1
102
RTVSPropertyOp0
 70
     1
102
RTVSPropertyOp1
 70
     1
102
RTVSPropertyOp2
 70
     1
102
RTVSPropertyOp3
 70
     1
102
RTVSPropertyOp4
 70
     1
102
RTVSPropertyOp5
 70
     1
102
RTVSPropertyOp6
 70
     1
102
RTVSPropertyOp7
 70
     1
102
RTVSPropertyOp8
 70
     1
102
RTVSPropertyOp9
 70
     1
102
RTVSPropertyOp10
 70
     1
102
RTVSPropertyOp11
 70
     1
102
RTVSPropertyOp12
 70
     1
102
RTVSPropertyOp13
 70
     1
102
RTVSPropertyOp14
 70
     1
102
RTVSPropertyOp15
 70
     1
102
RTVSPropertyOp16
 70
     1
102
RTVSPropertyOp17
 70
     1
102
RTVSPropertyOp18
 70
     1
102
RTVSPropertyOp19
 70
     1
102
RTVSPropertyOp20
 70
     1
102
RTVSPropertyOp21
 70
     1
102
RTVSPropertyOp22
 70
     1
102
RTVSPropertyOp23
 70
     1
102
RTVSPropertyOp24
 70
     1
102
RTVSPropertyOp25
 70
     1
102
RTVSPropertyOp26
 70
     1
102
RTVSPropertyOp27
 70
     1
102
RTVSPropertyOp28
 70
     1
102
RTVSPropertyOp29
 70
     1
102
RTVSPropertyOp30
 70
     1
102
RTVSPropertyOp31
 70
     1
102
RTVSPropertyOp32
 70
     1
  0
XRECORD
  5
150C
102
{ACAD_REACTORS
330
150B
102
}
330
150B
100
AcDbXrecord
280
     1
102
RTVSPropertyOp0
 70
     1
102
RTVSPropertyOp1
 70
     1
102
RTVSPropertyOp2
 70
     1
102
RTVSPropertyOp3
 70
     1
102
RTVSPropertyOp4
 70
     1
102
RTVSPropertyOp5
 70
     1
102
RTVSPropertyOp6
 70
     1
102
RTVSPropertyOp7
 70
     1
102
RTVSPropertyOp8
 70
     1
102
RTVSPropertyOp9
 70
     1
102
RTVSPropertyOp10
 70
     1
102
RTVSPropertyOp11
 70
     1
102
RTVSPropertyOp12
 70
     1
102
RTVSPropertyOp13
 70
     1
102
RTVSPropertyOp14
 70
     1
102
RTVSPropertyOp15
 70
     1
102
RTVSPropertyOp16
 70
     1
102
RTVSPropertyOp17
 70
     1
102
RTVSPropertyOp18
 70
     1
102
RTVSPropertyOp19
 70
     1
102
RTVSPropertyOp20
 70
     1
102
RTVSPropertyOp21
 70
     1
102
RTVSPropertyOp22
 70
     1
102
RTVSPropertyOp23
 70
     1
102
RTVSPropertyOp24
 70
     1
102
RTVSPropertyOp25
 70
     1
102
RTVSPropertyOp26
 70
     1
102
RTVSPropertyOp27
 70
     1
102
RTVSPropertyOp28
 70
     1
102
RTVSPropertyOp29
 70
     1
102
RTVSPropertyOp30
 70
     1
102
RTVSPropertyOp31
 70
     1
102
RTVSPropertyOp32
 70
     1
  0
XRECORD
  5
1506
102
{ACAD_REACTORS
330
1505
102
}
330
1505
100
AcDbXrecord
280
     1
102
RTVSPropertyOp0
 70
     1
102
RTVSPropertyOp1
 70
     1
102
RTVSPropertyOp2
 70
     1
102
RTVSPropertyOp3
 70
     1
102
RTVSPropertyOp4
 70
     1
102
RTVSPropertyOp5
 70
     1
102
RTVSPropertyOp6
 70
     1
102
RTVSPropertyOp7
 70
     1
102
RTVSPropertyOp8
 70
     1
102
RTVSPropertyOp9
 70
     1
102
RTVSPropertyOp10
 70
     1
102
RTVSPropertyOp11
 70
     1
102
RTVSPropertyOp12
 70
     1
102
RTVSPropertyOp13
 70
     1
102
RTVSPropertyOp14
 70
     1
102
RTVSPropertyOp15
 70
     1
102
RTVSPropertyOp16
 70
     1
102
RTVSPropertyOp17
 70
     1
102
RTVSPropertyOp18
 70
     1
102
RTVSPropertyOp19
 70
     1
102
RTVSPropertyOp20
 70
     1
102
RTVSPropertyOp21
 70
     1
102
RTVSPropertyOp22
 70
     1
102
RTVSPropertyOp23
 70
     1
102
RTVSPropertyOp24
 70
     1
102
RTVSPropertyOp25
 70
     1
102
RTVSPropertyOp26
 70
     1
102
RTVSPropertyOp27
 70
     1
102
RTVSPropertyOp28
 70
     1
102
RTVSPropertyOp29
 70
     1
102
RTVSPropertyOp30
 70
     1
102
RTVSPropertyOp31
 70
     1
102
RTVSPropertyOp32
 70
     1
  0
XRECORD
  5
1508
102
{ACAD_REACTORS
330
1507
102
}
330
1507
100
AcDbXrecord
280
     1
102
RTVSPropertyOp0
 70
     1
102
RTVSPropertyOp1
 70
     1
102
RTVSPropertyOp2
 70
     1
102
RTVSPropertyOp3
 70
     1
102
RTVSPropertyOp4
 70
     1
102
RTVSPropertyOp5
 70
     1
102
RTVSPropertyOp6
 70
     1
102
RTVSPropertyOp7
 70
     1
102
RTVSPropertyOp8
 70
     1
102
RTVSPropertyOp9
 70
     1
102
RTVSPropertyOp10
 70
     1
102
RTVSPropertyOp11
 70
     1
102
RTVSPropertyOp12
 70
     1
102
RTVSPropertyOp13
 70
     1
102
RTVSPropertyOp14
 70
     1
102
RTVSPropertyOp15
 70
     1
102
RTVSPropertyOp16
 70
     1
102
RTVSPropertyOp17
 70
     1
102
RTVSPropertyOp18
 70
     1
102
RTVSPropertyOp19
 70
     1
102
RTVSPropertyOp20
 70
     1
102
RTVSPropertyOp21
 70
     1
102
RTVSPropertyOp22
 70
     1
102
RTVSPropertyOp23
 70
     1
102
RTVSPropertyOp24
 70
     1
102
RTVSPropertyOp25
 70
     1
102
RTVSPropertyOp26
 70
     1
102
RTVSPropertyOp27
 70
     1
102
RTVSPropertyOp28
 70
     1
102
RTVSPropertyOp29
 70
     1
102
RTVSPropertyOp30
 70
     1
102
RTVSPropertyOp31
 70
     1
102
RTVSPropertyOp32
 70
     1
  0
XRECORD
  5
14FE
102
{ACAD_REACTORS
330
14FD
102
}
330
14FD
100
AcDbXrecord
280
     1
102
RTVSPropertyOp0
 70
     1
102
RTVSPropertyOp1
 70
     1
102
RTVSPropertyOp2
 70
     1
102
RTVSPropertyOp3
 70
     1
102
RTVSPropertyOp4
 70
     1
102
RTVSPropertyOp5
 70
     1
102
RTVSPropertyOp6
 70
     1
102
RTVSPropertyOp7
 70
     1
102
RTVSPropertyOp8
 70
     1
102
RTVSPropertyOp9
 70
     1
102
RTVSPropertyOp10
 70
     1
102
RTVSPropertyOp11
 70
     1
102
RTVSPropertyOp12
 70
     1
102
RTVSPropertyOp13
 70
     1
102
RTVSPropertyOp14
 70
     1
102
RTVSPropertyOp15
 70
     1
102
RTVSPropertyOp16
 70
     1
102
RTVSPropertyOp17
 70
     1
102
RTVSPropertyOp18
 70
     1
102
RTVSPropertyOp19
 70
     1
102
RTVSPropertyOp20
 70
     1
102
RTVSPropertyOp21
 70
     1
102
RTVSPropertyOp22
 70
     1
102
RTVSPropertyOp23
 70
     1
102
RTVSPropertyOp24
 70
     1
102
RTVSPropertyOp25
 70
     1
102
RTVSPropertyOp26
 70
     1
102
RTVSPropertyOp27
 70
     1
102
RTVSPropertyOp28
 70
     1
102
RTVSPropertyOp29
 70
     1
102
RTVSPropertyOp30
 70
     1
102
RTVSPropertyOp31
 70
     1
102
RTVSPropertyOp32
 70
     1
  0
XRECORD
  5
14F2
102
{ACAD_REACTORS
330
14F1
102
}
330
14F1
100
AcDbXrecord
280
     1
102
RTVSPropertyOp0
 70
     1
102
RTVSPropertyOp1
 70
     1
102
RTVSPropertyOp2
 70
     1
102
RTVSPropertyOp3
 70
     1
102
RTVSPropertyOp4
 70
     1
102
RTVSPropertyOp5
 70
     1
102
RTVSPropertyOp6
 70
     1
102
RTVSPropertyOp7
 70
     1
102
RTVSPropertyOp8
 70
     1
102
RTVSPropertyOp9
 70
     1
102
RTVSPropertyOp10
 70
     1
102
RTVSPropertyOp11
 70
     1
102
RTVSPropertyOp12
 70
     1
102
RTVSPropertyOp13
 70
     1
102
RTVSPropertyOp14
 70
     1
102
RTVSPropertyOp15
 70
     1
102
RTVSPropertyOp16
 70
     1
102
RTVSPropertyOp17
 70
     1
102
RTVSPropertyOp18
 70
     1
102
RTVSPropertyOp19
 70
     1
102
RTVSPropertyOp20
 70
     1
102
RTVSPropertyOp21
 70
     1
102
RTVSPropertyOp22
 70
     1
102
RTVSPropertyOp23
 70
     1
102
RTVSPropertyOp24
 70
     1
102
RTVSPropertyOp25
 70
     1
102
RTVSPropertyOp26
 70
     1
102
RTVSPropertyOp27
 70
     1
102
RTVSPropertyOp28
 70
     1
102
RTVSPropertyOp29
 70
     1
102
RTVSPropertyOp30
 70
     1
102
RTVSPropertyOp31
 70
     1
102
RTVSPropertyOp32
 70
     1
  0
XRECORD
  5
150A
102
{ACAD_REACTORS
330
1509
102
}
330
1509
100
AcDbXrecord
280
     1
102
RTVSPropertyOp0
 70
     1
102
RTVSPropertyOp1
 70
     1
102
RTVSPropertyOp2
 70
     1
102
RTVSPropertyOp3
 70
     1
102
RTVSPropertyOp4
 70
     1
102
RTVSPropertyOp5
 70
     1
102
RTVSPropertyOp6
 70
     1
102
RTVSPropertyOp7
 70
     1
102
RTVSPropertyOp8
 70
     1
102
RTVSPropertyOp9
 70
     1
102
RTVSPropertyOp10
 70
     1
102
RTVSPropertyOp11
 70
     1
102
RTVSPropertyOp12
 70
     1
102
RTVSPropertyOp13
 70
     1
102
RTVSPropertyOp14
 70
     1
102
RTVSPropertyOp15
 70
     1
102
RTVSPropertyOp16
 70
     1
102
RTVSPropertyOp17
 70
     1
102
RTVSPropertyOp18
 70
     1
102
RTVSPropertyOp19
 70
     1
102
RTVSPropertyOp20
 70
     1
102
RTVSPropertyOp21
 70
     1
102
RTVSPropertyOp22
 70
     1
102
RTVSPropertyOp23
 70
     1
102
RTVSPropertyOp24
 70
     1
102
RTVSPropertyOp25
 70
     1
102
RTVSPropertyOp26
 70
     1
102
RTVSPropertyOp27
 70
     1
102
RTVSPropertyOp28
 70
     1
102
RTVSPropertyOp29
 70
     1
102
RTVSPropertyOp30
 70
     1
102
RTVSPropertyOp31
 70
     1
102
RTVSPropertyOp32
 70
     1
  0
ENDSEC
  0
EOF
