  0
SECTION
  2
HEADER
  9
$ACADVER
  1
AC1015
  9
$ACADMAINTVER
 70
    20
  9
$DWGCODEPAGE
  3
ANSI_932
  9
$INSBASE
 10
0.0
 20
0.0
 30
0.0
  9
$EXTMIN
 10
-0.1016371672158129
 20
-0.4165460786025506
 30
-0.0000000000000129
  9
$EXTMAX
 10
1680.075274041592
 20
1188.427861854921
 30
0.0000000000000023
  9
$LIMMIN
 10
0.0
 20
0.0
  9
$LIMMAX
 10
1680.0
 20
1188.0
  9
$ORTHOMODE
 70
     0
  9
$REGENMODE
 70
     1
  9
$FILLMODE
 70
     1
  9
$QTEXTMODE
 70
     0
  9
$MIRRTEXT
 70
     1
  9
$LTSCALE
 40
33.6
  9
$ATTMODE
 70
     1
  9
$TEXTSIZE
 40
0.2
  9
$TRACEWID
 40
0.05
  9
$TEXTSTYLE
  7
STANDARD
  9
$CLAYER
  8
LEVEL001
  9
$CELTYPE
  6
CONTINUOUS
  9
$CECOLOR
 62
   256
  9
$CELTSCALE
 40
1.0
  9
$DISPSILH
 70
     0
  9
$DIMSCALE
 40
1.0
  9
$DIMASZ
 40
0.18
  9
$DIMEXO
 40
0.0625
  9
$DIMDLI
 40
0.38
  9
$DIMRND
 40
0.0
  9
$DIMDLE
 40
0.0
  9
$DIMEXE
 40
0.18
  9
$DIMTP
 40
0.0
  9
$DIMTM
 40
0.0
  9
$DIMTXT
 40
0.18
  9
$DIMCEN
 40
0.09
  9
$DIMTSZ
 40
0.0
  9
$DIMTOL
 70
     0
  9
$DIMLIM
 70
     0
  9
$DIMTIH
 70
     1
  9
$DIMTOH
 70
     1
  9
$DIMSE1
 70
     0
  9
$DIMSE2
 70
     0
  9
$DIMTAD
 70
     0
  9
$DIMZIN
 70
     0
  9
$DIMBLK
  1

  9
$DIMASO
 70
     1
  9
$DIMSHO
 70
     1
  9
$DIMPOST
  1

  9
$DIMAPOST
  1

  9
$DIMALT
 70
     0
  9
$DIMALTD
 70
     2
  9
$DIMALTF
 40
25.4
  9
$DIMLFAC
 40
1.0
  9
$DIMTOFL
 70
     0
  9
$DIMTVP
 40
0.0
  9
$DIMTIX
 70
     0
  9
$DIMSOXD
 70
     0
  9
$DIMSAH
 70
     0
  9
$DIMBLK1
  1

  9
$DIMBLK2
  1

  9
$DIMSTYLE
  2
STANDARD
  9
$DIMCLRD
 70
     0
  9
$DIMCLRE
 70
     0
  9
$DIMCLRT
 70
     0
  9
$DIMTFAC
 40
1.0
  9
$DIMGAP
 40
0.09
  9
$DIMJUST
 70
     0
  9
$DIMSD1
 70
     0
  9
$DIMSD2
 70
     0
  9
$DIMTOLJ
 70
     1
  9
$DIMTZIN
 70
     0
  9
$DIMALTZ
 70
     0
  9
$DIMALTTZ
 70
     0
  9
$DIMUPT
 70
     0
  9
$DIMDEC
 70
     4
  9
$DIMTDEC
 70
     4
  9
$DIMALTU
 70
     2
  9
$DIMALTTD
 70
     2
  9
$DIMTXSTY
  7
STANDARD
  9
$DIMAUNIT
 70
     0
  9
$DIMADEC
 70
     0
  9
$DIMALTRND
 40
0.0
  9
$DIMAZIN
 70
     0
  9
$DIMDSEP
 70
    46
  9
$DIMATFIT
 70
     3
  9
$DIMFRAC
 70
     0
  9
$DIMLDRBLK
  1

  9
$DIMLUNIT
 70
     2
  9
$DIMLWD
 70
    -2
  9
$DIMLWE
 70
    -2
  9
$DIMTMOVE
 70
     0
  9
$LUNITS
 70
     2
  9
$LUPREC
 70
     4
  9
$SKETCHINC
 40
0.1
  9
$FILLETRAD
 40
0.0
  9
$AUNITS
 70
     0
  9
$AUPREC
 70
     0
  9
$MENU
  1
.
  9
$ELEVATION
 40
0.0
  9
$PELEVATION
 40
0.0
  9
$THICKNESS
 40
0.0
  9
$LIMCHECK
 70
     0
  9
$CHAMFERA
 40
0.0
  9
$CHAMFERB
 40
0.0
  9
$CHAMFERC
 40
0.0
  9
$CHAMFERD
 40
0.0
  9
$SKPOLY
 70
     0
  9
$TDCREATE
 40
2451212.682759178
  9
$TDUCREATE
 40
2451212.307759178
  9
$TDUPDATE
 40
2458321.560104062
  9
$TDUUPDATE
 40
2458321.185104062
  9
$TDINDWG
 40
0.3948199190
  9
$TDUSRTIMER
 40
0.3948199190
  9
$USRTIMER
 70
     1
  9
$ANGBASE
 50
0.0
  9
$ANGDIR
 70
     0
  9
$PDMODE
 70
     0
  9
$PDSIZE
 40
0.0
  9
$PLINEWID
 40
0.0
  9
$SPLFRAME
 70
     0
  9
$SPLINETYPE
 70
     6
  9
$SPLINESEGS
 70
     8
  9
$HANDSEED
  5
14576
  9
$SURFTAB1
 70
     6
  9
$SURFTAB2
 70
     6
  9
$SURFTYPE
 70
     6
  9
$SURFU
 70
     6
  9
$SURFV
 70
     6
  9
$UCSBASE
  2

  9
$UCSNAME
  2

  9
$UCSORG
 10
0.0
 20
0.0
 30
0.0
  9
$UCSXDIR
 10
1.0
 20
0.0
 30
0.0
  9
$UCSYDIR
 10
0.0
 20
1.0
 30
0.0
  9
$UCSORTHOREF
  2

  9
$UCSORTHOVIEW
 70
     0
  9
$UCSORGTOP
 10
0.0
 20
0.0
 30
0.0
  9
$UCSORGBOTTOM
 10
0.0
 20
0.0
 30
0.0
  9
$UCSORGLEFT
 10
0.0
 20
0.0
 30
0.0
  9
$UCSORGRIGHT
 10
0.0
 20
0.0
 30
0.0
  9
$UCSORGFRONT
 10
0.0
 20
0.0
 30
0.0
  9
$UCSORGBACK
 10
0.0
 20
0.0
 30
0.0
  9
$PUCSBASE
  2

  9
$PUCSNAME
  2

  9
$PUCSORG
 10
0.0
 20
0.0
 30
0.0
  9
$PUCSXDIR
 10
1.0
 20
0.0
 30
0.0
  9
$PUCSYDIR
 10
0.0
 20
1.0
 30
0.0
  9
$PUCSORTHOREF
  2

  9
$PUCSORTHOVIEW
 70
     0
  9
$PUCSORGTOP
 10
0.0
 20
0.0
 30
0.0
  9
$PUCSORGBOTTOM
 10
0.0
 20
0.0
 30
0.0
  9
$PUCSORGLEFT
 10
0.0
 20
0.0
 30
0.0
  9
$PUCSORGRIGHT
 10
0.0
 20
0.0
 30
0.0
  9
$PUCSORGFRONT
 10
0.0
 20
0.0
 30
0.0
  9
$PUCSORGBACK
 10
0.0
 20
0.0
 30
0.0
  9
$USERI1
 70
     0
  9
$USERI2
 70
     0
  9
$USERI3
 70
     0
  9
$USERI4
 70
     0
  9
$USERI5
 70
     0
  9
$USERR1
 40
0.0
  9
$USERR2
 40
0.0
  9
$USERR3
 40
0.0
  9
$USERR4
 40
0.0
  9
$USERR5
 40
0.0
  9
$WORLDVIEW
 70
     1
  9
$SHADEDGE
 70
     3
  9
$SHADEDIF
 70
    70
  9
$TILEMODE
 70
     1
  9
$MAXACTVP
 70
    16
  9
$PINSBASE
 10
0.0
 20
0.0
 30
0.0
  9
$PLIMCHECK
 70
     0
  9
$PEXTMIN
 10
1.000000000000000E+20
 20
1.000000000000000E+20
 30
1.000000000000000E+20
  9
$PEXTMAX
 10
-1.000000000000000E+20
 20
-1.000000000000000E+20
 30
-1.000000000000000E+20
  9
$PLIMMIN
 10
0.0
 20
0.0
  9
$PLIMMAX
 10
12.0
 20
9.0
  9
$UNITMODE
 70
     0
  9
$VISRETAIN
 70
     1
  9
$PLINEGEN
 70
     0
  9
$PSLTSCALE
 70
     1
  9
$TREEDEPTH
 70
  3020
  9
$CMLSTYLE
  2
STANDARD
  9
$CMLJUST
 70
     0
  9
$CMLSCALE
 40
1.0
  9
$PROXYGRAPHICS
 70
     1
  9
$MEASUREMENT
 70
     0
  9
$CELWEIGHT
370
    -1
  9
$ENDCAPS
280
     0
  9
$JOINSTYLE
280
     0
  9
$LWDISPLAY
290
     0
  9
$INSUNITS
 70
     0
  9
$HYPERLINKBASE
  1

  9
$STYLESHEET
  1

  9
$XEDIT
290
     1
  9
$CEPSNTYPE
380
     0
  9
$PSTYLEMODE
290
     0
  9
$FINGERPRINTGUID
  2
{CEB546B5-3475-4345-9716-9E0C52716ACD}
  9
$VERSIONGUID
  2
{DB9A5997-263C-47A4-9C3D-88169EDB9F60}
  9
$EXTNAMES
290
     1
  9
$PSVPSCALE
 40
0.0
  9
$OLESTARTUP
290
     0
  0
ENDSEC
  0
SECTION
  2
CLASSES
  0
CLASS
  1
ACDBDICTIONARYWDFLT
  2
AcDbDictionaryWithDefault
  3
ObjectDBX Classes
 90
        0
280
     0
281
     0
  0
CLASS
  1
TABLESTYLE
  2
AcDbTableStyle
  3
ObjectDBX Classes
 90
     4095
280
     0
281
     0
  0
CLASS
  1
SORTENTSTABLE
  2
AcDbSortentsTable
  3
ObjectDBX Classes
 90
        0
280
     0
281
     0
  0
CLASS
  1
DICTIONARYVAR
  2
AcDbDictionaryVar
  3
ObjectDBX Classes
 90
        0
280
     0
281
     0
  0
CLASS
  1
ACDBPLACEHOLDER
  2
AcDbPlaceHolder
  3
ObjectDBX Classes
 90
        0
280
     0
281
     0
  0
CLASS
  1
LAYOUT
  2
AcDbLayout
  3
ObjectDBX Classes
 90
        0
280
     0
281
     0
  0
CLASS
  1
MATERIAL
  2
AcDbMaterial
  3
ObjectDBX Classes
 90
     1153
280
     0
281
     0
  0
CLASS
  1
VISUALSTYLE
  2
AcDbVisualStyle
  3
ObjectDBX Classes
 90
     4095
280
     0
281
     0
  0
CLASS
  1
SCALE
  2
AcDbScale
  3
ObjectDBX Classes
 90
     1153
280
     0
281
     0
  0
CLASS
  1
MLEADERSTYLE
  2
AcDbMLeaderStyle
  3
ACDB_MLEADERSTYLE_CLASS
 90
     4095
280
     0
281
     0
  0
CLASS
  1
CELLSTYLEMAP
  2
AcDbCellStyleMap
  3
ObjectDBX Classes
 90
     1152
280
     0
281
     0
  0
ENDSEC
  0
SECTION
  2
TABLES
  0
TABLE
  2
VPORT
  5
1
330
0
100
AcDbSymbolTable
 70
     1
  0
VPORT
  5
3DA1
330
1
100
AcDbSymbolTableRecord
100
AcDbViewportTableRecord
  2
*Active
 70
     0
 10
0.0
 20
0.0
 11
1.0
 21
1.0
 12
839.986818437188
 22
594.0056578881594
 13
0.0
 23
0.0
 14
1.0
 24
1.0
 15
0.0
 25
0.0
 16
0.0
 26
0.0
 36
1.0
 17
0.0
 27
0.0
 37
0.0
 40
1200.042314444672
 41
1.882075471698113
 42
50.0
 43
0.0
 44
0.0
 50
0.0
 51
0.0
 71
     0
 72
   100
 73
     1
 74
     1
 75
     0
 76
     0
 77
     0
 78
     0
281
     0
 65
     1
110
0.0
120
0.0
130
0.0
111
1.0
121
0.0
131
0.0
112
0.0
122
1.0
132
0.0
 79
     0
146
0.0
1001
ACAD_NAV_VCDISPLAY
1070
     3
  0
ENDTAB
  0
TABLE
  2
LTYPE
  5
69
330
0
100
AcDbSymbolTable
 70
     4
  0
LTYPE
  5
1D
330
69
100
AcDbSymbolTableRecord
100
AcDbLinetypeTableRecord
  2
BYBLOCK
 70
     0
  3

 72
    65
 73
     0
 40
0.0
  0
LTYPE
  5
1E
330
69
100
AcDbSymbolTableRecord
100
AcDbLinetypeTableRecord
  2
BYLAYER
 70
     0
  3

 72
    65
 73
     0
 40
0.0
  0
LTYPE
  5
1F
330
69
100
AcDbSymbolTableRecord
100
AcDbLinetypeTableRecord
  2
CONTINUOUS
 70
     0
  3
Solid line
 72
    65
 73
     0
 40
0.0
  0
LTYPE
  5
26
330
69
100
AcDbSymbolTableRecord
100
AcDbLinetypeTableRecord
  2
DASHDOT
 70
     0
  3
__ . __ . __ . __ . __ . __ . __ . __ . __ . __
 72
    65
 73
     4
 40
1.0
 49
0.5
 74
     0
 49
-0.25
 74
     0
 49
0.0
 74
     0
 49
-0.25
 74
     0
  0
LTYPE
  5
2F
330
69
100
AcDbSymbolTableRecord
100
AcDbLinetypeTableRecord
  2
DOT
 70
     0
  3
. . . . . . . . . . . . . . . . . . . . . . . .
 72
    65
 73
     2
 40
0.25
 49
0.0
 74
     0
 49
-0.25
 74
     0
  0
LTYPE
  5
32
330
69
100
AcDbSymbolTableRecord
100
AcDbLinetypeTableRecord
  2
HIDDEN
 70
     0
  3
__ __ __ __ __ __ __ __ __ __ __ __ __ __ __ __
 72
    65
 73
     2
 40
0.375
 49
0.25
 74
     0
 49
-0.125
 74
     0
  0
ENDTAB
  0
TABLE
  2
LAYER
  5
68
102
{ACAD_XDICTIONARY
360
4CA3
102
}
330
0
100
AcDbSymbolTable
 70
    11
  0
LAYER
  5
38
102
{ACAD_XDICTIONARY
360
473F
102
}
330
68
100
AcDbSymbolTableRecord
100
AcDbLayerTableRecord
  2
0
 70
     0
 62
     7
  6
CONTINUOUS
370
    -3
390
37ED
  0
LAYER
  5
39
102
{ACAD_XDICTIONARY
360
4741
102
}
330
68
100
AcDbSymbolTableRecord
100
AcDbLayerTableRecord
  2
LEVEL001
 70
     0
 62
     7
  6
CONTINUOUS
370
    -3
390
37ED
  0
LAYER
  5
474B
102
{ACAD_XDICTIONARY
360
474C
102
}
330
68
100
AcDbSymbolTableRecord
100
AcDbLayerTableRecord
  2
LEVEL002
 70
     0
 62
     7
  6
CONTINUOUS
370
    -3
390
37ED
  0
LAYER
  5
474D
102
{ACAD_XDICTIONARY
360
474E
102
}
330
68
100
AcDbSymbolTableRecord
100
AcDbLayerTableRecord
  2
LEVEL003
 70
     0
 62
     7
  6
CONTINUOUS
370
    -3
390
37ED
  0
LAYER
  5
474F
102
{ACAD_XDICTIONARY
360
4750
102
}
330
68
100
AcDbSymbolTableRecord
100
AcDbLayerTableRecord
  2
LEVEL004
 70
     0
 62
     7
  6
CONTINUOUS
370
    -3
390
37ED
  0
LAYER
  5
4751
102
{ACAD_XDICTIONARY
360
4752
102
}
330
68
100
AcDbSymbolTableRecord
100
AcDbLayerTableRecord
  2
LEVEL007
 70
     0
 62
     7
  6
CONTINUOUS
370
    -3
390
37ED
  0
LAYER
  5
4753
330
68
100
AcDbSymbolTableRecord
100
AcDbLayerTableRecord
  2
1
 70
     0
 62
     7
  6
CONTINUOUS
370
    -3
390
37ED
1001
AcAecLayerStandard
1000

1000

  0
LAYER
  5
A90E
330
68
100
AcDbSymbolTableRecord
100
AcDbLayerTableRecord
  2
LEVEL008
 70
     0
 62
     7
  6
CONTINUOUS
370
    -3
390
37ED
  0
LAYER
  5
A90F
330
68
100
AcDbSymbolTableRecord
100
AcDbLayerTableRecord
  2
LEVEL010
 70
     0
 62
     7
  6
CONTINUOUS
370
    -3
390
37ED
  0
LAYER
  5
A910
330
68
100
AcDbSymbolTableRecord
100
AcDbLayerTableRecord
  2
LEVEL011
 70
     0
 62
     7
  6
CONTINUOUS
370
    -3
390
37ED
  0
LAYER
  5
A911
330
68
100
AcDbSymbolTableRecord
100
AcDbLayerTableRecord
  2
LEVEL012
 70
     0
 62
     7
  6
CONTINUOUS
370
    -3
390
37ED
  0
ENDTAB
  0
TABLE
  2
STYLE
  5
6
330
0
100
AcDbSymbolTable
 70
     1
  0
STYLE
  5
7
330
6
100
AcDbSymbolTableRecord
100
AcDbTextStyleTableRecord
  2
STANDARD
 70
     0
 40
0.0
 41
0.8
 50
0.0
 71
     0
 42
0.2
  3
TXT.shx
  4
BIGFONT.shx
  0
ENDTAB
  0
TABLE
  2
VIEW
  5
2
330
0
100
AcDbSymbolTable
 70
     0
  0
ENDTAB
  0
TABLE
  2
UCS
  5
3
330
0
100
AcDbSymbolTable
 70
     0
  0
ENDTAB
  0
TABLE
  2
APPID
  5
4
330
0
100
AcDbSymbolTable
 70
     8
  0
APPID
  5
5
330
4
100
AcDbSymbolTableRecord
100
AcDbRegAppTableRecord
  2
ACAD
 70
     0
  0
APPID
  5
385F
330
4
100
AcDbSymbolTableRecord
100
AcDbRegAppTableRecord
  2
ACAD_PSEXT
 70
     0
  0
APPID
  5
3DF1
330
4
100
AcDbSymbolTableRecord
100
AcDbRegAppTableRecord
  2
ACAD_NAV_VCDISPLAY
 70
     0
  0
APPID
  5
3ECF
330
4
100
AcDbSymbolTableRecord
100
AcDbRegAppTableRecord
  2
GradientColor1ACI
 70
     0
  0
APPID
  5
3ED0
330
4
100
AcDbSymbolTableRecord
100
AcDbRegAppTableRecord
  2
GradientColor2ACI
 70
     0
  0
APPID
  5
3ED2
330
4
100
AcDbSymbolTableRecord
100
AcDbRegAppTableRecord
  2
ACAD_EXEMPT_FROM_CAD_STANDARDS
 70
     0
  0
APPID
  5
4754
330
4
100
AcDbSymbolTableRecord
100
AcDbRegAppTableRecord
  2
AcAecLayerStandard
 70
     0
  0
APPID
  5
14575
330
4
100
AcDbSymbolTableRecord
100
AcDbRegAppTableRecord
  2
ACAD_MLEADERVER
 70
     0
  0
ENDTAB
  0
TABLE
  2
DIMSTYLE
  5
67
330
0
100
AcDbSymbolTable
 70
     1
100
AcDbDimStyleTable
 71
     1
340
3C
  0
DIMSTYLE
105
3C
330
67
100
AcDbSymbolTableRecord
100
AcDbDimStyleTableRecord
  2
STANDARD
 70
     0
340
7
  0
ENDTAB
  0
TABLE
  2
BLOCK_RECORD
  5
9
330
0
100
AcDbSymbolTable
 70
     0
  0
BLOCK_RECORD
  5
A
102
{ACAD_XDICTIONARY
360
37FA
102
}
330
9
100
AcDbSymbolTableRecord
100
AcDbBlockTableRecord
  2
*MODEL_SPACE
340
37F4
  0
BLOCK_RECORD
  5
B
330
9
100
AcDbSymbolTableRecord
100
AcDbBlockTableRecord
  2
*PAPER_SPACE
340
37F5
  0
ENDTAB
  0
ENDSEC
  0
SECTION
  2
BLOCKS
  0
BLOCK
  5
41
330
A
100
AcDbEntity
  8
0
100
AcDbBlockBegin
  2
*MODEL_SPACE
 70
     0
 10
0.0
 20
0.0
 30
0.0
  3
*MODEL_SPACE
  1

  0
ENDBLK
  5
54
330
A
100
AcDbEntity
  8
0
100
AcDbBlockEnd
  0
BLOCK
  5
42
330
B
100
AcDbEntity
 67
     1
  8
0
100
AcDbBlockBegin
  2
*PAPER_SPACE
 70
     0
 10
0.0
 20
0.0
 30
0.0
  3
*PAPER_SPACE
  1

  0
ENDBLK
  5
55
330
B
100
AcDbEntity
 67
     1
  8
0
100
AcDbBlockEnd
  0
ENDSEC
  0
SECTION
  2
ENTITIES
  0
TEXT
  5
2C33
330
A
100
AcDbEntity
  8
LEVEL001
 62
     8
100
AcDbText
 10
1268.8000000001
 20
1936.1666666667
 30
0.0
 40
8.0
  1

 41
0.5
100
AcDbText
  0
TEXT
  5
2C3A
330
A
100
AcDbEntity
  8
LEVEL001
 62
     8
100
AcDbText
 10
1268.8000000001
 20
1861.5
 30
0.0
 40
8.0
  1

 41
0.5
100
AcDbText
  0
TEXT
  5
2C42
330
A
100
AcDbEntity
  8
LEVEL001
 62
     8
100
AcDbText
 10
1268.8000000001
 20
1776.1666666667
 30
0.0
 40
8.0
  1

 41
0.5
100
AcDbText
  0
TEXT
  5
2C4B
330
A
100
AcDbEntity
  8
LEVEL001
 62
     8
100
AcDbText
 10
1268.8000000001
 20
1680.1666666667
 30
0.0
 40
8.0
  1

 41
0.5
100
AcDbText
  0
TEXT
  5
2C52
330
A
100
AcDbEntity
  8
LEVEL001
 62
     8
100
AcDbText
 10
1268.8000000001
 20
1605.5
 30
0.0
 40
8.0
  1

 41
0.5
100
AcDbText
  0
TEXT
  5
2C5A
330
A
100
AcDbEntity
  8
LEVEL001
 62
     8
100
AcDbText
 10
1268.8000000001
 20
1520.1666666667
 30
0.0
 40
8.0
  1

 41
0.5
100
AcDbText
  0
TEXT
  5
2C5B
330
A
100
AcDbEntity
  8
LEVEL001
 62
     8
100
AcDbText
 10
1268.8000000001
 20
1509.5
 30
0.0
 40
8.0
  1

 41
0.5
100
AcDbText
  0
TEXT
  5
2C5C
330
A
100
AcDbEntity
  8
LEVEL001
 62
     8
100
AcDbText
 10
1268.8000000001
 20
1498.8333333333
 30
0.0
 40
8.0
  1
 
 41
0.5
100
AcDbText
  0
TEXT
  5
2C69
330
A
100
AcDbEntity
  8
LEVEL001
 62
     8
100
AcDbText
 10
1268.8000000001
 20
748.16666666668
 30
0.0
 40
8.0
  1

 41
0.5
100
AcDbText
  0
TEXT
  5
2C70
330
A
100
AcDbEntity
  8
LEVEL001
 62
     8
100
AcDbText
 10
1268.8000000001
 20
673.5000000000099
 30
0.0
 40
8.0
  1

 41
0.5
100
AcDbText
  0
TEXT
  5
2C78
330
A
100
AcDbEntity
  8
LEVEL001
 62
     8
100
AcDbText
 10
1268.8000000001
 20
588.16666666668
 30
0.0
 40
8.0
  1

 41
0.5
100
AcDbText
  0
TEXT
  5
2C81
330
A
100
AcDbEntity
  8
LEVEL001
 62
     8
100
AcDbText
 10
1268.8000000001
 20
492.16666666668
 30
0.0
 40
8.0
  1

 41
0.5
100
AcDbText
  0
TEXT
  5
2C88
330
A
100
AcDbEntity
  8
LEVEL001
 62
     8
100
AcDbText
 10
1268.8000000001
 20
417.50000000001
 30
0.0
 40
8.0
  1

 41
0.5
100
AcDbText
  0
TEXT
  5
2C90
330
A
100
AcDbEntity
  8
LEVEL001
 62
     8
100
AcDbText
 10
1268.8000000001
 20
332.16666666668
 30
0.0
 40
8.0
  1

 41
0.5
100
AcDbText
  0
TEXT
  5
2C91
330
A
100
AcDbEntity
  8
LEVEL001
 62
     8
100
AcDbText
 10
1268.8000000001
 20
321.50000000001
 30
0.0
 40
8.0
  1

 41
0.5
100
AcDbText
  0
TEXT
  5
2C92
330
A
100
AcDbEntity
  8
LEVEL001
 62
     8
100
AcDbText
 10
1268.8000000001
 20
310.83333333334
 30
0.0
 40
8.0
  1
 
 41
0.5
100
AcDbText
  0
TEXT
  5
2C9F
330
A
100
AcDbEntity
  8
LEVEL001
 62
     8
100
AcDbText
 10
1268.8000000001
 20
3124.1666666667
 30
0.0
 40
8.0
  1

 41
0.5
100
AcDbText
  0
TEXT
  5
2CA6
330
A
100
AcDbEntity
  8
LEVEL001
 62
     8
100
AcDbText
 10
1268.8000000001
 20
3049.5
 30
0.0
 40
8.0
  1

 41
0.5
100
AcDbText
  0
TEXT
  5
2CAE
330
A
100
AcDbEntity
  8
LEVEL001
 62
     8
100
AcDbText
 10
1268.8000000001
 20
2964.166666666701
 30
0.0
 40
8.0
  1

 41
0.5
100
AcDbText
  0
TEXT
  5
2CB7
330
A
100
AcDbEntity
  8
LEVEL001
 62
     8
100
AcDbText
 10
1268.8000000001
 20
2868.1666666667
 30
0.0
 40
8.0
  1

 41
0.5
100
AcDbText
  0
TEXT
  5
2CBE
330
A
100
AcDbEntity
  8
LEVEL001
 62
     8
100
AcDbText
 10
1268.8000000001
 20
2793.5
 30
0.0
 40
8.0
  1

 41
0.5
100
AcDbText
  0
TEXT
  5
2CC6
330
A
100
AcDbEntity
  8
LEVEL001
 62
     8
100
AcDbText
 10
1268.8000000001
 20
2708.1666666667
 30
0.0
 40
8.0
  1

 41
0.5
100
AcDbText
  0
TEXT
  5
2CC7
330
A
100
AcDbEntity
  8
LEVEL001
 62
     8
100
AcDbText
 10
1268.8000000001
 20
2697.5
 30
0.0
 40
8.0
  1

 41
0.5
100
AcDbText
  0
TEXT
  5
2CC8
330
A
100
AcDbEntity
  8
LEVEL001
 62
     8
100
AcDbText
 10
1268.8000000001
 20
2686.8333333333
 30
0.0
 40
8.0
  1
 
 41
0.5
100
AcDbText
  0
TEXT
  5
2CD5
330
A
100
AcDbEntity
  8
LEVEL001
 62
     8
100
AcDbText
 10
1268.8000000001
 20
4312.1666666667
 30
0.0
 40
8.0
  1

 41
0.5
100
AcDbText
  0
TEXT
  5
2CDC
330
A
100
AcDbEntity
  8
LEVEL001
 62
     8
100
AcDbText
 10
1268.8000000001
 20
4237.499999999999
 30
0.0
 40
8.0
  1

 41
0.5
100
AcDbText
  0
TEXT
  5
2CE4
330
A
100
AcDbEntity
  8
LEVEL001
 62
     8
100
AcDbText
 10
1268.8000000001
 20
4152.166666666699
 30
0.0
 40
8.0
  1

 41
0.5
100
AcDbText
  0
TEXT
  5
2CED
330
A
100
AcDbEntity
  8
LEVEL001
 62
     8
100
AcDbText
 10
1268.8000000001
 20
4056.1666666667
 30
0.0
 40
8.0
  1

 41
0.5
100
AcDbText
  0
TEXT
  5
2CF4
330
A
100
AcDbEntity
  8
LEVEL001
 62
     8
100
AcDbText
 10
1268.8000000001
 20
3981.5
 30
0.0
 40
8.0
  1

 41
0.5
100
AcDbText
  0
TEXT
  5
2CFC
330
A
100
AcDbEntity
  8
LEVEL001
 62
     8
100
AcDbText
 10
1268.8000000001
 20
3896.1666666667
 30
0.0
 40
8.0
  1

 41
0.5
100
AcDbText
  0
TEXT
  5
2CFD
330
A
100
AcDbEntity
  8
LEVEL001
 62
     8
100
AcDbText
 10
1268.8000000001
 20
3885.5
 30
0.0
 40
8.0
  1

 41
0.5
100
AcDbText
  0
TEXT
  5
2CFE
330
A
100
AcDbEntity
  8
LEVEL001
 62
     8
100
AcDbText
 10
1268.8000000001
 20
3874.8333333333
 30
0.0
 40
8.0
  1
 
 41
0.5
100
AcDbText
  0
TEXT
  5
2D10
330
A
100
AcDbEntity
  8
LEVEL001
 62
     8
100
AcDbText
 10
1268.8000000001
 20
7876.1666666667
 30
0.0
 40
8.0
  1

 41
0.5
100
AcDbText
  0
TEXT
  5
2D17
330
A
100
AcDbEntity
  8
LEVEL001
 62
     8
100
AcDbText
 10
1268.8000000001
 20
7801.5
 30
0.0
 40
8.0
  1

 41
0.5
100
AcDbText
  0
TEXT
  5
2D1F
330
A
100
AcDbEntity
  8
LEVEL001
 62
     8
100
AcDbText
 10
1268.8000000001
 20
7716.1666666667
 30
0.0
 40
8.0
  1

 41
0.5
100
AcDbText
  0
TEXT
  5
2D28
330
A
100
AcDbEntity
  8
LEVEL001
 62
     8
100
AcDbText
 10
1268.8000000001
 20
7620.166666666699
 30
0.0
 40
8.0
  1

 41
0.5
100
AcDbText
  0
TEXT
  5
2D2F
330
A
100
AcDbEntity
  8
LEVEL001
 62
     8
100
AcDbText
 10
1268.8000000001
 20
7545.5
 30
0.0
 40
8.0
  1

 41
0.5
100
AcDbText
  0
TEXT
  5
2D37
330
A
100
AcDbEntity
  8
LEVEL001
 62
     8
100
AcDbText
 10
1268.8000000001
 20
7460.1666666667
 30
0.0
 40
8.0
  1

 41
0.5
100
AcDbText
  0
TEXT
  5
2D38
330
A
100
AcDbEntity
  8
LEVEL001
 62
     8
100
AcDbText
 10
1268.8000000001
 20
7449.5
 30
0.0
 40
8.0
  1

 41
0.5
100
AcDbText
  0
TEXT
  5
2D39
330
A
100
AcDbEntity
  8
LEVEL001
 62
     8
100
AcDbText
 10
1268.8000000001
 20
7438.833333333301
 30
0.0
 40
8.0
  1
 
 41
0.5
100
AcDbText
  0
TEXT
  5
2D49
330
A
100
AcDbEntity
  8
LEVEL001
 62
     8
100
AcDbText
 10
1268.8000000001
 20
5500.1666666667
 30
0.0
 40
8.0
  1

 41
0.5
100
AcDbText
  0
TEXT
  5
2D50
330
A
100
AcDbEntity
  8
LEVEL001
 62
     8
100
AcDbText
 10
1268.8000000001
 20
5425.5
 30
0.0
 40
8.0
  1

 41
0.5
100
AcDbText
  0
TEXT
  5
2D60
330
A
100
AcDbEntity
  8
LEVEL001
 62
     8
100
AcDbText
 10
1268.8000000001
 20
6688.1666666667
 30
0.0
 40
8.0
  1

 41
0.5
100
AcDbText
  0
TEXT
  5
2D67
330
A
100
AcDbEntity
  8
LEVEL001
 62
     8
100
AcDbText
 10
1268.8000000001
 20
6613.500000000001
 30
0.0
 40
8.0
  1

 41
0.5
100
AcDbText
  0
TEXT
  5
2D6F
330
A
100
AcDbEntity
  8
LEVEL001
 62
     8
100
AcDbText
 10
1268.8000000001
 20
6528.166666666699
 30
0.0
 40
8.0
  1

 41
0.5
100
AcDbText
  0
TEXT
  5
2D70
330
A
100
AcDbEntity
  8
LEVEL001
 62
     8
100
AcDbText
 10
1268.8000000001
 20
6517.5
 30
0.0
 40
8.0
  1

 41
0.5
100
AcDbText
  0
TEXT
  5
2D71
330
A
100
AcDbEntity
  8
LEVEL001
 62
     8
100
AcDbText
 10
1268.8000000001
 20
6506.8333333333
 30
0.0
 40
8.0
  1
 
 41
0.5
100
AcDbText
  0
LWPOLYLINE
  5
87A3
330
A
100
AcDbEntity
  8
LEVEL001
  6
Continuous
 62
     3
370
    40
100
AcDbPolyline
 90
        5
 70
     0
 43
0.0
 10
62.00000000010914
 20
48.0
 10
1618.0000000001
 20
48.0
 10
1618.0000000001
 20
1140.0
 10
62.00000000010914
 20
1140.0
 10
62.00000000010914
 20
48.0
  0
LWPOLYLINE
  5
87A4
330
A
100
AcDbEntity
  8
0
  6
DOT
100
AcDbPolyline
 90
        5
 70
     0
 43
0.0
 10
0.0
 20
0.0
 10
1680.0
 20
0.0
 10
1680.0
 20
1188.0
 10
0.0
 20
1188.0
 10
0.0
 20
0.0
  0
TEXT
  5
87A5
330
A
100
AcDbEntity
  8
LEVEL001
 62
     3
100
AcDbText
 10
1273.2800000001
 20
267.0
 30
0.0
 40
12.0
  1
図面名称：
 41
0.8
 72
     1
 11
1299.2000000001
 21
273.0
 31
0.0
100
AcDbText
 73
     2
  0
TEXT
  5
87A6
330
A
100
AcDbEntity
  8
LEVEL001
 62
     3
100
AcDbText
 10
1273.1200000001
 20
187.0
 30
0.0
 40
12.0
  1
縮尺：
 41
0.8
 72
     1
 11
1287.2000000001
 21
193.0
 31
0.0
100
AcDbText
 73
     2
  0
TEXT
  5
87A7
330
A
100
AcDbEntity
  8
LEVEL001
 62
     3
100
AcDbText
 10
1273.8400000001
 20
108.8861409145001
 30
0.0
 40
12.0
  1
用紙サイズ：
 41
0.8
 72
     1
 11
1305.2000000001
 21
114.8861409145002
 31
0.0
100
AcDbText
 73
     2
  0
TEXT
  5
87A8
330
A
100
AcDbEntity
  8
LEVEL001
 62
     3
100
AcDbText
 10
1475.306666666766
 20
189.0666666666997
 30
0.0
 40
11.2
  1
作成日付：
 41
0.8
 72
     1
 11
1499.2000000001
 21
194.6666666666997
 31
0.0
100
AcDbText
 73
     2
  0
TEXT
  5
87A9
330
A
100
AcDbEntity
  8
LEVEL001
 62
     3
100
AcDbText
 10
1475.306666666766
 20
162.4
 30
0.0
 40
11.2
  1
変更日付：
 41
0.8
 72
     1
 11
1499.2000000001
 21
168.0
 31
0.0
100
AcDbText
 73
     2
  0
TEXT
  5
87AA
330
A
100
AcDbEntity
  8
LEVEL001
 62
     3
100
AcDbText
 10
1473.5200000001
 20
107.0
 30
0.0
 40
12.0
  1
ファイル名：
 41
0.8
 72
     1
 11
1505.2000000001
 21
113.0
 31
0.0
100
AcDbText
 73
     2
  0
LINE
  5
87AB
330
A
100
AcDbEntity
  8
LEVEL001
  6
Continuous
 62
     3
100
AcDbLine
 10
1468.0000000001
 20
208.0
 30
0.0
 11
1468.0000000001
 21
48.0
 31
0.0
  0
LINE
  5
87AC
330
A
100
AcDbEntity
  8
LEVEL001
  6
Continuous
 62
     3
370
    40
100
AcDbLine
 10
1268.0000000001
 20
1140.0
 30
0.0
 11
1268.0000000001
 21
48.0
 31
0.0
  0
LINE
  5
87AD
330
A
100
AcDbEntity
  8
LEVEL001
  6
Continuous
 62
     3
100
AcDbLine
 10
1268.0000000001
 20
288.0
 30
0.0
 11
1618.0000000001
 21
288.0
 31
0.0
  0
LINE
  5
87AE
330
A
100
AcDbEntity
  8
LEVEL001
  6
Continuous
 62
     3
100
AcDbLine
 10
1268.0000000001
 20
208.0
 30
0.0
 11
1618.0000000001
 21
208.0
 31
0.0
  0
LINE
  5
87AF
330
A
100
AcDbEntity
  8
LEVEL001
  6
Continuous
 62
     3
100
AcDbLine
 10
1268.0000000001
 20
128.0
 30
0.0
 11
1618.0000000001
 21
128.0
 31
0.0
  0
LINE
  5
87B0
330
A
100
AcDbEntity
  8
LEVEL001
  6
Continuous
 62
     3
100
AcDbLine
 10
1468.0000000001
 20
181.3333333333003
 30
0.0
 11
1618.0000000001
 21
181.3333333333003
 31
0.0
  0
LINE
  5
87B1
330
A
100
AcDbEntity
  8
LEVEL001
  6
Continuous
 62
     3
100
AcDbLine
 10
1468.0000000001
 20
154.6666666666997
 30
0.0
 11
1618.0000000001
 21
154.6666666666997
 31
0.0
  0
LWPOLYLINE
  5
87B2
330
A
100
AcDbEntity
  8
LEVEL001
  6
Continuous
 62
     3
100
AcDbPolyline
 90
        6
 70
     0
 43
0.0
 10
1409.8800000003
 20
1087.34
 10
1386.8400000003
 20
1087.34
 10
1386.8400000003
 20
1052.78
 10
1398.3600000003
 20
1052.78
 10
1398.3600000003
 20
1058.54
 10
1409.8800000003
 20
1058.54
  0
ARC
  5
87B3
330
A
100
AcDbEntity
  8
LEVEL001
  6
Continuous
 62
     3
100
AcDbCircle
 10
1409.8800000003
 20
1072.94
 30
0.0
 40
14.4
100
AcDbArc
 50
270.0
 51
90.0
  0
LINE
  5
87B4
330
A
100
AcDbEntity
  8
LEVEL001
  6
Continuous
 62
     3
100
AcDbLine
 10
1398.3600000003
 20
1070.059999999999
 30
0.0
 11
1409.8800000003
 21
1070.059999999999
 31
0.0
  0
ARC
  5
87B5
330
A
100
AcDbEntity
  8
LEVEL001
  6
Continuous
 62
     3
100
AcDbCircle
 10
1409.8800000003
 20
1072.94
 30
0.0
 40
2.879999999999999
100
AcDbArc
 50
270.0
 51
90.0
  0
LINE
  5
87B6
330
A
100
AcDbEntity
  8
LEVEL001
  6
Continuous
 62
     3
100
AcDbLine
 10
1409.8800000003
 20
1075.819999999999
 30
0.0
 11
1398.3600000003
 21
1075.819999999999
 31
0.0
  0
LINE
  5
87B7
330
A
100
AcDbEntity
  8
LEVEL001
  6
Continuous
 62
     3
100
AcDbLine
 10
1398.3600000003
 20
1075.819999999999
 30
0.0
 11
1398.3600000003
 21
1070.059999999999
 31
0.0
  0
LWPOLYLINE
  5
87B8
330
A
100
AcDbEntity
  8
LEVEL001
  6
Continuous
 62
     3
100
AcDbPolyline
 90
       26
 70
     0
 43
0.0
 10
1415.6400000003
 20
1052.78
 10
1438.6800000003
 20
1087.34
 10
1467.4800000003
 20
1087.34
 10
1467.4800000003
 20
1064.299999999999
 10
1484.7600000003
 20
1064.299999999999
 10
1484.7600000003
 20
1075.819999999999
 10
1473.2400000003
 20
1075.819999999999
 10
1473.2400000003
 20
1087.34
 10
1542.3600000003
 20
1087.34
 10
1542.3600000003
 20
1075.819999999999
 10
1519.3200000003
 20
1075.819999999999
 10
1519.3200000003
 20
1072.94
 10
1539.480000000299
 20
1072.94
 10
1539.480000000299
 20
1067.18
 10
1519.3200000003
 20
1067.18
 10
1519.3200000003
 20
1064.299999999999
 10
1542.3600000003
 20
1064.299999999999
 10
1542.3600000003
 20
1052.78
 10
1507.8000000003
 20
1052.78
 10
1507.8000000003
 20
1075.819999999999
 10
1496.2800000003
 20
1075.819999999999
 10
1496.2800000003
 20
1052.78
 10
1455.9600000003
 20
1052.78
 10
1455.9600000003
 20
1087.34
 10
1432.9200000003
 20
1052.78
 10
1415.6400000003
 20
1052.78
  0
LWPOLYLINE
  5
87B9
330
A
100
AcDbEntity
  8
LEVEL001
  6
Continuous
 62
     3
100
AcDbPolyline
 90
        4
 70
     0
 43
0.0
 10
1452.1200000003
 20
1074.657341551099
 10
1437.5351056329
 20
1052.78
 10
1452.1200000003
 20
1052.78
 10
1452.1200000003
 20
1074.657341551099
  0
ARC
  5
87BA
330
A
100
AcDbEntity
  8
LEVEL001
  6
Continuous
 62
     3
100
AcDbCircle
 10
1559.6400000003
 20
1070.059999999999
 30
0.0
 40
17.28
100
AcDbArc
 50
90.0
 51
270.0
  0
ARC
  5
87BB
330
A
100
AcDbEntity
  8
LEVEL001
  6
Continuous
 62
     3
100
AcDbCircle
 10
1559.6400000003
 20
1070.059999999999
 30
0.0
 40
5.759999999999999
100
AcDbArc
 50
90.0
 51
270.0
  0
LWPOLYLINE
  5
87BC
330
A
100
AcDbEntity
  8
LEVEL001
  6
Continuous
 62
     3
100
AcDbPolyline
 90
        4
 70
     0
 43
0.0
 10
1559.6400000003
 20
1087.34
 10
1576.9200000003
 20
1087.34
 10
1576.9200000003
 20
1075.819999999999
 10
1559.6400000003
 20
1075.819999999999
  0
LINE
  5
87BD
330
A
100
AcDbEntity
  8
LEVEL001
  6
Continuous
 62
     3
100
AcDbLine
 10
1386.8400000003
 20
1087.34
 30
0.0
 11
1386.8400000003
 21
1052.78
 31
0.0
  0
LINE
  5
87BE
330
A
100
AcDbEntity
  8
LEVEL001
  6
Continuous
 62
     3
100
AcDbLine
 10
1386.8400000003
 20
1052.78
 30
0.0
 11
1398.3600000003
 21
1052.78
 31
0.0
  0
LINE
  5
87BF
330
A
100
AcDbEntity
  8
LEVEL001
  6
Continuous
 62
     3
100
AcDbLine
 10
1398.3600000003
 20
1052.78
 30
0.0
 11
1398.3600000003
 21
1058.54
 31
0.0
  0
LINE
  5
87C0
330
A
100
AcDbEntity
  8
LEVEL001
  6
Continuous
 62
     3
100
AcDbLine
 10
1398.3600000003
 20
1058.54
 30
0.0
 11
1409.8800000003
 21
1058.54
 31
0.0
  0
ARC
  5
87C1
330
A
100
AcDbEntity
  8
LEVEL001
  6
Continuous
 62
     3
100
AcDbCircle
 10
1409.8800000003
 20
1072.94
 30
0.0
 40
14.4
100
AcDbArc
 50
270.0
 51
90.0
  0
LINE
  5
87C2
330
A
100
AcDbEntity
  8
LEVEL001
  6
Continuous
 62
     3
100
AcDbLine
 10
1409.8800000003
 20
1087.34
 30
0.0
 11
1386.8400000003
 21
1087.34
 31
0.0
  0
LINE
  5
87C3
330
A
100
AcDbEntity
  8
LEVEL001
  6
Continuous
 62
     3
100
AcDbLine
 10
1398.3600000003
 20
1075.819999999999
 30
0.0
 11
1398.3600000003
 21
1070.059999999999
 31
0.0
  0
LINE
  5
87C4
330
A
100
AcDbEntity
  8
LEVEL001
  6
Continuous
 62
     3
100
AcDbLine
 10
1398.3600000003
 20
1070.059999999999
 30
0.0
 11
1409.8800000003
 21
1070.059999999999
 31
0.0
  0
ARC
  5
87C5
330
A
100
AcDbEntity
  8
LEVEL001
  6
Continuous
 62
     3
100
AcDbCircle
 10
1409.8800000003
 20
1072.94
 30
0.0
 40
2.879999999999999
100
AcDbArc
 50
270.0
 51
90.0
  0
LINE
  5
87C6
330
A
100
AcDbEntity
  8
LEVEL001
  6
Continuous
 62
     3
100
AcDbLine
 10
1409.8800000003
 20
1075.819999999999
 30
0.0
 11
1398.3600000003
 21
1075.819999999999
 31
0.0
  0
LINE
  5
87C7
330
A
100
AcDbEntity
  8
LEVEL001
  6
Continuous
 62
     3
100
AcDbLine
 10
1438.6800000003
 20
1087.34
 30
0.0
 11
1415.6400000003
 21
1052.78
 31
0.0
  0
LINE
  5
87C8
330
A
100
AcDbEntity
  8
LEVEL001
  6
Continuous
 62
     3
100
AcDbLine
 10
1415.6400000003
 20
1052.78
 30
0.0
 11
1432.9200000003
 21
1052.78
 31
0.0
  0
LINE
  5
87C9
330
A
100
AcDbEntity
  8
LEVEL001
  6
Continuous
 62
     3
100
AcDbLine
 10
1432.9200000003
 20
1052.78
 30
0.0
 11
1455.9600000003
 21
1087.34
 31
0.0
  0
LINE
  5
87CA
330
A
100
AcDbEntity
  8
LEVEL001
  6
Continuous
 62
     3
100
AcDbLine
 10
1455.9600000003
 20
1087.34
 30
0.0
 11
1438.6800000003
 21
1087.34
 31
0.0
  0
LINE
  5
87CB
330
A
100
AcDbEntity
  8
LEVEL001
  6
Continuous
 62
     3
100
AcDbLine
 10
1452.1200000003
 20
1052.78
 30
0.0
 11
1452.1200000003
 21
1074.657341551099
 31
0.0
  0
LINE
  5
87CC
330
A
100
AcDbEntity
  8
LEVEL001
  6
Continuous
 62
     3
100
AcDbLine
 10
1452.1200000003
 20
1074.657341551099
 30
0.0
 11
1437.5351056329
 21
1052.78
 31
0.0
  0
LINE
  5
87CD
330
A
100
AcDbEntity
  8
LEVEL001
  6
Continuous
 62
     3
100
AcDbLine
 10
1437.5351056329
 20
1052.78
 30
0.0
 11
1452.1200000003
 21
1052.78
 31
0.0
  0
LINE
  5
87CE
330
A
100
AcDbEntity
  8
LEVEL001
  6
Continuous
 62
     3
100
AcDbLine
 10
1455.9600000003
 20
1052.78
 30
0.0
 11
1496.2800000003
 21
1052.78
 31
0.0
  0
LINE
  5
87CF
330
A
100
AcDbEntity
  8
LEVEL001
  6
Continuous
 62
     3
100
AcDbLine
 10
1496.2800000003
 20
1052.78
 30
0.0
 11
1496.2800000003
 21
1075.819999999999
 31
0.0
  0
LINE
  5
87D0
330
A
100
AcDbEntity
  8
LEVEL001
  6
Continuous
 62
     3
100
AcDbLine
 10
1496.2800000003
 20
1075.819999999999
 30
0.0
 11
1507.8000000003
 21
1075.819999999999
 31
0.0
  0
LINE
  5
87D1
330
A
100
AcDbEntity
  8
LEVEL001
  6
Continuous
 62
     3
100
AcDbLine
 10
1507.8000000003
 20
1075.819999999999
 30
0.0
 11
1507.8000000003
 21
1052.78
 31
0.0
  0
LINE
  5
87D2
330
A
100
AcDbEntity
  8
LEVEL001
  6
Continuous
 62
     3
100
AcDbLine
 10
1507.8000000003
 20
1052.78
 30
0.0
 11
1542.3600000003
 21
1052.78
 31
0.0
  0
LINE
  5
87D3
330
A
100
AcDbEntity
  8
LEVEL001
  6
Continuous
 62
     3
100
AcDbLine
 10
1542.3600000003
 20
1052.78
 30
0.0
 11
1542.3600000003
 21
1064.299999999999
 31
0.0
  0
LINE
  5
87D4
330
A
100
AcDbEntity
  8
LEVEL001
  6
Continuous
 62
     3
100
AcDbLine
 10
1542.3600000003
 20
1064.299999999999
 30
0.0
 11
1519.3200000003
 21
1064.299999999999
 31
0.0
  0
LINE
  5
87D5
330
A
100
AcDbEntity
  8
LEVEL001
  6
Continuous
 62
     3
100
AcDbLine
 10
1519.3200000003
 20
1064.299999999999
 30
0.0
 11
1519.3200000003
 21
1067.18
 31
0.0
  0
LINE
  5
87D6
330
A
100
AcDbEntity
  8
LEVEL001
  6
Continuous
 62
     3
100
AcDbLine
 10
1519.3200000003
 20
1067.18
 30
0.0
 11
1539.480000000299
 21
1067.18
 31
0.0
  0
LINE
  5
87D7
330
A
100
AcDbEntity
  8
LEVEL001
  6
Continuous
 62
     3
100
AcDbLine
 10
1539.480000000299
 20
1067.18
 30
0.0
 11
1539.480000000299
 21
1072.94
 31
0.0
  0
LINE
  5
87D8
330
A
100
AcDbEntity
  8
LEVEL001
  6
Continuous
 62
     3
100
AcDbLine
 10
1539.480000000299
 20
1072.94
 30
0.0
 11
1519.3200000003
 21
1072.94
 31
0.0
  0
LINE
  5
87D9
330
A
100
AcDbEntity
  8
LEVEL001
  6
Continuous
 62
     3
100
AcDbLine
 10
1519.3200000003
 20
1072.94
 30
0.0
 11
1519.3200000003
 21
1075.819999999999
 31
0.0
  0
LINE
  5
87DA
330
A
100
AcDbEntity
  8
LEVEL001
  6
Continuous
 62
     3
100
AcDbLine
 10
1519.3200000003
 20
1075.819999999999
 30
0.0
 11
1542.3600000003
 21
1075.819999999999
 31
0.0
  0
LINE
  5
87DB
330
A
100
AcDbEntity
  8
LEVEL001
  6
Continuous
 62
     3
100
AcDbLine
 10
1542.3600000003
 20
1075.819999999999
 30
0.0
 11
1542.3600000003
 21
1087.34
 31
0.0
  0
LINE
  5
87DC
330
A
100
AcDbEntity
  8
LEVEL001
  6
Continuous
 62
     3
100
AcDbLine
 10
1542.3600000003
 20
1087.34
 30
0.0
 11
1473.2400000003
 21
1087.34
 31
0.0
  0
LINE
  5
87DD
330
A
100
AcDbEntity
  8
LEVEL001
  6
Continuous
 62
     3
100
AcDbLine
 10
1473.2400000003
 20
1087.34
 30
0.0
 11
1473.2400000003
 21
1075.819999999999
 31
0.0
  0
LINE
  5
87DE
330
A
100
AcDbEntity
  8
LEVEL001
  6
Continuous
 62
     3
100
AcDbLine
 10
1473.2400000003
 20
1075.819999999999
 30
0.0
 11
1484.7600000003
 21
1075.819999999999
 31
0.0
  0
LINE
  5
87DF
330
A
100
AcDbEntity
  8
LEVEL001
  6
Continuous
 62
     3
100
AcDbLine
 10
1484.7600000003
 20
1075.819999999999
 30
0.0
 11
1484.7600000003
 21
1064.299999999999
 31
0.0
  0
LINE
  5
87E0
330
A
100
AcDbEntity
  8
LEVEL001
  6
Continuous
 62
     3
100
AcDbLine
 10
1484.7600000003
 20
1064.299999999999
 30
0.0
 11
1467.4800000003
 21
1064.299999999999
 31
0.0
  0
LINE
  5
87E1
330
A
100
AcDbEntity
  8
LEVEL001
  6
Continuous
 62
     3
100
AcDbLine
 10
1467.4800000003
 20
1064.299999999999
 30
0.0
 11
1467.4800000003
 21
1087.34
 31
0.0
  0
LINE
  5
87E2
330
A
100
AcDbEntity
  8
LEVEL001
  6
Continuous
 62
     3
100
AcDbLine
 10
1467.4800000003
 20
1087.34
 30
0.0
 11
1455.9600000003
 21
1087.34
 31
0.0
  0
LINE
  5
87E3
330
A
100
AcDbEntity
  8
LEVEL001
  6
Continuous
 62
     3
100
AcDbLine
 10
1455.9600000003
 20
1087.34
 30
0.0
 11
1455.9600000003
 21
1052.78
 31
0.0
  0
LINE
  5
87E4
330
A
100
AcDbEntity
  8
LEVEL001
  6
Continuous
 62
     3
100
AcDbLine
 10
1559.6400000003
 20
1052.78
 30
0.0
 11
1576.9200000003
 21
1052.78
 31
0.0
  0
LINE
  5
87E5
330
A
100
AcDbEntity
  8
LEVEL001
  6
Continuous
 62
     3
100
AcDbLine
 10
1576.9200000003
 20
1052.78
 30
0.0
 11
1576.9200000003
 21
1064.299999999999
 31
0.0
  0
LINE
  5
87E6
330
A
100
AcDbEntity
  8
LEVEL001
  6
Continuous
 62
     3
100
AcDbLine
 10
1576.9200000003
 20
1064.299999999999
 30
0.0
 11
1559.6400000003
 21
1064.299999999999
 31
0.0
  0
ARC
  5
87E7
330
A
100
AcDbEntity
  8
LEVEL001
  6
Continuous
 62
     3
100
AcDbCircle
 10
1559.6400000003
 20
1070.059999999999
 30
0.0
 40
5.759999999999999
100
AcDbArc
 50
90.0
 51
270.0
  0
LINE
  5
87E8
330
A
100
AcDbEntity
  8
LEVEL001
  6
Continuous
 62
     3
100
AcDbLine
 10
1559.6400000003
 20
1075.819999999999
 30
0.0
 11
1576.9200000003
 21
1075.819999999999
 31
0.0
  0
LINE
  5
87E9
330
A
100
AcDbEntity
  8
LEVEL001
  6
Continuous
 62
     3
100
AcDbLine
 10
1576.9200000003
 20
1075.819999999999
 30
0.0
 11
1576.9200000003
 21
1087.34
 31
0.0
  0
LINE
  5
87EA
330
A
100
AcDbEntity
  8
LEVEL001
  6
Continuous
 62
     3
100
AcDbLine
 10
1576.9200000003
 20
1087.34
 30
0.0
 11
1559.6400000003
 21
1087.34
 31
0.0
  0
ARC
  5
87EB
330
A
100
AcDbEntity
  8
LEVEL001
  6
Continuous
 62
     3
100
AcDbCircle
 10
1559.6400000003
 20
1070.059999999999
 30
0.0
 40
17.28
100
AcDbArc
 50
90.0
 51
270.0
  0
TEXT
  5
87EC
330
A
100
AcDbEntity
  8
LEVEL001
 62
     3
100
AcDbText
 10
1386.8400000003
 20
1093.1
 30
0.0
 40
12.0
  1
ケージーパルテック株式会社
 41
0.8
100
AcDbText
  0
LWPOLYLINE
  5
87ED
330
A
100
AcDbEntity
  8
LEVEL001
  6
Continuous
 62
     3
100
AcDbPolyline
 90
        4
 70
     0
 43
0.0
 10
1375.3200000003
 20
1060.46
 10
1360.9200000003
 20
1083.5
 10
1375.3200000003
 20
1083.5
 10
1375.3200000003
 20
1060.46
  0
LINE
  5
87EE
330
A
100
AcDbEntity
  8
LEVEL001
  6
Continuous
 62
     3
100
AcDbLine
 10
1360.9200000003
 20
1083.5
 30
0.0
 11
1375.3200000003
 21
1060.46
 31
0.0
  0
LINE
  5
87EF
330
A
100
AcDbEntity
  8
LEVEL001
  6
Continuous
 62
     3
100
AcDbLine
 10
1375.3200000003
 20
1060.46
 30
0.0
 11
1375.3200000003
 21
1083.5
 31
0.0
  0
LINE
  5
87F0
330
A
100
AcDbEntity
  8
LEVEL001
  6
Continuous
 62
     3
100
AcDbLine
 10
1375.3200000003
 20
1083.5
 30
0.0
 11
1360.9200000003
 21
1083.5
 31
0.0
  0
LWPOLYLINE
  5
87F1
330
A
100
AcDbEntity
  8
LEVEL001
  6
Continuous
 62
     3
100
AcDbPolyline
 90
        3
 70
     0
 43
0.0
 10
1329.5600000003
 20
1114.219999999999
 10
1309.0800000003
 20
1083.5
 10
1329.5600000003
 20
1052.78
  0
LWPOLYLINE
  5
87F2
330
A
100
AcDbEntity
  8
LEVEL001
  6
Continuous
 62
     3
100
AcDbPolyline
 90
        3
 70
     0
 43
0.0
 10
1346.8400000003
 20
1052.78
 10
1326.3600000003
 20
1083.5
 10
1346.8400000003
 20
1114.219999999999
  0
LWPOLYLINE
  5
87F3
330
A
100
AcDbEntity
  8
LEVEL001
  6
Continuous
 62
     3
100
AcDbPolyline
 90
        3
 70
     0
 43
0.0
 10
1355.4800000003
 20
1114.219999999999
 10
1335.0000000003
 20
1083.5
 10
1355.4800000003
 20
1052.78
  0
LWPOLYLINE
  5
87F4
330
A
100
AcDbEntity
  8
LEVEL001
  6
Continuous
 62
     3
100
AcDbPolyline
 90
        3
 70
     0
 43
0.0
 10
1372.7600000003
 20
1052.78
 10
1352.2800000003
 20
1083.5
 10
1372.7600000003
 20
1114.219999999999
  0
LWPOLYLINE
  5
87F5
330
A
100
AcDbEntity
  8
LEVEL001
  6
Continuous
 62
     3
100
AcDbPolyline
 90
        3
 70
     0
 43
0.0
 10
1329.5600000003
 20
1052.78
 10
1309.0800000003
 20
1083.5
 10
1329.5600000003
 20
1114.219999999999
  0
LINE
  5
87F6
330
A
100
AcDbEntity
  8
LEVEL001
  6
Continuous
 62
     3
100
AcDbLine
 10
1329.5600000003
 20
1114.219999999999
 30
0.0
 11
1346.8400000003
 21
1114.219999999999
 31
0.0
  0
LWPOLYLINE
  5
87F7
330
A
100
AcDbEntity
  8
LEVEL001
  6
Continuous
 62
     3
100
AcDbPolyline
 90
        3
 70
     0
 43
0.0
 10
1346.8400000003
 20
1114.219999999999
 10
1326.3600000003
 20
1083.5
 10
1346.8400000003
 20
1052.78
  0
LINE
  5
87F8
330
A
100
AcDbEntity
  8
LEVEL001
  6
Continuous
 62
     3
100
AcDbLine
 10
1346.8400000003
 20
1052.78
 30
0.0
 11
1329.5600000003
 21
1052.78
 31
0.0
  0
LWPOLYLINE
  5
87F9
330
A
100
AcDbEntity
  8
LEVEL001
  6
Continuous
 62
     3
100
AcDbPolyline
 90
        3
 70
     0
 43
0.0
 10
1355.4800000003
 20
1052.78
 10
1335.0000000003
 20
1083.5
 10
1355.4800000003
 20
1114.219999999999
  0
LINE
  5
87FA
330
A
100
AcDbEntity
  8
LEVEL001
  6
Continuous
 62
     3
100
AcDbLine
 10
1355.4800000003
 20
1114.219999999999
 30
0.0
 11
1372.7600000003
 21
1114.219999999999
 31
0.0
  0
LWPOLYLINE
  5
87FB
330
A
100
AcDbEntity
  8
LEVEL001
  6
Continuous
 62
     3
100
AcDbPolyline
 90
        3
 70
     0
 43
0.0
 10
1372.7600000003
 20
1114.219999999999
 10
1352.2800000003
 20
1083.5
 10
1372.7600000003
 20
1052.78
  0
LINE
  5
87FC
330
A
100
AcDbEntity
  8
LEVEL001
  6
Continuous
 62
     3
100
AcDbLine
 10
1372.7600000003
 20
1052.78
 30
0.0
 11
1355.4800000003
 21
1052.78
 31
0.0
  0
LINE
  5
87FD
330
A
100
AcDbEntity
  8
LEVEL001
  6
Continuous
 62
     3
370
    40
100
AcDbLine
 10
62.00000000010914
 20
1100.0
 30
0.0
 11
1268.0000000001
 21
1100.0
 31
0.0
  0
TEXT
  5
87FE
330
A
100
AcDbEntity
  8
LEVEL001
 62
     3
100
AcDbText
 10
1273.3600000001
 20
1006.0
 30
0.0
 40
12.0
  1
商品名：
 41
0.8
 72
     1
 11
1293.2000000001
 21
1012.0
 31
0.0
100
AcDbText
 73
     2
  0
TEXT
  5
87FF
330
A
100
AcDbEntity
  8
LEVEL001
 62
     3
100
AcDbText
 10
1273.1200000001
 20
926.0
 30
0.0
 40
12.0
  1
形式：
 41
0.8
 72
     1
 11
1287.2000000001
 21
932.0
 31
0.0
100
AcDbText
 73
     2
  0
TEXT
  5
8800
330
A
100
AcDbEntity
  8
LEVEL001
 62
     3
100
AcDbText
 10
1273.1200000001
 20
846.0
 30
0.0
 40
12.0
  1
仕様：
 41
0.8
 72
     1
 11
1287.2000000001
 21
852.0
 31
0.0
100
AcDbText
 73
     2
  0
LINE
  5
8801
330
A
100
AcDbEntity
  8
LEVEL001
  6
Continuous
 62
     3
100
AcDbLine
 10
1268.0000000001
 20
1027.0
 30
0.0
 11
1618.0000000001
 21
1027.0
 31
0.0
  0
LINE
  5
8802
330
A
100
AcDbEntity
  8
LEVEL001
  6
Continuous
 62
     3
100
AcDbLine
 10
1268.0000000001
 20
947.0
 30
0.0
 11
1618.0000000001
 21
947.0
 31
0.0
  0
LINE
  5
8803
330
A
100
AcDbEntity
  8
LEVEL001
  6
Continuous
 62
     3
100
AcDbLine
 10
1268.0000000001
 20
867.0
 30
0.0
 11
1618.0000000001
 21
867.0
 31
0.0
  0
TEXT
  5
8805
330
A
100
AcDbEntity
  8
LEVEL001
 62
     8
100
AcDbText
 10
1381.0000000001
 20
240.5
 30
0.0
 40
15.0
  1
平面図･断面図･姿図
 41
0.8
 72
     1
 11
1443.0000000001
 21
248.0
 31
0.0
100
AcDbText
 73
     2
  0
TEXT
  5
8806
330
A
100
AcDbEntity
  8
LEVEL001
 62
     8
100
AcDbText
 10
1333.6000000001
 20
160.5
 30
0.0
 40
15.0
  1
Ｓ＝１：４　
 41
0.8
 72
     1
 11
1368.0000000001
 21
168.0
 31
0.0
100
AcDbText
 73
     2
  0
TEXT
  5
8807
330
A
100
AcDbEntity
  8
LEVEL001
 62
     8
100
AcDbText
 10
1355.6000000001
 20
80.5
 30
0.0
 40
15.0
  1
Ａ３
 41
0.8
 72
     1
 11
1368.0000000001
 21
88.0
 31
0.0
100
AcDbText
 73
     2
  0
TEXT
  5
8809
330
A
100
AcDbEntity
  8
LEVEL001
 62
     8
100
AcDbText
 10
1326.0000000001
 20
987.0
 30
0.0
 40
18.0
  1
パルライン丸型ハンドレール
 41
0.8
100
AcDbText
  0
TEXT
  5
880A
330
A
100
AcDbEntity
  8
LEVEL001
 62
     8
100
AcDbText
 10
1326.0000000001
 20
963.0
 30
0.0
 40
18.0
  1
　　(４０%%C用)
 41
0.8
100
AcDbText
  0
TEXT
  5
881B
330
A
100
AcDbEntity
  8
LEVEL001
 62
     8
100
AcDbText
 10
1323.1600000001
 20
900.0
 30
0.0
 40
14.0
  1
壁付ブラケット－Ｔ５５Ｆタイプ(縦型)
 41
0.8
 72
     1
 11
1443.0000000001
 21
907.0
 31
0.0
100
AcDbText
 73
     2
  0
TEXT
  5
881D
330
A
100
AcDbEntity
  8
LEVEL001
 62
     8
100
AcDbText
 10
93.20000000010896
 20
1114.0
 30
0.0
 40
12.0
  1
壁付ブラケット(縦型)－Ｔ５５Ｆ(笠木%%c４０仕様)
 41
0.8
 11
93.20000000010896
 21
1120.0
 31
0.0
100
AcDbText
 73
     2
  0
LINE
  5
93AB
330
A
100
AcDbEntity
  8
LEVEL001
  6
DASHDOT
 62
     6
370
    15
100
AcDbLine
 10
366.2839879014891
 20
394.6678755169996
 30
0.0
 11
366.2839879014891
 21
701.4982083048998
 31
0.0
  0
LWPOLYLINE
  5
93AC
330
A
100
AcDbEntity
  8
LEVEL001
  6
Continuous
 62
     3
370
    30
100
AcDbPolyline
 90
        3
 70
     0
 43
0.0
 10
241.2839879014891
 20
194.9879094349999
 10
241.2839879014891
 20
78.48672740189977
 10
266.2839879014891
 20
78.48672740189977
  0
LINE
  5
93AD
330
A
100
AcDbEntity
  8
LEVEL001
  6
DASHDOT
 62
     6
370
    15
100
AcDbLine
 10
366.2839879014891
 20
394.6678755169996
 30
0.0
 11
366.2839879014891
 21
234.8851885984004
 31
0.0
  0
LINE
  5
93AE
330
A
100
AcDbEntity
  8
LEVEL001
  6
Continuous
 62
     3
370
    30
100
AcDbLine
 10
241.2839879014891
 20
682.1164782656997
 30
0.0
 11
241.2839879014891
 21
188.8238903220999
 31
0.0
  0
LINE
  5
93AF
330
A
100
AcDbEntity
  8
LEVEL001
  6
Continuous
 62
     3
370
    30
100
AcDbLine
 10
266.2839879014891
 20
999.5961714260001
 30
0.0
 11
241.2839879014891
 21
999.5961714260001
 31
0.0
  0
LINE
  5
93B0
330
A
100
AcDbEntity
  8
LEVEL001
  6
Continuous
 62
     3
370
    30
100
AcDbLine
 10
241.2839879014891
 20
1030.8490355831
 30
0.0
 11
241.2839879014891
 21
999.5961714260001
 31
0.0
  0
LINE
  5
93B1
330
A
100
AcDbEntity
  8
LEVEL001
  6
Continuous
 62
     3
370
    30
100
AcDbLine
 10
266.2839879014891
 20
1009.596171426
 30
0.0
 11
266.2839879014891
 21
999.5961714260001
 31
0.0
  0
LINE
  5
93B2
330
A
100
AcDbEntity
  8
LEVEL001
  6
Continuous
 62
     3
370
    30
100
AcDbLine
 10
266.2839879014891
 20
1009.596171426
 30
0.0
 11
497.402903978299
 21
1009.596171426
 31
0.0
  0
LINE
  5
93B3
330
A
100
AcDbEntity
  8
LEVEL001
  6
Continuous
 62
     3
370
    30
100
AcDbLine
 10
266.2839879014891
 20
809.1160641401001
 30
0.0
 11
241.2839879014891
 21
809.1160641401001
 31
0.0
  0
LINE
  5
93B4
330
A
100
AcDbEntity
  8
LEVEL001
  6
Continuous
 62
     3
370
    30
100
AcDbLine
 10
241.2839879014891
 20
840.3689282973001
 30
0.0
 11
241.2839879014891
 21
809.1160641401001
 31
0.0
  0
LINE
  5
93B5
330
A
100
AcDbEntity
  8
LEVEL001
  6
Continuous
 62
     3
370
    30
100
AcDbLine
 10
266.2839879014891
 20
819.1160641401001
 30
0.0
 11
266.2839879014891
 21
809.1160641401001
 31
0.0
  0
LINE
  5
93B6
330
A
100
AcDbEntity
  8
LEVEL001
  6
Continuous
 62
     3
370
    30
100
AcDbLine
 10
266.2839879014891
 20
819.1160641401001
 30
0.0
 11
497.402903978299
 21
819.1160641401001
 31
0.0
  0
LINE
  5
93B7
330
A
100
AcDbEntity
  8
LEVEL001
  6
Continuous
 62
     1
100
AcDbLine
 10
375.1157487678093
 20
943.0961714260002
 30
0.0
 11
371.2839879014891
 21
943.0961714260002
 31
0.0
  0
LINE
  5
93B8
330
A
100
AcDbEntity
  8
LEVEL001
  6
Continuous
 62
     1
100
AcDbLine
 10
361.2839879014891
 20
943.0961714260002
 30
0.0
 11
357.452227035159
 21
943.0961714260002
 31
0.0
  0
LINE
  5
93B9
330
A
100
AcDbEntity
  8
LEVEL001
  6
Continuous
 62
     1
100
AcDbLine
 10
361.8839879014891
 20
946.5961714260002
 30
0.0
 11
370.6839879014892
 21
946.5961714260002
 31
0.0
  0
LWPOLYLINE
  5
93BA
330
A
100
AcDbEntity
  8
LEVEL001
  6
Continuous
 62
     1
100
AcDbPolyline
 90
        7
 70
     0
 43
0.0
 10
352.4999391493993
 20
950.0961714260002
 10
355.2839879014891
 20
950.0961714260002
 10
355.2839879014891
 20
954.296171426
 10
355.5839879014893
 20
954.5961714260002
 10
355.2839879014891
 20
954.8961714260004
 10
355.2839879014891
 20
959.0961714260002
 10
352.4999391493993
 20
959.0961714260002
  0
LINE
  5
93BB
330
A
100
AcDbEntity
  8
LEVEL001
  6
Continuous
 62
     1
100
AcDbLine
 10
357.7662784125991
 20
965.1880833436999
 30
0.0
 11
357.0574607854492
 21
962.5961714260002
 31
0.0
  0
LWPOLYLINE
  5
93BC
330
A
100
AcDbEntity
  8
LEVEL001
  6
Continuous
 62
     1
100
AcDbPolyline
 90
        7
 70
     0
 43
0.0
 10
380.068036653579
 20
959.0961714260002
 10
377.2839879014891
 20
959.0961714260002
 10
377.2839879014891
 20
954.8961714260004
 10
376.983987901479
 20
954.5961714260002
 10
377.2839879014891
 20
954.296171426
 10
377.2839879014891
 20
950.0961714260002
 10
380.068036653579
 20
950.0961714260002
  0
LINE
  5
93BD
330
A
100
AcDbEntity
  8
LEVEL001
  6
Continuous
 62
     1
100
AcDbLine
 10
375.5105150175191
 20
962.5961714260002
 30
0.0
 11
374.8016973903791
 21
965.1880833436999
 31
0.0
  0
ARC
  5
93BE
330
A
100
AcDbEntity
  8
LEVEL001
  6
Continuous
 62
     1
100
AcDbCircle
 10
375.283987901129
 20
965.3199767209999
 30
0.0
 40
0.5
100
AcDbArc
 50
49.99479906117123
 51
195.2948740291711
  0
ARC
  5
93BF
330
A
100
AcDbEntity
  8
LEVEL001
  6
Continuous
 62
     1
100
AcDbCircle
 10
357.2839879025691
 20
965.3199767246997
 30
0.0
 40
0.5
100
AcDbArc
 50
344.7051255446602
 51
130.0052012717216
  0
ARC
  5
93C0
330
A
100
AcDbEntity
  8
LEVEL001
  6
Continuous
 62
     1
100
AcDbCircle
 10
366.2839879013091
 20
954.5961714258
 30
0.0
 40
14.5
100
AcDbArc
 50
307.523513202976
 51
341.9199873762965
  0
ARC
  5
93C1
330
A
100
AcDbEntity
  8
LEVEL001
  6
Continuous
 62
     1
100
AcDbCircle
 10
366.2839879014091
 20
954.5961714262002
 30
0.0
 40
14.5
100
AcDbArc
 50
18.08001262339863
 51
49.99479911428431
  0
ARC
  5
93C2
330
A
100
AcDbEntity
  8
LEVEL001
  6
Continuous
 62
     1
100
AcDbCircle
 10
366.2839879017092
 20
954.5961714262002
 30
0.0
 40
14.5
100
AcDbArc
 50
131.861232377513
 51
161.9199873766014
  0
ARC
  5
93C3
330
A
100
AcDbEntity
  8
LEVEL001
  6
Continuous
 62
     1
100
AcDbCircle
 10
366.2839879014691
 20
954.5961714260002
 30
0.0
 40
14.5
100
AcDbArc
 50
198.0800126246593
 51
232.4764867980821
  0
LWPOLYLINE
  5
93C4
330
A
100
AcDbEntity
  8
LEVEL001
  6
Continuous
 62
     1
100
AcDbPolyline
 90
        3
 70
     0
 43
0.0
 10
357.0574607854492
 20
962.5961714260002
 10
356.7839879014891
 20
961.5961714260002
 10
360.6839879014892
 20
961.5961714260002
  0
ARC
  5
93C5
330
A
100
AcDbEntity
  8
LEVEL001
  6
Continuous
 62
     1
100
AcDbCircle
 10
360.6839879014892
 20
960.5961714284003
 30
0.0
 40
1.0
100
AcDbArc
 50
0.0
 51
90.0
  0
LWPOLYLINE
  5
93C6
330
A
100
AcDbEntity
  8
LEVEL001
  6
Continuous
 62
     1
100
AcDbPolyline
 90
        4
 70
     0
 43
0.0
 10
361.6839879014892
 20
960.5961714260002
 10
361.6839879014892
 20
959.5961714260001
 10
359.7839879014891
 20
959.5961714260001
 10
359.7839879014891
 20
959.0961714260002
  0
ARC
  5
93C7
330
A
100
AcDbEntity
  8
LEVEL001
  6
Continuous
 62
     1
100
AcDbCircle
 10
359.2839879014891
 20
959.0961714260002
 30
0.0
 40
0.5
100
AcDbArc
 50
180.0
 51
0.0
  0
LWPOLYLINE
  5
93C8
330
A
100
AcDbEntity
  8
LEVEL001
  6
Continuous
 62
     1
100
AcDbPolyline
 90
        5
 70
     0
 43
0.0
 10
358.7839879014891
 20
959.0961714260002
 10
358.7839879014891
 20
959.5961714260001
 10
357.7839879014891
 20
959.5961714260001
 10
357.7839879014891
 20
950.5961714260001
 10
360.6839879014892
 20
950.5961714260001
  0
ARC
  5
93C9
330
A
100
AcDbEntity
  8
LEVEL001
  6
Continuous
 62
     1
100
AcDbCircle
 10
360.6839879014892
 20
949.5961714260001
 30
0.0
 40
1.0
100
AcDbArc
 50
270.0
 51
90.0
  0
LWPOLYLINE
  5
93CA
330
A
100
AcDbEntity
  8
LEVEL001
  6
Continuous
 62
     1
100
AcDbPolyline
 90
        6
 70
     0
 43
0.0
 10
360.6839879014892
 20
948.5961714260001
 10
357.7839879014891
 20
948.5961714260001
 10
357.7839879014891
 20
946.5961714260002
 10
374.7839879014891
 20
946.5961714260002
 10
374.7839879014891
 20
948.5961714260001
 10
371.883987901489
 20
948.5961714260001
  0
ARC
  5
93CB
330
A
100
AcDbEntity
  8
LEVEL001
  6
Continuous
 62
     1
100
AcDbCircle
 10
371.883987901489
 20
949.5961714260001
 30
0.0
 40
1.0
100
AcDbArc
 50
90.0
 51
270.0
  0
LWPOLYLINE
  5
93CC
330
A
100
AcDbEntity
  8
LEVEL001
  6
Continuous
 62
     1
100
AcDbPolyline
 90
        5
 70
     0
 43
0.0
 10
371.883987901489
 20
950.5961714260001
 10
374.7839879014891
 20
950.5961714260001
 10
374.7839879014891
 20
959.5961714260001
 10
373.7839879014891
 20
959.5961714260001
 10
373.7839879014891
 20
959.0961714260002
  0
ARC
  5
93CD
330
A
100
AcDbEntity
  8
LEVEL001
  6
Continuous
 62
     1
100
AcDbCircle
 10
373.2839879014891
 20
959.0961714260002
 30
0.0
 40
0.5
100
AcDbArc
 50
180.0
 51
0.0
  0
LWPOLYLINE
  5
93CE
330
A
100
AcDbEntity
  8
LEVEL001
  6
Continuous
 62
     1
100
AcDbPolyline
 90
        4
 70
     0
 43
0.0
 10
372.7839879014891
 20
959.0961714260002
 10
372.7839879014891
 20
959.5961714260001
 10
370.883987901489
 20
959.5961714260001
 10
370.883987901489
 20
960.5961714260002
  0
ARC
  5
93CF
330
A
100
AcDbEntity
  8
LEVEL001
  6
Continuous
 62
     1
100
AcDbCircle
 10
371.883987901429
 20
960.5961714260002
 30
0.0
 40
1.0
100
AcDbArc
 50
89.99999999674312
 51
180.0
  0
LWPOLYLINE
  5
93D0
330
A
100
AcDbEntity
  8
LEVEL001
  6
Continuous
 62
     1
100
AcDbPolyline
 90
        3
 70
     0
 43
0.0
 10
371.883987901489
 20
961.5961714260002
 10
375.7839879014891
 20
961.5961714260002
 10
375.5105150175191
 20
962.5961714260002
  0
LWPOLYLINE
  5
93D1
330
A
100
AcDbEntity
  8
LEVEL001
  6
Continuous
 62
     1
100
AcDbPolyline
 90
        9
 70
     0
 43
0.0
 10
371.2839879014891
 20
943.0961714260002
 10
371.0339879014891
 20
943.0961714260002
 10
371.0339879014891
 20
944.0961714260001
 10
366.5839879015393
 20
944.0961714260001
 10
366.2839879014891
 20
944.3961714260003
 10
365.9839879014289
 20
944.0961714260001
 10
361.5339879014891
 20
944.0961714260001
 10
361.5339879014891
 20
943.0961714260002
 10
361.2839879014891
 20
943.0961714260002
  0
ARC
  5
93D2
330
A
100
AcDbEntity
  8
LEVEL001
  6
Continuous
 62
     1
100
AcDbCircle
 10
362.7839879014891
 20
966.1253474679996
 30
0.0
 40
0.50000000000001
100
AcDbArc
 50
312.9330433114864
 51
0.000000129337536
  0
LINE
  5
93D3
330
A
100
AcDbEntity
  8
LEVEL001
  6
Continuous
 62
     1
100
AcDbLine
 10
359.8013597688391
 20
962.6675911903003
 30
0.0
 11
363.124559512889
 21
965.7592723710004
 31
0.0
  0
ARC
  5
93D4
330
A
100
AcDbEntity
  8
LEVEL001
  6
Continuous
 62
     1
100
AcDbCircle
 10
359.5839878940792
 20
942.8961714260003
 30
0.0
 40
0.2
100
AcDbArc
 50
0.0
 51
89.99999787804627
  0
ARC
  5
93D5
330
A
100
AcDbEntity
  8
LEVEL001
  6
Continuous
 62
     1
100
AcDbCircle
 10
372.9839879014889
 20
942.8961714288998
 30
0.0
 40
0.2
100
AcDbArc
 50
90.00000000005213
 51
180.0000008467908
  0
LINE
  5
93D6
330
A
100
AcDbEntity
  8
LEVEL001
  6
Continuous
 62
     1
100
AcDbLine
 10
369.4434162901389
 20
965.7592723710004
 30
0.0
 11
372.7666160341891
 21
962.6675911903003
 31
0.0
  0
ARC
  5
93D7
330
A
100
AcDbEntity
  8
LEVEL001
  6
Continuous
 62
     1
100
AcDbCircle
 10
369.7839879041389
 20
966.1253474667001
 30
0.0
 40
0.5
100
AcDbArc
 50
179.9999997167289
 51
227.0669563606892
  0
LINE
  5
93D8
330
A
100
AcDbEntity
  8
LEVEL001
  6
Continuous
 62
     1
100
AcDbLine
 10
369.2839879014891
 20
969.1229474036999
 30
0.0
 11
369.2839879014891
 21
966.1253474692003
 31
0.0
  0
ARC
  5
93D9
330
A
100
AcDbEntity
  8
LEVEL001
  6
Continuous
 62
     1
100
AcDbCircle
 10
369.7839879014891
 20
969.1229473961001
 30
0.0
 40
0.5
100
AcDbArc
 50
139.4623490337726
 51
179.9999991325735
  0
LINE
  5
93DA
330
A
100
AcDbEntity
  8
LEVEL001
  6
Continuous
 62
     1
100
AcDbLine
 10
371.7640298315391
 20
972.207488979
 30
0.0
 11
369.4039983840394
 21
969.4479211974003
 31
0.0
  0
ARC
  5
93DB
330
A
100
AcDbEntity
  8
LEVEL001
  6
Continuous
 62
     1
100
AcDbCircle
 10
362.7839879036592
 20
969.1229474010997
 30
0.0
 40
0.5
100
AcDbArc
 50
0.0000002918171642
 51
40.53765069106379
  0
LINE
  5
93DC
330
A
100
AcDbEntity
  8
LEVEL001
  6
Continuous
 62
     1
100
AcDbLine
 10
363.2839879014891
 20
966.1253474692003
 30
0.0
 11
363.2839879014891
 21
969.1229474036999
 31
0.0
  0
LINE
  5
93DD
330
A
100
AcDbEntity
  8
LEVEL001
  6
Continuous
 62
     1
100
AcDbLine
 10
363.1639774189889
 20
969.4479211974003
 30
0.0
 11
360.8039459714391
 21
972.207488979
 31
0.0
  0
ARC
  5
93DE
330
A
100
AcDbEntity
  8
LEVEL001
  6
Continuous
 62
     1
100
AcDbCircle
 10
366.2839879014591
 20
954.5961714260002
 30
0.0
 40
14.6
100
AcDbArc
 50
308.0315859380169
 51
52.02012755499968
  0
LINE
  5
93DF
330
A
100
AcDbEntity
  8
LEVEL001
  6
Continuous
 62
     1
100
AcDbLine
 10
375.2789865118393
 20
943.0961714260002
 30
0.0
 11
372.9839879014889
 21
943.0961714260002
 31
0.0
  0
LINE
  5
93E0
330
A
100
AcDbEntity
  8
LEVEL001
  6
Continuous
 62
     1
100
AcDbLine
 10
372.7839879014891
 20
942.8961714260003
 30
0.0
 11
372.7839879014891
 21
941.5229162842997
 31
0.0
  0
ARC
  5
93E1
330
A
100
AcDbEntity
  8
LEVEL001
  6
Continuous
 62
     1
100
AcDbCircle
 10
366.2839879015292
 20
954.5961714260002
 30
0.0
 40
14.6
100
AcDbArc
 50
243.5635139700916
 51
296.4364860295938
  0
LINE
  5
93E2
330
A
100
AcDbEntity
  8
LEVEL001
  6
Continuous
 62
     1
100
AcDbLine
 10
359.7839879014891
 20
941.5229162842997
 30
0.0
 11
359.7839879014891
 21
942.8961714260003
 31
0.0
  0
LINE
  5
93E3
330
A
100
AcDbEntity
  8
LEVEL001
  6
Continuous
 62
     1
100
AcDbLine
 10
359.5839879014893
 20
943.0961714260002
 30
0.0
 11
357.288989291189
 21
943.0961714260002
 31
0.0
  0
ARC
  5
93E4
330
A
100
AcDbEntity
  8
LEVEL001
  6
Continuous
 62
     1
100
AcDbCircle
 10
366.2839879014991
 20
954.5961714259002
 30
0.0
 40
14.6
100
AcDbArc
 50
127.9798724449271
 51
231.9684140619099
  0
ARC
  5
93E5
330
A
100
AcDbEntity
  8
LEVEL001
  6
Continuous
 62
     1
100
AcDbCircle
 10
357.4839879147589
 20
965.8678172788995
 30
0.0
 40
0.30000000000001
100
AcDbArc
 50
0.0
 51
127.9798756613767
  0
LINE
  5
93E6
330
A
100
AcDbEntity
  8
LEVEL001
  6
Continuous
 62
     1
100
AcDbLine
 10
357.7839879014891
 20
965.8678172685004
 30
0.0
 11
357.7839879014891
 21
963.5461714259999
 31
0.0
  0
ARC
  5
93E7
330
A
100
AcDbEntity
  8
LEVEL001
  6
Continuous
 62
     1
100
AcDbCircle
 10
358.983987901729
 20
963.5461714262001
 30
0.0
 40
1.199999999999999
100
AcDbArc
 50
180.0000000109952
 51
312.9330432073244
  0
ARC
  5
93E8
330
A
100
AcDbEntity
  8
LEVEL001
  6
Continuous
 62
     1
100
AcDbCircle
 10
366.2839879016092
 20
954.5961714259002
 30
0.0
 40
19.75
100
AcDbArc
 50
113.2264512675717
 51
66.77354873308175
  0
ARC
  5
93E9
330
A
100
AcDbEntity
  8
LEVEL001
  6
Continuous
 62
     1
100
AcDbCircle
 10
373.2839879023991
 20
970.9075938052
 30
0.0
 40
2.0
100
AcDbArc
 50
66.773548744707
 51
139.4623497333419
  0
LINE
  5
93EA
330
A
100
AcDbEntity
  8
LEVEL001
  6
Continuous
 62
     1
100
AcDbLine
 10
374.7839879014891
 20
963.5461714259999
 30
0.0
 11
374.7839879014891
 21
965.8678172685004
 31
0.0
  0
ARC
  5
93EB
330
A
100
AcDbEntity
  8
LEVEL001
  6
Continuous
 62
     1
100
AcDbCircle
 10
375.0839879014893
 20
965.8678172527997
 30
0.0
 40
0.3
100
AcDbArc
 50
52.02012939552865
 51
179.9999970093951
  0
ARC
  5
93EC
330
A
100
AcDbEntity
  8
LEVEL001
  6
Continuous
 62
     1
100
AcDbCircle
 10
359.2839879015591
 20
970.9075938041996
 30
0.0
 40
2.0
100
AcDbArc
 50
40.53765030762765
 51
113.2264512694739
  0
ARC
  5
93ED
330
A
100
AcDbEntity
  8
LEVEL001
  6
Continuous
 62
     1
100
AcDbCircle
 10
373.5839879014893
 20
963.5461714237999
 30
0.0
 40
1.199999999999999
100
AcDbArc
 50
227.0669567060642
 51
0.0000001034908729
  0
LWPOLYLINE
  5
93EE
330
A
100
AcDbEntity
  8
LEVEL001
  6
Continuous
 62
     1
100
AcDbPolyline
 90
        7
 70
     0
 43
0.0
 10
380.068036653579
 20
768.6160641401002
 10
377.2839879014891
 20
768.6160641401002
 10
377.2839879014891
 20
764.4160641402004
 10
376.983987901479
 20
764.1160641402002
 10
377.2839879014891
 20
763.8160641402
 10
377.2839879014891
 20
759.6160641401001
 10
380.068036653579
 20
759.6160641401001
  0
LWPOLYLINE
  5
93EF
330
A
100
AcDbEntity
  8
LEVEL001
  6
Continuous
 62
     1
100
AcDbPolyline
 90
        7
 70
     0
 43
0.0
 10
352.4999391493993
 20
759.6160641401001
 10
355.2839879014891
 20
759.6160641401001
 10
355.2839879014891
 20
763.8160641402
 10
355.5839879014893
 20
764.1160641402002
 10
355.2839879014891
 20
764.4160641402004
 10
355.2839879014891
 20
768.6160641401002
 10
352.4999391493993
 20
768.6160641401002
  0
LWPOLYLINE
  5
93F0
330
A
100
AcDbEntity
  8
LEVEL001
  6
Continuous
 62
     1
100
AcDbPolyline
 90
        9
 70
     0
 43
0.0
 10
371.2839879014891
 20
752.6160641401002
 10
371.0339879014891
 20
752.6160641401002
 10
371.0339879014891
 20
753.6160641401002
 10
366.5839879015393
 20
753.6160641401002
 10
366.2839879014891
 20
753.9160641402004
 10
365.9839879014289
 20
753.6160641401002
 10
361.5339879014891
 20
753.6160641401002
 10
361.5339879014891
 20
752.6160641401002
 10
361.2839879014891
 20
752.6160641401002
  0
LWPOLYLINE
  5
93F1
330
A
100
AcDbEntity
  8
LEVEL001
  6
Continuous
 62
     1
100
AcDbPolyline
 90
        3
 70
     0
 43
0.0
 10
357.0574607854492
 20
772.1160641401001
 10
356.7839879014891
 20
771.1160641401002
 10
360.6839879014892
 20
771.1160641401002
  0
ARC
  5
93F2
330
A
100
AcDbEntity
  8
LEVEL001
  6
Continuous
 62
     1
100
AcDbCircle
 10
360.6839879014892
 20
770.1160641432998
 30
0.0
 40
1.0
100
AcDbArc
 50
0.0
 51
90.0
  0
LWPOLYLINE
  5
93F3
330
A
100
AcDbEntity
  8
LEVEL001
  6
Continuous
 62
     1
100
AcDbPolyline
 90
        4
 70
     0
 43
0.0
 10
361.6839879014892
 20
770.1160641401002
 10
361.6839879014892
 20
769.1160641401002
 10
359.7839879014891
 20
769.1160641401002
 10
359.7839879014891
 20
768.6160641401002
  0
ARC
  5
93F4
330
A
100
AcDbEntity
  8
LEVEL001
  6
Continuous
 62
     1
100
AcDbCircle
 10
359.2839879014891
 20
768.6160641401002
 30
0.0
 40
0.5
100
AcDbArc
 50
180.0
 51
0.0
  0
LWPOLYLINE
  5
93F5
330
A
100
AcDbEntity
  8
LEVEL001
  6
Continuous
 62
     1
100
AcDbPolyline
 90
        5
 70
     0
 43
0.0
 10
358.7839879014891
 20
768.6160641401002
 10
358.7839879014891
 20
769.1160641401002
 10
357.7839879014891
 20
769.1160641401002
 10
357.7839879014891
 20
760.1160641401001
 10
360.6839879014892
 20
760.1160641401001
  0
ARC
  5
93F6
330
A
100
AcDbEntity
  8
LEVEL001
  6
Continuous
 62
     1
100
AcDbCircle
 10
360.6839879014892
 20
759.1160641401001
 30
0.0
 40
1.0
100
AcDbArc
 50
270.0
 51
90.0
  0
LWPOLYLINE
  5
93F7
330
A
100
AcDbEntity
  8
LEVEL001
  6
Continuous
 62
     1
100
AcDbPolyline
 90
        6
 70
     0
 43
0.0
 10
360.6839879014892
 20
758.1160641401002
 10
357.7839879014891
 20
758.1160641401002
 10
357.7839879014891
 20
756.1160641401002
 10
374.7839879014891
 20
756.1160641401002
 10
374.7839879014891
 20
758.1160641401002
 10
371.883987901489
 20
758.1160641401002
  0
ARC
  5
93F8
330
A
100
AcDbEntity
  8
LEVEL001
  6
Continuous
 62
     1
100
AcDbCircle
 10
371.883987901489
 20
759.1160641401001
 30
0.0
 40
1.0
100
AcDbArc
 50
90.0
 51
270.0
  0
LWPOLYLINE
  5
93F9
330
A
100
AcDbEntity
  8
LEVEL001
  6
Continuous
 62
     1
100
AcDbPolyline
 90
        5
 70
     0
 43
0.0
 10
371.883987901489
 20
760.1160641401001
 10
374.7839879014891
 20
760.1160641401001
 10
374.7839879014891
 20
769.1160641401002
 10
373.7839879014891
 20
769.1160641401002
 10
373.7839879014891
 20
768.6160641401002
  0
ARC
  5
93FA
330
A
100
AcDbEntity
  8
LEVEL001
  6
Continuous
 62
     1
100
AcDbCircle
 10
373.2839879014891
 20
768.6160641401002
 30
0.0
 40
0.5
100
AcDbArc
 50
180.0
 51
0.0
  0
LWPOLYLINE
  5
93FB
330
A
100
AcDbEntity
  8
LEVEL001
  6
Continuous
 62
     1
100
AcDbPolyline
 90
        4
 70
     0
 43
0.0
 10
372.7839879014891
 20
768.6160641401002
 10
372.7839879014891
 20
769.1160641401002
 10
370.883987901489
 20
769.1160641401002
 10
370.883987901489
 20
770.1160641401002
  0
ARC
  5
93FC
330
A
100
AcDbEntity
  8
LEVEL001
  6
Continuous
 62
     1
100
AcDbCircle
 10
371.8839879021689
 20
770.1160641401002
 30
0.0
 40
1.0
100
AcDbArc
 50
90.00000003934321
 51
180.0
  0
LWPOLYLINE
  5
93FD
330
A
100
AcDbEntity
  8
LEVEL001
  6
Continuous
 62
     1
100
AcDbPolyline
 90
        3
 70
     0
 43
0.0
 10
371.883987901489
 20
771.1160641401002
 10
375.7839879014891
 20
771.1160641401002
 10
375.5105150175191
 20
772.1160641401001
  0
LINE
  5
93FE
330
A
100
AcDbEntity
  8
LEVEL001
  6
Continuous
 62
     1
100
AcDbLine
 10
359.5574607854492
 20
772.1160641401001
 30
0.0
 11
361.1867443447591
 21
778.3584329429004
 31
0.0
  0
ARC
  5
93FF
330
A
100
AcDbEntity
  8
LEVEL001
  6
Continuous
 62
     1
100
AcDbCircle
 10
358.283987903269
 20
779.1160641410997
 30
0.0
 40
3.0
100
AcDbArc
 50
345.3719116024986
 51
118.0724869743286
  0
ARC
  5
9400
330
A
100
AcDbEntity
  8
LEVEL001
  6
Continuous
 62
     1
100
AcDbCircle
 10
366.2839879014191
 20
764.1160641402002
 30
0.0
 40
20.0
100
AcDbArc
 50
118.0724869357349
 51
61.9275130639386
  0
ARC
  5
9401
330
A
100
AcDbEntity
  8
LEVEL001
  6
Continuous
 62
     1
100
AcDbCircle
 10
374.2839879016092
 20
779.1160641397
 30
0.0
 40
3.0
100
AcDbArc
 50
61.92751307031445
 51
194.6280883623074
  0
LWPOLYLINE
  5
9402
330
A
100
AcDbEntity
  8
LEVEL001
  6
Continuous
 62
     1
100
AcDbPolyline
 90
        4
 70
     0
 43
0.0
 10
371.3812314582092
 20
778.3584329429004
 10
373.0105150175191
 20
772.1160641401001
 10
375.5105150175191
 20
772.1160641401001
 10
374.8016973903791
 20
774.7079760578999
  0
ARC
  5
9403
330
A
100
AcDbEntity
  8
LEVEL001
  6
Continuous
 62
     1
100
AcDbCircle
 10
375.2839878921791
 20
774.8398694426996
 30
0.0
 40
0.5
100
AcDbArc
 50
49.99479772261412
 51
195.2948751296885
  0
ARC
  5
9404
330
A
100
AcDbEntity
  8
LEVEL001
  6
Continuous
 62
     1
100
AcDbCircle
 10
366.2839879013191
 20
764.1160641400001
 30
0.0
 40
14.5
100
AcDbArc
 50
307.5235132029394
 51
49.99479911495146
  0
LWPOLYLINE
  5
9405
330
A
100
AcDbEntity
  8
LEVEL001
  6
Continuous
 62
     1
100
AcDbPolyline
 90
        3
 70
     0
 43
0.0
 10
375.1157487678093
 20
752.6160641401002
 10
371.2839879014891
 20
752.6160641401002
 10
371.2839879014891
 20
750.5054065513004
  0
ARC
  5
9406
330
A
100
AcDbEntity
  8
LEVEL001
  6
Continuous
 62
     1
100
AcDbCircle
 10
366.2839879013591
 20
764.1160641402002
 30
0.0
 40
14.5
100
AcDbArc
 50
249.8287286540589
 51
290.171271346856
  0
LWPOLYLINE
  5
9407
330
A
100
AcDbEntity
  8
LEVEL001
  6
Continuous
 62
     1
100
AcDbPolyline
 90
        3
 70
     0
 43
0.0
 10
361.2839879014891
 20
750.5054065513004
 10
361.2839879014891
 20
752.6160641401002
 10
357.452227035159
 20
752.6160641401002
  0
ARC
  5
9408
330
A
100
AcDbEntity
  8
LEVEL001
  6
Continuous
 62
     1
100
AcDbCircle
 10
366.2839879013991
 20
764.1160641401001
 30
0.0
 40
14.5
100
AcDbArc
 50
130.0052008844013
 51
232.4764867979725
  0
ARC
  5
9409
330
A
100
AcDbEntity
  8
LEVEL001
  6
Continuous
 62
     1
100
AcDbCircle
 10
357.2839878994892
 20
774.8398694276001
 30
0.0
 40
0.5
100
AcDbArc
 50
344.7051268833714
 51
130.0052001711071
  0
LWPOLYLINE
  5
940A
330
A
100
AcDbEntity
  8
LEVEL001
  6
Continuous
 62
     1
100
AcDbPolyline
 90
        3
 70
     0
 43
0.0
 10
357.7662784125991
 20
774.7079760578999
 10
357.0574607854492
 20
772.1160641401001
 10
359.5574607854492
 20
772.1160641401001
  0
ARC
  5
940B
330
A
100
AcDbEntity
  8
LEVEL001
  6
Continuous
 62
     1
100
AcDbCircle
 10
366.2839879014991
 20
643.5823668559996
 30
0.0
 40
21.5
100
AcDbArc
 50
0.0
 51
180.0
  0
LINE
  5
940C
330
A
100
AcDbEntity
  8
LEVEL001
  6
Continuous
 62
     1
100
AcDbLine
 10
387.7839879014991
 20
643.5823668559996
 30
0.0
 11
387.7839879014991
 21
590.5823668559996
 31
0.0
  0
LINE
  5
940D
330
A
100
AcDbEntity
  8
LEVEL001
  6
Continuous
 62
     1
100
AcDbLine
 10
344.7839879014992
 20
590.5823668559996
 30
0.0
 11
344.7839879014992
 21
643.5823668559996
 31
0.0
  0
LINE
  5
940E
330
A
100
AcDbEntity
  8
LEVEL001
  6
Continuous
 62
     1
100
AcDbLine
 10
387.2839879014991
 20
590.0823668559996
 30
0.0
 11
345.2839879014991
 21
590.0823668559996
 31
0.0
  0
ARC
  5
940F
330
A
100
AcDbEntity
  8
LEVEL001
  6
Continuous
 62
     1
100
AcDbCircle
 10
387.2839879057492
 20
590.5823668559996
 30
0.0
 40
0.5
100
AcDbArc
 50
269.9999995123787
 51
0.0
  0
ARC
  5
9410
330
A
100
AcDbEntity
  8
LEVEL001
  6
Continuous
 62
     1
100
AcDbCircle
 10
345.2839879014991
 20
590.5823668551001
 30
0.0
 40
0.5
100
AcDbArc
 50
179.9999998976555
 51
270.0
  0
ARC
  5
9411
330
A
100
AcDbEntity
  8
LEVEL001
  6
Continuous
 62
     1
100
AcDbCircle
 10
376.2839879014591
 20
470.9827311646003
 30
0.0
 40
12.499999999951
100
AcDbArc
 50
216.8698976456825
 51
323.1301023543905
  0
ARC
  5
9412
330
A
100
AcDbEntity
  8
LEVEL001
  6
Continuous
 62
     1
100
AcDbCircle
 10
356.2839879014891
 20
455.9827311645003
 30
0.0
 40
12.500000000049
100
AcDbArc
 50
36.86989764616711
 51
143.1301023539631
  0
ARC
  5
9413
330
A
100
AcDbEntity
  8
LEVEL001
  6
Continuous
 62
     1
100
AcDbCircle
 10
376.2839879014591
 20
460.9827311646004
 30
0.0
 40
12.499999999951
100
AcDbArc
 50
216.8698976456825
 51
323.1301023543905
  0
ARC
  5
9414
330
A
100
AcDbEntity
  8
LEVEL001
  6
Continuous
 62
     1
100
AcDbCircle
 10
356.2839879014891
 20
445.9827311645003
 30
0.0
 40
12.500000000049
100
AcDbArc
 50
36.86989764616711
 51
143.1301023539631
  0
LINE
  5
9415
330
A
100
AcDbEntity
  8
LEVEL001
  6
Continuous
 62
     1
100
AcDbLine
 10
346.2839879014491
 20
463.4827311646004
 30
0.0
 11
346.2839879014491
 21
590.0823668559996
 31
0.0
  0
LINE
  5
9416
330
A
100
AcDbEntity
  8
LEVEL001
  6
Continuous
 62
     1
100
AcDbLine
 10
386.2839879014491
 20
463.4827311646004
 30
0.0
 11
386.2839879014491
 21
590.0823668559996
 31
0.0
  0
ARC
  5
9417
330
A
100
AcDbEntity
  8
LEVEL001
  6
Continuous
 62
     3
100
AcDbCircle
 10
390.5339879014891
 20
255.3851885984004
 30
0.0
 40
45.0
100
AcDbArc
 50
179.9999999999739
 51
270.0
  0
LINE
  5
9418
330
A
100
AcDbEntity
  8
LEVEL001
  6
Continuous
 62
     3
100
AcDbLine
 10
416.5339879014991
 20
210.3851885984004
 30
0.0
 11
390.5339879014891
 21
210.3851885984004
 31
0.0
  0
ARC
  5
9419
330
A
100
AcDbEntity
  8
LEVEL001
  6
Continuous
 62
     3
100
AcDbCircle
 10
416.5339878980989
 20
210.8851885984004
 30
0.0
 40
0.5
100
AcDbArc
 50
270.0000003824629
 51
0.0
  0
LINE
  5
941A
330
A
100
AcDbEntity
  8
LEVEL001
  6
Continuous
 62
     3
100
AcDbLine
 10
417.0339879014991
 20
252.8851885984004
 30
0.0
 11
417.0339879014991
 21
210.8851885984004
 31
0.0
  0
ARC
  5
941B
330
A
100
AcDbEntity
  8
LEVEL001
  6
Continuous
 62
     3
100
AcDbCircle
 10
416.5339879014991
 20
252.8851885938002
 30
0.0
 40
0.5
100
AcDbArc
 50
0.0000005242286915
 51
90.0
  0
LINE
  5
941C
330
A
100
AcDbEntity
  8
LEVEL001
  6
Continuous
 62
     3
100
AcDbLine
 10
345.5339879014891
 20
255.3851885984004
 30
0.0
 11
345.5339879014891
 21
284.8851885984004
 31
0.0
  0
ARC
  5
941D
330
A
100
AcDbEntity
  8
LEVEL001
  6
Continuous
 62
     3
100
AcDbCircle
 10
346.033987898149
 20
284.8851885984004
 30
0.0
 40
0.5
100
AcDbArc
 50
89.99999961766739
 51
180.0
  0
LINE
  5
941E
330
A
100
AcDbEntity
  8
LEVEL001
  6
Continuous
 62
     3
100
AcDbLine
 10
387.0339879014892
 20
284.8851885984004
 30
0.0
 11
387.0339879014892
 21
255.3851885984004
 31
0.0
  0
ARC
  5
941F
330
A
100
AcDbEntity
  8
LEVEL001
  6
Continuous
 62
     3
100
AcDbCircle
 10
389.0339879004691
 20
255.3851885984004
 30
0.0
 40
2.0
100
AcDbArc
 50
180.0
 51
270.0000000290514
  0
ARC
  5
9420
330
A
100
AcDbEntity
  8
LEVEL001
  6
Continuous
 62
     3
100
AcDbCircle
 10
386.5339879014891
 20
284.8851885938002
 30
0.0
 40
0.5
100
AcDbArc
 50
0.0000005240202507
 51
90.0
  0
LINE
  5
9421
330
A
100
AcDbEntity
  8
LEVEL001
  6
Continuous
 62
     3
100
AcDbLine
 10
346.0339879014891
 20
285.3851885984004
 30
0.0
 11
386.5339879014891
 21
285.3851885984004
 31
0.0
  0
LINE
  5
9422
330
A
100
AcDbEntity
  8
LEVEL001
  6
DASHDOT
 62
     6
370
    15
100
AcDbLine
 10
659.5541285554991
 20
231.8851885984004
 30
0.0
 11
366.2839879014891
 21
231.8851885984004
 31
0.0
  0
LINE
  5
9423
330
A
100
AcDbEntity
  8
LEVEL001
  6
Continuous
 62
     3
100
AcDbLine
 10
389.0339879014891
 20
253.3851885984004
 30
0.0
 11
416.5339879014991
 21
253.3851885984004
 31
0.0
  0
LINE
  5
9424
330
A
100
AcDbEntity
  8
LEVEL001
  6
Continuous
 62
     1
100
AcDbLine
 10
417.0339879014991
 20
251.8851885984996
 30
0.0
 11
574.2860810265993
 21
251.8851885984996
 31
0.0
  0
LINE
  5
9425
330
A
100
AcDbEntity
  8
LEVEL001
  6
Continuous
 62
     1
100
AcDbLine
 10
417.0339879014991
 20
211.8851885984995
 30
0.0
 11
574.2860810265993
 21
211.8851885984995
 31
0.0
  0
LINE
  5
9426
330
A
100
AcDbEntity
  8
LEVEL001
  6
Continuous
 62
     1
100
AcDbLine
 10
386.2839879014491
 20
285.3851885984004
 30
0.0
 11
386.2839879014491
 21
453.4827311646004
 31
0.0
  0
LINE
  5
9427
330
A
100
AcDbEntity
  8
LEVEL001
  6
Continuous
 62
     1
100
AcDbLine
 10
346.2839879014491
 20
285.3851885984004
 30
0.0
 11
346.2839879014491
 21
453.4827311646004
 31
0.0
  0
LINE
  5
9428
330
A
100
AcDbEntity
  8
LEVEL001
  6
Continuous
 62
     5
100
AcDbLine
 10
399.1839879014992
 20
502.0802737308003
 30
0.0
 11
399.1839879014992
 21
528.0802737308004
 31
0.0
  0
ARC
  5
9429
330
A
100
AcDbEntity
  8
LEVEL001
  6
Continuous
 62
     5
100
AcDbCircle
 10
397.1839879006993
 20
528.0802737308004
 30
0.0
 40
2.0
100
AcDbArc
 50
0.0
 51
89.99999997881721
  0
ARC
  5
942A
330
A
100
AcDbEntity
  8
LEVEL001
  6
Continuous
 62
     5
100
AcDbCircle
 10
406.6839879033991
 20
528.5802737308004
 30
0.0
 40
2.5
100
AcDbArc
 50
0.0
 51
90.00000004280854
  0
LINE
  5
942B
330
A
100
AcDbEntity
  8
LEVEL001
  6
Continuous
 62
     5
100
AcDbLine
 10
409.1839879014992
 20
501.5802737308003
 30
0.0
 11
409.1839879014992
 21
528.5802737308004
 31
0.0
  0
ARC
  5
942C
330
A
100
AcDbEntity
  8
LEVEL001
  6
Continuous
 62
     5
100
AcDbCircle
 10
397.1839879014993
 20
502.0802737297999
 30
0.0
 40
2.0
100
AcDbArc
 50
270.0
 51
0.0000000287127246
  0
ARC
  5
942D
330
A
100
AcDbEntity
  8
LEVEL001
  6
Continuous
 62
     5
100
AcDbCircle
 10
406.6839879014992
 20
501.5802737316999
 30
0.0
 40
2.5
100
AcDbArc
 50
270.0
 51
0.0
  0
LINE
  5
942E
330
A
100
AcDbEntity
  8
LEVEL001
  6
Continuous
 62
     5
100
AcDbLine
 10
406.6839879014992
 20
531.0802737308003
 30
0.0
 11
386.2839879015291
 21
531.0802737308003
 31
0.0
  0
LINE
  5
942F
330
A
100
AcDbEntity
  8
LEVEL001
  6
Continuous
 62
     5
100
AcDbLine
 10
397.1839879014993
 20
530.0802737308003
 30
0.0
 11
386.2839879015291
 21
530.0802737308003
 31
0.0
  0
LINE
  5
9430
330
A
100
AcDbEntity
  8
LEVEL001
  6
Continuous
 62
     5
100
AcDbLine
 10
386.2839879015291
 20
500.0802737308004
 30
0.0
 11
397.1839879014993
 21
500.0802737308004
 31
0.0
  0
LINE
  5
9431
330
A
100
AcDbEntity
  8
LEVEL001
  6
Continuous
 62
     5
100
AcDbLine
 10
386.2839879015291
 20
499.0802737308004
 30
0.0
 11
406.6839879014992
 21
499.0802737308004
 31
0.0
  0
LINE
  5
9432
330
A
100
AcDbEntity
  8
LEVEL001
  6
DASHDOT
 62
     6
370
    15
100
AcDbLine
 10
418.2793818691989
 20
515.0802737308004
 30
0.0
 11
350.2885939337493
 21
515.0802737308004
 31
0.0
  0
LWPOLYLINE
  5
9433
330
A
100
AcDbEntity
  8
LEVEL001
  6
Continuous
 62
     3
370
    30
100
AcDbPolyline
 90
        3
 70
     0
 43
0.0
 10
266.2839879014891
 20
178.1372390400001
 10
266.2839879014891
 20
78.48672740189977
 10
656.1604199799989
 20
78.48672740189977
  0
LINE
  5
9434
330
A
100
AcDbEntity
  8
LEVEL001
  6
Continuous
 62
     3
370
    30
100
AcDbLine
 10
266.2839879014891
 20
682.1164782656997
 30
0.0
 11
266.2839879014891
 21
205.3483984369004
 31
0.0
  0
LINE
  5
9435
330
A
100
AcDbEntity
  8
LEVEL001
  6
DASHDOT
 62
     6
370
    15
100
AcDbLine
 10
496.2839879013991
 20
128.9441733088997
 30
0.0
 11
496.2839879013991
 21
263.9398112911004
 31
0.0
  0
LINE
  5
9436
330
A
100
AcDbEntity
  8
LEVEL001
  6
Continuous
 62
     5
100
AcDbLine
 10
483.533987901399
 20
197.8851885984004
 30
0.0
 11
509.033987901399
 21
197.8851885984004
 31
0.0
  0
LINE
  5
9437
330
A
100
AcDbEntity
  8
LEVEL001
  6
DASHDOT
 62
     6
370
    15
100
AcDbLine
 10
517.8929590663992
 20
160.2851885984
 30
0.0
 11
474.6750167364989
 21
160.2851885984
 31
0.0
  0
LINE
  5
9438
330
A
100
AcDbEntity
  8
LEVEL001
  6
Continuous
 62
     5
100
AcDbLine
 10
483.533987901399
 20
173.8851885984004
 30
0.0
 11
509.033987901399
 21
173.8851885984004
 31
0.0
  0
LWPOLYLINE
  5
9439
330
A
100
AcDbEntity
  8
LEVEL001
  6
Continuous
 62
     5
100
AcDbPolyline
 90
        3
 70
     0
 43
0.0
 10
512.2839879013991
 20
137.8851885984004
 10
512.2839879013991
 20
186.8851885984004
 10
509.033987901399
 20
186.8851885984004
  0
LINE
  5
943A
330
A
100
AcDbEntity
  8
LEVEL001
  6
Continuous
 62
     5
100
AcDbLine
 10
511.283987901399
 20
147.3851885984004
 30
0.0
 11
511.283987901399
 21
182.6851885983997
 31
0.0
  0
LWPOLYLINE
  5
943B
330
A
100
AcDbEntity
  8
LEVEL001
  6
Continuous
 62
     5
100
AcDbPolyline
 90
        3
 70
     0
 43
0.0
 10
483.533987901399
 20
186.8851885984004
 10
480.2839879013991
 20
186.8851885984004
 10
480.2839879013991
 20
137.8851885984004
  0
LINE
  5
943C
330
A
100
AcDbEntity
  8
LEVEL001
  6
Continuous
 62
     5
100
AcDbLine
 10
481.283987901399
 20
182.6851885983997
 30
0.0
 11
481.283987901399
 21
147.3851885984004
 31
0.0
  0
LINE
  5
943D
330
A
100
AcDbEntity
  8
LEVEL001
  6
Continuous
 62
     5
100
AcDbLine
 10
481.283987901399
 20
182.6851885983997
 30
0.0
 11
483.533987901399
 21
182.6851885983997
 31
0.0
  0
ARC
  5
943E
330
A
100
AcDbEntity
  8
LEVEL001
  6
Continuous
 62
     5
100
AcDbCircle
 10
466.3437945318992
 20
181.3470473198004
 30
0.0
 40
15.0
100
AcDbArc
 50
5.118127163351655
 51
21.66686834530886
  0
LINE
  5
943F
330
A
100
AcDbEntity
  8
LEVEL001
  6
Continuous
 62
     5
100
AcDbLine
 10
509.033987901399
 20
182.6851885983997
 30
0.0
 11
511.283987901399
 21
182.6851885983997
 31
0.0
  0
ARC
  5
9440
330
A
100
AcDbEntity
  8
LEVEL001
  6
Continuous
 62
     5
100
AcDbCircle
 10
526.224181270999
 20
181.3470473200996
 30
0.0
 40
15.0
100
AcDbArc
 50
158.3331316558136
 51
174.8818728378254
  0
LWPOLYLINE
  5
9441
330
A
100
AcDbEntity
  8
LEVEL001
  6
Continuous
 62
     5
100
AcDbPolyline
 90
        4
 70
     0
 43
0.0
 10
509.033987901399
 20
173.8851885984004
 10
509.033987901399
 20
170.8851885984004
 10
483.533987901399
 20
170.8851885984004
 10
483.533987901399
 20
173.8851885984004
  0
LINE
  5
9442
330
A
100
AcDbEntity
  8
LEVEL001
  6
Continuous
 62
     5
100
AcDbLine
 10
483.2839879013991
 20
145.3851885984004
 30
0.0
 11
509.2839879013991
 21
145.3851885984004
 31
0.0
  0
ARC
  5
9443
330
A
100
AcDbEntity
  8
LEVEL001
  6
Continuous
 62
     5
100
AcDbCircle
 10
509.2839879013991
 20
147.3851885987997
 30
0.0
 40
2.0
100
AcDbArc
 50
270.0
 51
0.0
  0
ARC
  5
9444
330
A
100
AcDbEntity
  8
LEVEL001
  6
Continuous
 62
     5
100
AcDbCircle
 10
509.783987901399
 20
137.8851885996
 30
0.0
 40
2.5
100
AcDbArc
 50
270.0
 51
0.0
  0
LINE
  5
9445
330
A
100
AcDbEntity
  8
LEVEL001
  6
Continuous
 62
     5
100
AcDbLine
 10
482.7839879013991
 20
135.3851885984004
 30
0.0
 11
509.783987901399
 21
135.3851885984004
 31
0.0
  0
ARC
  5
9446
330
A
100
AcDbEntity
  8
LEVEL001
  6
Continuous
 62
     5
100
AcDbCircle
 10
483.283987902299
 20
147.3851885984004
 30
0.0
 40
2.0
100
AcDbArc
 50
180.0
 51
269.9999999745181
  0
ARC
  5
9447
330
A
100
AcDbEntity
  8
LEVEL001
  6
Continuous
 62
     5
100
AcDbCircle
 10
482.7839879015991
 20
137.8851885984004
 30
0.0
 40
2.5
100
AcDbArc
 50
180.0
 51
269.999999996691
  0
LINE
  5
9448
330
A
100
AcDbEntity
  8
LEVEL001
  6
Continuous
 62
     5
100
AcDbLine
 10
483.533987901399
 20
211.8851885984995
 30
0.0
 11
483.533987901399
 21
173.8851885984004
 31
0.0
  0
LINE
  5
9449
330
A
100
AcDbEntity
  8
LEVEL001
  6
Continuous
 62
     5
100
AcDbLine
 10
509.033987901399
 20
173.8851885984004
 30
0.0
 11
509.033987901399
 21
211.8851885984995
 31
0.0
  0
LINE
  5
944A
330
A
100
AcDbEntity
  8
LEVEL001
  6
Continuous
 62
     5
100
AcDbLine
 10
399.1839879014992
 20
348.8851885984995
 30
0.0
 11
399.1839879014992
 21
374.8851885984996
 31
0.0
  0
ARC
  5
944B
330
A
100
AcDbEntity
  8
LEVEL001
  6
Continuous
 62
     5
100
AcDbCircle
 10
397.183987900899
 20
374.8851885984996
 30
0.0
 40
2.0
100
AcDbArc
 50
0.0
 51
89.99999998280364
  0
ARC
  5
944C
330
A
100
AcDbEntity
  8
LEVEL001
  6
Continuous
 62
     5
100
AcDbCircle
 10
406.683987903099
 20
375.3851885984996
 30
0.0
 40
2.5
100
AcDbArc
 50
0.0
 51
90.00000003744117
  0
LINE
  5
944D
330
A
100
AcDbEntity
  8
LEVEL001
  6
Continuous
 62
     5
100
AcDbLine
 10
409.1839879014992
 20
348.3851885984996
 30
0.0
 11
409.1839879014992
 21
375.3851885984996
 31
0.0
  0
ARC
  5
944E
330
A
100
AcDbEntity
  8
LEVEL001
  6
Continuous
 62
     5
100
AcDbCircle
 10
397.1839879014993
 20
348.8851885972999
 30
0.0
 40
2.0
100
AcDbArc
 50
270.0
 51
0.0000000327252106
  0
ARC
  5
944F
330
A
100
AcDbEntity
  8
LEVEL001
  6
Continuous
 62
     5
100
AcDbCircle
 10
406.6839879014992
 20
348.3851885996001
 30
0.0
 40
2.5
100
AcDbArc
 50
270.0
 51
0.0
  0
LINE
  5
9450
330
A
100
AcDbEntity
  8
LEVEL001
  6
Continuous
 62
     5
100
AcDbLine
 10
406.6839879014992
 20
377.8851885984995
 30
0.0
 11
386.2839879015291
 21
377.8851885984995
 31
0.0
  0
LINE
  5
9451
330
A
100
AcDbEntity
  8
LEVEL001
  6
Continuous
 62
     5
100
AcDbLine
 10
397.1839879014993
 20
376.8851885984996
 30
0.0
 11
386.2839879015291
 21
376.8851885984996
 31
0.0
  0
LINE
  5
9452
330
A
100
AcDbEntity
  8
LEVEL001
  6
Continuous
 62
     5
100
AcDbLine
 10
386.2839879015291
 20
346.8851885984995
 30
0.0
 11
397.1839879014993
 21
346.8851885984995
 31
0.0
  0
LINE
  5
9453
330
A
100
AcDbEntity
  8
LEVEL001
  6
Continuous
 62
     5
100
AcDbLine
 10
386.2839879015291
 20
345.8851885984996
 30
0.0
 11
406.6839879014992
 21
345.8851885984996
 31
0.0
  0
LINE
  5
9454
330
A
100
AcDbEntity
  8
LEVEL001
  6
DASHDOT
 62
     6
370
    15
100
AcDbLine
 10
348.2885939337493
 20
361.8851885984995
 30
0.0
 11
418.2793818691989
 21
361.8851885984995
 31
0.0
  0
LWPOLYLINE
  5
9455
330
A
100
AcDbEntity
  8
LEVEL001
  6
Continuous
 62
     5
100
AcDbPolyline
 90
        4
 70
     0
 43
0.0
 10
409.1839879014992
 20
1007.496171426
 10
409.1839879014992
 20
990.4961714259998
 10
399.1839879014992
 20
980.4961714259999
 10
361.8839879014891
 20
980.4961714259999
  0
LINE
  5
9456
330
A
100
AcDbEntity
  8
LEVEL001
  6
Continuous
 62
     5
100
AcDbLine
 10
357.6839879014892
 20
1007.496171426
 30
0.0
 11
409.1839879014992
 21
1007.496171426
 31
0.0
  0
LINE
  5
9457
330
A
100
AcDbEntity
  8
LEVEL001
  6
Continuous
 62
     5
100
AcDbLine
 10
357.6839879014892
 20
992.9401572415999
 30
0.0
 11
357.6839879014892
 21
1004.596171426
 31
0.0
  0
LINE
  5
9458
330
A
100
AcDbEntity
  8
LEVEL001
  6
Continuous
 62
     5
100
AcDbLine
 10
357.6839879014892
 20
1007.496171426
 30
0.0
 11
357.6839879014892
 21
992.3401572415995
 31
0.0
  0
ARC
  5
9459
330
A
100
AcDbEntity
  8
LEVEL001
  6
Continuous
 62
     5
100
AcDbCircle
 10
376.4839879014589
 20
992.3401572415995
 30
0.0
 40
18.8
100
AcDbArc
 50
180.0000000000781
 51
219.0500668714172
  0
LWPOLYLINE
  5
945A
330
A
100
AcDbEntity
  8
LEVEL001
  6
Continuous
 62
     5
100
AcDbPolyline
 90
        4
 70
     0
 43
0.0
 10
409.1839879014992
 20
817.0160641400999
 10
409.1839879014992
 20
800.0160641400999
 10
399.1839879014992
 20
790.0160641400998
 10
361.8839879014891
 20
790.0160641400998
  0
LINE
  5
945B
330
A
100
AcDbEntity
  8
LEVEL001
  6
Continuous
 62
     5
100
AcDbLine
 10
357.6839879014892
 20
817.0160641400999
 30
0.0
 11
409.1839879014992
 21
817.0160641400999
 31
0.0
  0
LINE
  5
945C
330
A
100
AcDbEntity
  8
LEVEL001
  6
Continuous
 62
     5
100
AcDbLine
 10
357.6839879014892
 20
802.4600499556999
 30
0.0
 11
357.6839879014892
 21
814.1160641401002
 31
0.0
  0
LINE
  5
945D
330
A
100
AcDbEntity
  8
LEVEL001
  6
Continuous
 62
     5
100
AcDbLine
 10
357.6839879014892
 20
817.0160641400999
 30
0.0
 11
357.6839879014892
 21
801.8600499556995
 31
0.0
  0
ARC
  5
945E
330
A
100
AcDbEntity
  8
LEVEL001
  6
Continuous
 62
     5
100
AcDbCircle
 10
376.483987901589
 20
801.8600499555995
 30
0.0
 40
18.8
100
AcDbArc
 50
179.9999999996092
 51
219.0500668707865
  0
LINE
  5
945F
330
A
100
AcDbEntity
  8
LEVEL001
  6
HIDDEN
 62
     2
370
    15
100
AcDbLine
 10
389.383987901489
 20
1009.596171426
 30
0.0
 11
389.383987901489
 21
1000.896171426
 31
0.0
  0
LINE
  5
9460
330
A
100
AcDbEntity
  8
LEVEL001
  6
HIDDEN
 62
     2
370
    15
100
AcDbLine
 10
379.383987901489
 20
1009.596171426
 30
0.0
 11
379.383987901489
 21
1000.896171426
 31
0.0
  0
ARC
  5
9461
330
A
100
AcDbEntity
  8
LEVEL001
  6
HIDDEN
 62
    15
370
    15
100
AcDbCircle
 10
396.383987904409
 20
1001.296171426
 30
0.0
 40
0.5
100
AcDbArc
 50
269.9999996649835
 51
0.0
  0
ARC
  5
9462
330
A
100
AcDbEntity
  8
LEVEL001
  6
HIDDEN
 62
    15
370
    15
100
AcDbCircle
 10
397.9839879014989
 20
1003.696171425999
 30
0.0
 40
1.1
100
AcDbArc
 50
0.0
 51
180.0
  0
LINE
  5
9463
330
A
100
AcDbEntity
  8
LEVEL001
  6
HIDDEN
 62
    15
370
    15
100
AcDbLine
 10
396.8839879014891
 20
1003.696171425999
 30
0.0
 11
396.8839879014891
 21
1001.296171426
 31
0.0
  0
LINE
  5
9464
330
A
100
AcDbEntity
  8
LEVEL001
  6
HIDDEN
 62
    15
370
    15
100
AcDbLine
 10
400.7839879014991
 20
999.796171426
 30
0.0
 11
399.383987901499
 21
999.796171426
 31
0.0
  0
ARC
  5
9465
330
A
100
AcDbEntity
  8
LEVEL001
  6
HIDDEN
 62
    15
370
    15
100
AcDbCircle
 10
399.383987901499
 20
1000.096171434
 30
0.0
 40
0.3
100
AcDbArc
 50
180.0000015358702
 51
269.9999999998437
  0
ARC
  5
9466
330
A
100
AcDbEntity
  8
LEVEL001
  6
HIDDEN
 62
    15
370
    15
100
AcDbCircle
 10
400.7839879090989
 20
1000.096171426
 30
0.0
 40
0.3
100
AcDbArc
 50
269.9999985442492
 51
0.0
  0
LINE
  5
9467
330
A
100
AcDbEntity
  8
LEVEL001
  6
HIDDEN
 62
    15
370
    15
100
AcDbLine
 10
399.0839879014993
 20
1000.096171426
 30
0.0
 11
399.0839879014993
 21
1003.696171425999
 31
0.0
  0
LINE
  5
9468
330
A
100
AcDbEntity
  8
LEVEL001
  6
HIDDEN
 62
    15
370
    15
100
AcDbLine
 10
401.0839879014993
 20
1000.796171426
 30
0.0
 11
401.0839879014993
 21
1000.096171426
 31
0.0
  0
LINE
  5
9469
330
A
100
AcDbEntity
  8
LEVEL001
  6
HIDDEN
 62
    15
370
    15
100
AcDbLine
 10
401.0839879014993
 20
1000.796171426
 30
0.0
 11
409.1839879014992
 21
1000.796171426
 31
0.0
  0
LINE
  5
946A
330
A
100
AcDbEntity
  8
LEVEL001
  6
HIDDEN
 62
     2
100
AcDbLine
 10
409.1839879014992
 20
1000.796171426
 30
0.0
 11
409.1839879014992
 21
1007.496171426
 31
0.0
  0
LINE
  5
946B
330
A
100
AcDbEntity
  8
LEVEL001
  6
HIDDEN
 62
    15
370
    15
100
AcDbLine
 10
383.883987901489
 20
1000.796171426
 30
0.0
 11
384.3839879014891
 21
1001.296171426
 31
0.0
  0
LINE
  5
946C
330
A
100
AcDbEntity
  8
LEVEL001
  6
HIDDEN
 62
    15
370
    15
100
AcDbLine
 10
370.1717581867693
 20
1000.796171426
 30
0.0
 11
383.883987901489
 21
1000.796171426
 31
0.0
  0
LINE
  5
946D
330
A
100
AcDbEntity
  8
LEVEL001
  6
HIDDEN
 62
    15
370
    15
100
AcDbLine
 10
384.3839879014891
 20
1001.296171426
 30
0.0
 11
384.883987901489
 21
1000.796171426
 31
0.0
  0
LINE
  5
946E
330
A
100
AcDbEntity
  8
LEVEL001
  6
HIDDEN
 62
    15
370
    15
100
AcDbLine
 10
384.883987901489
 20
1000.796171426
 30
0.0
 11
396.383987901489
 21
1000.796171426
 31
0.0
  0
LINE
  5
946F
330
A
100
AcDbEntity
  8
LEVEL001
  6
HIDDEN
 62
    15
370
    15
100
AcDbLine
 10
361.8839879014891
 20
981.0961714260001
 30
0.0
 11
361.8839879014891
 21
980.4961714259999
 31
0.0
  0
ARC
  5
9470
330
A
100
AcDbEntity
  8
LEVEL001
  6
HIDDEN
 62
    15
370
    15
100
AcDbCircle
 10
376.483987901489
 20
992.9401572414999
 30
0.0
 40
18.8
100
AcDbArc
 50
179.8476174279883
 51
219.0500668712503
  0
LINE
  5
9471
330
A
100
AcDbEntity
  8
LEVEL001
  6
HIDDEN
 62
    15
370
    15
100
AcDbLine
 10
370.6839879014892
 20
984.8939924998003
 30
0.0
 11
370.6839879014892
 21
980.4961714259999
 31
0.0
  0
ARC
  5
9472
330
A
100
AcDbEntity
  8
LEVEL001
  6
HIDDEN
 62
    15
370
    15
100
AcDbCircle
 10
376.483987901519
 20
993.0401572416004
 30
0.0
 40
10.0
100
AcDbArc
 50
129.1404088976414
 51
234.5494573607669
  0
LWPOLYLINE
  5
9473
330
A
100
AcDbEntity
  8
LEVEL001
  6
HIDDEN
 62
    15
370
    15
100
AcDbPolyline
 90
        4
 70
     0
 43
0.0
 10
359.6839879014892
 20
1007.496171426
 10
359.6839879014892
 20
1005.596171426
 10
363.6839879014892
 20
1005.596171426
 10
363.6839879014892
 20
1007.496171426
  0
LINE
  5
9474
330
A
100
AcDbEntity
  8
LEVEL001
  6
HIDDEN
 62
     2
100
AcDbLine
 10
357.6839879014892
 20
993.0913317717996
 30
0.0
 11
357.6839879014892
 21
1004.596171426
 31
0.0
  0
LINE
  5
9475
330
A
100
AcDbEntity
  8
LEVEL001
  6
HIDDEN
 62
     2
100
AcDbLine
 10
357.6839879014892
 20
1004.596171426
 30
0.0
 11
357.6839879014892
 21
993.0401572416004
 31
0.0
  0
LINE
  5
9476
330
A
100
AcDbEntity
  8
LEVEL001
  6
HIDDEN
 62
     2
370
    15
100
AcDbLine
 10
373.2839879014891
 20
955.9061773932999
 30
0.0
 11
372.5339879014891
 21
956.6561773932999
 31
0.0
  0
LINE
  5
9477
330
A
100
AcDbEntity
  8
LEVEL001
  6
HIDDEN
 62
     2
370
    15
100
AcDbLine
 10
373.2839879014891
 20
953.4061773932998
 30
0.0
 11
373.2839879014891
 21
955.9061773932999
 31
0.0
  0
LINE
  5
9478
330
A
100
AcDbEntity
  8
LEVEL001
  6
HIDDEN
 62
     2
370
    15
100
AcDbLine
 10
372.5339879014891
 20
952.6561773932998
 30
0.0
 11
373.2839879014891
 21
953.4061773932998
 31
0.0
  0
LINE
  5
9479
330
A
100
AcDbEntity
  8
LEVEL001
  6
HIDDEN
 62
     2
370
    15
100
AcDbLine
 10
373.2839879014891
 20
953.4061773932998
 30
0.0
 11
355.2839879014891
 21
953.4061773932998
 31
0.0
  0
ARC
  5
947A
330
A
100
AcDbEntity
  8
LEVEL001
  6
HIDDEN
 62
     2
370
    15
100
AcDbCircle
 10
354.783987901199
 20
958.1561773933
 30
0.0
 40
0.5
100
AcDbArc
 50
0.0
 51
89.99999996698818
  0
ARC
  5
947B
330
A
100
AcDbEntity
  8
LEVEL001
  6
HIDDEN
 62
     2
370
    15
100
AcDbCircle
 10
354.7839879014891
 20
951.1561773947997
 30
0.0
 40
0.5
100
AcDbArc
 50
270.0
 51
0.0
  0
LINE
  5
947C
330
A
100
AcDbEntity
  8
LEVEL001
  6
HIDDEN
 62
     2
370
    15
100
AcDbLine
 10
354.7839879014891
 20
950.6561773932999
 30
0.0
 11
354.0487357109591
 21
950.6561773932999
 31
0.0
  0
ARC
  5
947D
330
A
100
AcDbEntity
  8
LEVEL001
  6
HIDDEN
 62
     2
370
    15
100
AcDbCircle
 10
359.5506545680992
 20
954.6561773931998
 30
0.0
 40
7.2666666666667
100
AcDbArc
 50
151.397941316261
 51
208.6020586822231
  0
ARC
  5
947E
330
A
100
AcDbEntity
  8
LEVEL001
  6
HIDDEN
 62
     2
370
    15
100
AcDbCircle
 10
354.0487357104293
 20
951.6561773943003
 30
0.0
 40
1.0
100
AcDbArc
 50
208.6020587470033
 51
270.0000000306929
  0
ARC
  5
947F
330
A
100
AcDbEntity
  8
LEVEL001
  6
HIDDEN
 62
     2
370
    15
100
AcDbCircle
 10
354.0487357107291
 20
957.6561773928997
 30
0.0
 40
1.0
100
AcDbArc
 50
89.99999998658163
 51
151.3979412891058
  0
LINE
  5
9480
330
A
100
AcDbEntity
  8
LEVEL001
  6
HIDDEN
 62
     2
370
    15
100
AcDbLine
 10
354.7839879014891
 20
958.6561773932999
 30
0.0
 11
354.0487357109591
 21
958.6561773932999
 31
0.0
  0
LINE
  5
9481
330
A
100
AcDbEntity
  8
LEVEL001
  6
HIDDEN
 62
     2
370
    15
100
AcDbLine
 10
355.2839879014891
 20
952.6561773932998
 30
0.0
 11
372.5339879014891
 21
952.6561773932998
 31
0.0
  0
LINE
  5
9482
330
A
100
AcDbEntity
  8
LEVEL001
  6
HIDDEN
 62
     2
370
    15
100
AcDbLine
 10
372.5339879014891
 20
956.6561773932999
 30
0.0
 11
355.2839879014891
 21
956.6561773932999
 31
0.0
  0
LINE
  5
9483
330
A
100
AcDbEntity
  8
LEVEL001
  6
HIDDEN
 62
     2
370
    15
100
AcDbLine
 10
355.2839879014891
 20
955.9061773932999
 30
0.0
 11
373.2839879014891
 21
955.9061773933008
 31
0.0
  0
LINE
  5
9484
330
A
100
AcDbEntity
  8
LEVEL001
  6
HIDDEN
 62
     2
100
AcDbLine
 10
388.9367354014889
 20
1000.796171426
 30
0.0
 11
379.8312389014891
 21
1000.796171426
 31
0.0
  0
LINE
  5
9485
330
A
100
AcDbEntity
  8
LEVEL001
  6
HIDDEN
 62
     2
370
    15
100
AcDbLine
 10
375.383987901489
 20
999.5961714260001
 30
0.0
 11
375.383987901489
 21
1000.796171426
 31
0.0
  0
LINE
  5
9486
330
A
100
AcDbEntity
  8
LEVEL001
  6
HIDDEN
 62
     2
370
    15
100
AcDbLine
 10
391.883987901489
 20
994.1735216952002
 30
0.0
 11
391.883987901489
 21
999.5961714260001
 31
0.0
  0
LINE
  5
9487
330
A
100
AcDbEntity
  8
LEVEL001
  6
HIDDEN
 62
     2
370
    15
100
AcDbLine
 10
391.883987901489
 20
999.5961714260001
 30
0.0
 11
376.883987901489
 21
999.5961714260001
 31
0.0
  0
LINE
  5
9488
330
A
100
AcDbEntity
  8
LEVEL001
  6
HIDDEN
 62
     2
370
    15
100
AcDbLine
 10
376.883987901489
 20
999.5961714260001
 30
0.0
 11
376.883987901489
 21
994.1735216952002
 31
0.0
  0
ARC
  5
9489
330
A
100
AcDbEntity
  8
LEVEL001
  6
HIDDEN
 62
     2
370
    15
100
AcDbCircle
 10
378.7603762766594
 20
996.9339776697998
 30
0.0
 40
3.3378062436684
100
AcDbArc
 50
235.7945420586219
 51
304.2054579333855
  0
ARC
  5
948A
330
A
100
AcDbEntity
  8
LEVEL001
  6
HIDDEN
 62
     2
370
    15
100
AcDbCircle
 10
384.383987901289
 20
1006.0452999585
 30
0.0
 40
12.449128532617
100
AcDbArc
 50
252.4821530361034
 51
287.5178469653716
  0
ARC
  5
948B
330
A
100
AcDbEntity
  8
LEVEL001
  6
HIDDEN
 62
     2
370
    15
100
AcDbCircle
 10
390.0075995268189
 20
996.9339776697998
 30
0.0
 40
3.337806243639
100
AcDbArc
 50
235.7945420578919
 51
304.2054579353367
  0
LINE
  5
948C
330
A
100
AcDbEntity
  8
LEVEL001
  6
HIDDEN
 62
     2
370
    15
100
AcDbLine
 10
390.0075995265788
 20
993.5961714260001
 30
0.0
 11
378.7603762763692
 21
993.5961714260001
 31
0.0
  0
LINE
  5
948D
330
A
100
AcDbEntity
  8
LEVEL001
  6
HIDDEN
 62
     2
370
    15
100
AcDbLine
 10
388.131211151669
 20
994.1735216952002
 30
0.0
 11
388.131211151669
 21
999.5961714260001
 31
0.0
  0
LINE
  5
948E
330
A
100
AcDbEntity
  8
LEVEL001
  6
HIDDEN
 62
     2
370
    15
100
AcDbLine
 10
380.636764651259
 20
994.1735216952002
 30
0.0
 11
380.636764651259
 21
999.5961714260001
 31
0.0
  0
LINE
  5
948F
330
A
100
AcDbEntity
  8
LEVEL001
  6
HIDDEN
 62
     2
370
    15
100
AcDbLine
 10
393.383987901489
 20
1000.796171426
 30
0.0
 11
393.383987901489
 21
999.5961714260001
 31
0.0
  0
LINE
  5
9490
330
A
100
AcDbEntity
  8
LEVEL001
  6
HIDDEN
 62
     2
370
    15
100
AcDbLine
 10
393.383987901489
 20
999.5961714260001
 30
0.0
 11
391.883987901489
 21
999.5961714260001
 31
0.0
  0
LINE
  5
9491
330
A
100
AcDbEntity
  8
LEVEL001
  6
HIDDEN
 62
     2
370
    15
100
AcDbLine
 10
376.883987901489
 20
999.5961714260001
 30
0.0
 11
375.383987901489
 21
999.5961714260001
 31
0.0
  0
LINE
  5
9492
330
A
100
AcDbEntity
  8
LEVEL001
  6
HIDDEN
 62
     2
370
    15
100
AcDbLine
 10
380.3839889014889
 20
1000.796171426
 30
0.0
 11
380.3839889014889
 21
1009.596171426
 31
0.0
  0
LINE
  5
9493
330
A
100
AcDbEntity
  8
LEVEL001
  6
HIDDEN
 62
     2
370
    15
100
AcDbLine
 10
388.3839869014892
 20
1000.796171426
 30
0.0
 11
388.3839869014892
 21
1009.596171426
 31
0.0
  0
LINE
  5
9494
330
A
100
AcDbEntity
  8
LEVEL001
  6
HIDDEN
 62
     2
370
    15
100
AcDbLine
 10
389.383987901489
 20
819.1160641401001
 30
0.0
 11
389.383987901489
 21
810.4160641401003
 31
0.0
  0
LINE
  5
9495
330
A
100
AcDbEntity
  8
LEVEL001
  6
HIDDEN
 62
     2
370
    15
100
AcDbLine
 10
379.383987901489
 20
819.1160641401001
 30
0.0
 11
379.383987901489
 21
810.4160641401003
 31
0.0
  0
ARC
  5
9496
330
A
100
AcDbEntity
  8
LEVEL001
  6
HIDDEN
 62
    15
370
    15
100
AcDbCircle
 10
396.3839879051493
 20
810.8160641400999
 30
0.0
 40
0.5
100
AcDbArc
 50
269.9999995799396
 51
0.0
  0
ARC
  5
9497
330
A
100
AcDbEntity
  8
LEVEL001
  6
HIDDEN
 62
    15
370
    15
100
AcDbCircle
 10
397.9839879014989
 20
813.2160641400997
 30
0.0
 40
1.1
100
AcDbArc
 50
0.0
 51
180.0
  0
LINE
  5
9498
330
A
100
AcDbEntity
  8
LEVEL001
  6
HIDDEN
 62
    15
370
    15
100
AcDbLine
 10
396.8839879014891
 20
813.2160641400997
 30
0.0
 11
396.8839879014891
 21
810.8160641400999
 31
0.0
  0
LINE
  5
9499
330
A
100
AcDbEntity
  8
LEVEL001
  6
HIDDEN
 62
    15
370
    15
100
AcDbLine
 10
400.7839879014991
 20
809.3160641401
 30
0.0
 11
399.383987901499
 21
809.3160641401
 31
0.0
  0
ARC
  5
949A
330
A
100
AcDbEntity
  8
LEVEL001
  6
HIDDEN
 62
    15
370
    15
100
AcDbCircle
 10
399.383987901499
 20
809.6160641409996
 30
0.0
 40
0.3
100
AcDbArc
 50
180.0000001665703
 51
269.9999999998697
  0
ARC
  5
949B
330
A
100
AcDbEntity
  8
LEVEL001
  6
HIDDEN
 62
    15
370
    15
100
AcDbCircle
 10
400.7839879018993
 20
809.6160641401002
 30
0.0
 40
0.3
100
AcDbArc
 50
269.999999913471
 51
0.0
  0
LINE
  5
949C
330
A
100
AcDbEntity
  8
LEVEL001
  6
HIDDEN
 62
    15
370
    15
100
AcDbLine
 10
399.0839879014993
 20
809.6160641401002
 30
0.0
 11
399.0839879014993
 21
813.2160641400997
 31
0.0
  0
LINE
  5
949D
330
A
100
AcDbEntity
  8
LEVEL001
  6
HIDDEN
 62
    15
370
    15
100
AcDbLine
 10
401.0839879014993
 20
810.3160641401
 30
0.0
 11
401.0839879014993
 21
809.6160641401002
 31
0.0
  0
LINE
  5
949E
330
A
100
AcDbEntity
  8
LEVEL001
  6
HIDDEN
 62
    15
370
    15
100
AcDbLine
 10
401.0839879014993
 20
810.3160641401
 30
0.0
 11
409.1839879014992
 21
810.3160641401
 31
0.0
  0
LINE
  5
949F
330
A
100
AcDbEntity
  8
LEVEL001
  6
HIDDEN
 62
     2
100
AcDbLine
 10
409.1839879014992
 20
810.3160641401
 30
0.0
 11
409.1839879014992
 21
817.0160641400999
 31
0.0
  0
LINE
  5
94A0
330
A
100
AcDbEntity
  8
LEVEL001
  6
HIDDEN
 62
    15
370
    15
100
AcDbLine
 10
383.883987901489
 20
810.3160641401
 30
0.0
 11
384.3839879014891
 21
810.8160641400999
 31
0.0
  0
LINE
  5
94A1
330
A
100
AcDbEntity
  8
LEVEL001
  6
HIDDEN
 62
    15
370
    15
100
AcDbLine
 10
370.1717581867693
 20
810.3160641401
 30
0.0
 11
383.883987901489
 21
810.3160641401
 31
0.0
  0
LINE
  5
94A2
330
A
100
AcDbEntity
  8
LEVEL001
  6
HIDDEN
 62
    15
370
    15
100
AcDbLine
 10
384.3839879014891
 20
810.8160641400999
 30
0.0
 11
384.883987901489
 21
810.3160641401
 31
0.0
  0
LINE
  5
94A3
330
A
100
AcDbEntity
  8
LEVEL001
  6
HIDDEN
 62
    15
370
    15
100
AcDbLine
 10
384.883987901489
 20
810.3160641401
 30
0.0
 11
396.383987901489
 21
810.3160641401
 31
0.0
  0
LINE
  5
94A4
330
A
100
AcDbEntity
  8
LEVEL001
  6
HIDDEN
 62
    15
370
    15
100
AcDbLine
 10
361.8839879014891
 20
790.6160641401002
 30
0.0
 11
361.8839879014891
 21
790.0160641400998
 31
0.0
  0
ARC
  5
94A5
330
A
100
AcDbEntity
  8
LEVEL001
  6
HIDDEN
 62
    15
370
    15
100
AcDbCircle
 10
376.483987901569
 20
802.4600499555999
 30
0.0
 40
18.8
100
AcDbArc
 50
179.8476174277017
 51
219.05006687088
  0
LINE
  5
94A6
330
A
100
AcDbEntity
  8
LEVEL001
  6
HIDDEN
 62
    15
370
    15
100
AcDbLine
 10
370.6839879014892
 20
794.4138852140004
 30
0.0
 11
370.6839879014892
 21
790.0160641400998
 31
0.0
  0
ARC
  5
94A7
330
A
100
AcDbEntity
  8
LEVEL001
  6
HIDDEN
 62
    15
370
    15
100
AcDbCircle
 10
376.483987901609
 20
802.5600499558004
 30
0.0
 40
10.0
100
AcDbArc
 50
129.1404088983087
 51
234.5494573606003
  0
LWPOLYLINE
  5
94A8
330
A
100
AcDbEntity
  8
LEVEL001
  6
HIDDEN
 62
    15
370
    15
100
AcDbPolyline
 90
        4
 70
     0
 43
0.0
 10
359.6839879014892
 20
817.0160641400999
 10
359.6839879014892
 20
815.1160641401002
 10
363.6839879014892
 20
815.1160641401002
 10
363.6839879014892
 20
817.0160641400999
  0
LINE
  5
94A9
330
A
100
AcDbEntity
  8
LEVEL001
  6
HIDDEN
 62
     2
100
AcDbLine
 10
357.6839879014892
 20
802.6112244859996
 30
0.0
 11
357.6839879014892
 21
814.1160641401002
 31
0.0
  0
LINE
  5
94AA
330
A
100
AcDbEntity
  8
LEVEL001
  6
HIDDEN
 62
     2
100
AcDbLine
 10
357.6839879014892
 20
814.1160641401002
 30
0.0
 11
357.6839879014892
 21
802.5600499557004
 31
0.0
  0
LINE
  5
94AB
330
A
100
AcDbEntity
  8
LEVEL001
  6
HIDDEN
 62
     2
370
    15
100
AcDbLine
 10
373.2839879014891
 20
765.4260701074999
 30
0.0
 11
372.5339879014891
 21
766.1760701074999
 31
0.0
  0
LINE
  5
94AC
330
A
100
AcDbEntity
  8
LEVEL001
  6
HIDDEN
 62
     2
370
    15
100
AcDbLine
 10
373.2839879014891
 20
762.9260701075
 30
0.0
 11
373.2839879014891
 21
765.4260701074999
 31
0.0
  0
LINE
  5
94AD
330
A
100
AcDbEntity
  8
LEVEL001
  6
HIDDEN
 62
     2
370
    15
100
AcDbLine
 10
372.5339879014891
 20
762.1760701074999
 30
0.0
 11
373.2839879014891
 21
762.9260701075
 31
0.0
  0
LINE
  5
94AE
330
A
100
AcDbEntity
  8
LEVEL001
  6
HIDDEN
 62
     2
370
    15
100
AcDbLine
 10
373.2839879014891
 20
762.9260701075
 30
0.0
 11
355.2839879014891
 21
762.9260701075
 31
0.0
  0
ARC
  5
94AF
330
A
100
AcDbEntity
  8
LEVEL001
  6
HIDDEN
 62
     2
370
    15
100
AcDbCircle
 10
354.7839879079092
 20
767.6760701074999
 30
0.0
 40
0.5
100
AcDbArc
 50
0.0
 51
90.00000073577009
  0
ARC
  5
94B0
330
A
100
AcDbEntity
  8
LEVEL001
  6
HIDDEN
 62
     2
370
    15
100
AcDbCircle
 10
354.7839879014891
 20
760.6760701097
 30
0.0
 40
0.5
100
AcDbArc
 50
270.0
 51
0.0
  0
LINE
  5
94B1
330
A
100
AcDbEntity
  8
LEVEL001
  6
HIDDEN
 62
     2
370
    15
100
AcDbLine
 10
354.7839879014891
 20
760.1760701075
 30
0.0
 11
354.0487357109591
 21
760.1760701075
 31
0.0
  0
ARC
  5
94B2
330
A
100
AcDbEntity
  8
LEVEL001
  6
HIDDEN
 62
     2
370
    15
100
AcDbCircle
 10
359.5506545681692
 20
764.1760701075
 30
0.0
 40
7.2666666666667
100
AcDbArc
 50
151.3979413175669
 51
208.6020586828989
  0
ARC
  5
94B3
330
A
100
AcDbEntity
  8
LEVEL001
  6
HIDDEN
 62
     2
370
    15
100
AcDbCircle
 10
354.0487357111092
 20
761.1760701071998
 30
0.0
 40
1.0
100
AcDbArc
 50
208.6020586653049
 51
269.9999999916102
  0
ARC
  5
94B4
330
A
100
AcDbEntity
  8
LEVEL001
  6
HIDDEN
 62
     2
370
    15
100
AcDbCircle
 10
354.0487357100492
 20
767.1760701058001
 30
0.0
 40
1.0
100
AcDbArc
 50
89.99999994744685
 51
151.3979412074073
  0
LINE
  5
94B5
330
A
100
AcDbEntity
  8
LEVEL001
  6
HIDDEN
 62
     2
370
    15
100
AcDbLine
 10
354.7839879014891
 20
768.1760701075
 30
0.0
 11
354.0487357109591
 21
768.1760701075
 31
0.0
  0
LINE
  5
94B6
330
A
100
AcDbEntity
  8
LEVEL001
  6
HIDDEN
 62
     2
370
    15
100
AcDbLine
 10
355.2839879014891
 20
762.1760701074999
 30
0.0
 11
372.5339879014891
 21
762.1760701074999
 31
0.0
  0
LINE
  5
94B7
330
A
100
AcDbEntity
  8
LEVEL001
  6
HIDDEN
 62
     2
370
    15
100
AcDbLine
 10
372.5339879014891
 20
766.1760701074999
 30
0.0
 11
355.2839879014891
 21
766.1760701074999
 31
0.0
  0
LINE
  5
94B8
330
A
100
AcDbEntity
  8
LEVEL001
  6
HIDDEN
 62
     2
370
    15
100
AcDbLine
 10
355.2839879014891
 20
765.4260701074999
 30
0.0
 11
373.2839879014891
 21
765.4260701074999
 31
0.0
  0
LINE
  5
94B9
330
A
100
AcDbEntity
  8
LEVEL001
  6
HIDDEN
 62
     2
100
AcDbLine
 10
388.9367354014889
 20
810.3160641401
 30
0.0
 11
379.8312389014891
 21
810.3160641401
 31
0.0
  0
LINE
  5
94BA
330
A
100
AcDbEntity
  8
LEVEL001
  6
HIDDEN
 62
     2
370
    15
100
AcDbLine
 10
375.383987901489
 20
809.1160641401001
 30
0.0
 11
375.383987901489
 21
810.3160641401
 31
0.0
  0
LINE
  5
94BB
330
A
100
AcDbEntity
  8
LEVEL001
  6
HIDDEN
 62
     2
370
    15
100
AcDbLine
 10
391.883987901489
 20
803.6934144094002
 30
0.0
 11
391.883987901489
 21
809.1160641401001
 31
0.0
  0
LINE
  5
94BC
330
A
100
AcDbEntity
  8
LEVEL001
  6
HIDDEN
 62
     2
370
    15
100
AcDbLine
 10
391.883987901489
 20
809.1160641401001
 30
0.0
 11
376.883987901489
 21
809.1160641401001
 31
0.0
  0
LINE
  5
94BD
330
A
100
AcDbEntity
  8
LEVEL001
  6
HIDDEN
 62
     2
370
    15
100
AcDbLine
 10
376.883987901489
 20
809.1160641401001
 30
0.0
 11
376.883987901489
 21
803.6934144093002
 31
0.0
  0
ARC
  5
94BE
330
A
100
AcDbEntity
  8
LEVEL001
  6
HIDDEN
 62
     2
370
    15
100
AcDbCircle
 10
378.760376275709
 20
806.4538703833996
 30
0.0
 40
3.3378062436684
100
AcDbArc
 50
235.794542065863
 51
304.2054579530421
  0
ARC
  5
94BF
330
A
100
AcDbEntity
  8
LEVEL001
  6
HIDDEN
 62
     2
370
    15
100
AcDbCircle
 10
384.383987901289
 20
815.5651926726996
 30
0.0
 40
12.449128532617
100
AcDbArc
 50
252.4821530361034
 51
287.5178469653716
  0
ARC
  5
94C0
330
A
100
AcDbEntity
  8
LEVEL001
  6
HIDDEN
 62
     2
370
    15
100
AcDbCircle
 10
390.0075995268189
 20
806.4538703838998
 30
0.0
 40
3.337806243639
100
AcDbArc
 50
235.7945420578919
 51
304.2054579353367
  0
LINE
  5
94C1
330
A
100
AcDbEntity
  8
LEVEL001
  6
HIDDEN
 62
     2
370
    15
100
AcDbLine
 10
390.0075995265788
 20
803.1160641401001
 30
0.0
 11
378.7603762763692
 21
803.1160641401001
 31
0.0
  0
LINE
  5
94C2
330
A
100
AcDbEntity
  8
LEVEL001
  6
HIDDEN
 62
     2
370
    15
100
AcDbLine
 10
388.131211151669
 20
803.6934144094002
 30
0.0
 11
388.131211151669
 21
809.1160641401001
 31
0.0
  0
LINE
  5
94C3
330
A
100
AcDbEntity
  8
LEVEL001
  6
HIDDEN
 62
     2
370
    15
100
AcDbLine
 10
380.636764651259
 20
803.6934144094002
 30
0.0
 11
380.636764651259
 21
809.1160641401001
 31
0.0
  0
LINE
  5
94C4
330
A
100
AcDbEntity
  8
LEVEL001
  6
HIDDEN
 62
     2
370
    15
100
AcDbLine
 10
393.383987901489
 20
810.3160641401
 30
0.0
 11
393.383987901489
 21
809.1160641401001
 31
0.0
  0
LINE
  5
94C5
330
A
100
AcDbEntity
  8
LEVEL001
  6
HIDDEN
 62
     2
370
    15
100
AcDbLine
 10
393.383987901489
 20
809.1160641401001
 30
0.0
 11
391.883987901489
 21
809.1160641401001
 31
0.0
  0
LINE
  5
94C6
330
A
100
AcDbEntity
  8
LEVEL001
  6
HIDDEN
 62
     2
370
    15
100
AcDbLine
 10
376.883987901489
 20
809.1160641401001
 30
0.0
 11
375.383987901489
 21
809.1160641401001
 31
0.0
  0
LINE
  5
94C7
330
A
100
AcDbEntity
  8
LEVEL001
  6
HIDDEN
 62
     2
370
    15
100
AcDbLine
 10
380.3839889014889
 20
810.3160641401
 30
0.0
 11
380.3839889014889
 21
819.1160641401001
 31
0.0
  0
LINE
  5
94C8
330
A
100
AcDbEntity
  8
LEVEL001
  6
HIDDEN
 62
     2
370
    15
100
AcDbLine
 10
388.3839869014892
 20
810.3160641401
 30
0.0
 11
388.3839869014892
 21
819.1160641401001
 31
0.0
  0
LINE
  5
94C9
330
A
100
AcDbEntity
  8
LEVEL001
  6
DASHDOT
 62
     6
370
    15
100
AcDbLine
 10
384.3839879014891
 20
1011.7018344924
 30
0.0
 11
384.3839879014891
 21
983.3240198530583
 31
0.0
  0
LINE
  5
94CA
330
A
100
AcDbEntity
  8
LEVEL001
  6
DASHDOT
 62
     6
370
    15
100
AcDbLine
 10
366.2839879014891
 20
928.3533687097998
 30
0.0
 11
366.2839879014891
 21
987.4858578501997
 31
0.0
  0
LINE
  5
94CB
330
A
100
AcDbEntity
  8
LEVEL001
  6
DASHDOT
 62
     6
370
    15
100
AcDbLine
 10
391.2138164863591
 20
954.5961714260002
 30
0.0
 11
338.3541593166092
 21
954.5961714260002
 31
0.0
  0
LINE
  5
94CC
330
A
100
AcDbEntity
  8
LEVEL001
  6
DASHDOT
 62
     6
370
    15
100
AcDbLine
 10
384.3839879014891
 20
821.2217272066
 30
0.0
 11
384.3839879014891
 21
793.3064825741639
 31
0.0
  0
LINE
  5
94CD
330
A
100
AcDbEntity
  8
LEVEL001
  6
DASHDOT
 62
     6
370
    15
100
AcDbLine
 10
366.2839879014891
 20
737.8732614239997
 30
0.0
 11
366.2839879014891
 21
797.0057505643999
 31
0.0
  0
LINE
  5
94CE
330
A
100
AcDbEntity
  8
LEVEL001
  6
DASHDOT
 62
     6
370
    15
100
AcDbLine
 10
391.2138164863591
 20
764.1160641402002
 30
0.0
 11
338.3541593166092
 21
764.1160641402002
 31
0.0
  0
LINE
  5
94CF
330
A
100
AcDbEntity
  8
LEVEL001
  6
Continuous
 62
     7
100
AcDbLine
 10
370.7839879014891
 20
946.5961714260002
 30
0.0
 11
370.7839879014891
 21
963.0961714260001
 31
0.0
  0
LINE
  5
94D0
330
A
100
AcDbEntity
  8
LEVEL001
  6
Continuous
 62
     7
100
AcDbLine
 10
361.7839879014891
 20
946.5961714260002
 30
0.0
 11
361.7839879014891
 21
963.0961714260001
 31
0.0
  0
ARC
  5
94D1
330
A
100
AcDbEntity
  8
LEVEL001
  6
Continuous
 62
     7
100
AcDbCircle
 10
362.2839879017893
 20
969.5961714260002
 30
0.0
 40
1.5
100
AcDbArc
 50
0.0
 51
90.00000001146425
  0
LINE
  5
94D2
330
A
100
AcDbEntity
  8
LEVEL001
  6
Continuous
 62
     7
100
AcDbLine
 10
362.2839879014891
 20
971.0961714260001
 30
0.0
 11
362.1839879014892
 21
971.0961714260001
 31
0.0
  0
ARC
  5
94D3
330
A
100
AcDbEntity
  8
LEVEL001
  6
Continuous
 62
     7
100
AcDbCircle
 10
362.1839879014892
 20
971.3961714276001
 30
0.0
 40
0.3
100
AcDbArc
 50
180.0000003084924
 51
270.0000000000521
  0
LINE
  5
94D4
330
A
100
AcDbEntity
  8
LEVEL001
  6
Continuous
 62
     7
100
AcDbLine
 10
363.7839879014891
 20
964.5961714260002
 30
0.0
 11
363.7839879014891
 21
969.5961714260002
 31
0.0
  0
ARC
  5
94D5
330
A
100
AcDbEntity
  8
LEVEL001
  6
Continuous
 62
     7
100
AcDbCircle
 10
362.2839879014891
 20
964.5961714268997
 30
0.0
 40
1.5
100
AcDbArc
 50
270.0
 51
0.0
  0
LINE
  5
94D6
330
A
100
AcDbEntity
  8
LEVEL001
  6
Continuous
 62
     7
100
AcDbLine
 10
361.8839879014891
 20
963.0961714260001
 30
0.0
 11
362.2839879014891
 21
963.0961714260001
 31
0.0
  0
LINE
  5
94D7
330
A
100
AcDbEntity
  8
LEVEL001
  6
Continuous
 62
     7
100
AcDbLine
 10
361.8839879014891
 20
971.3961714260003
 30
0.0
 11
361.8839879014891
 21
980.6961714259996
 31
0.0
  0
ARC
  5
94D8
330
A
100
AcDbEntity
  8
LEVEL001
  6
Continuous
 62
     7
100
AcDbCircle
 10
370.2839879014891
 20
964.5961714256999
 30
0.0
 40
1.5
100
AcDbArc
 50
179.9999999886139
 51
270.0
  0
LINE
  5
94D9
330
A
100
AcDbEntity
  8
LEVEL001
  6
Continuous
 62
     7
100
AcDbLine
 10
368.7839879014891
 20
964.5961714260002
 30
0.0
 11
368.7839879014891
 21
969.5961714260002
 31
0.0
  0
ARC
  5
94DA
330
A
100
AcDbEntity
  8
LEVEL001
  6
Continuous
 62
     7
100
AcDbCircle
 10
370.2839879024191
 20
969.5961714260002
 30
0.0
 40
1.5
100
AcDbArc
 50
90.0000000357997
 51
180.0
  0
ARC
  5
94DB
330
A
100
AcDbEntity
  8
LEVEL001
  6
Continuous
 62
     7
100
AcDbCircle
 10
370.3839878957092
 20
971.3961714260003
 30
0.0
 40
0.3
100
AcDbArc
 50
270.0000011023393
 51
0.0
  0
LINE
  5
94DC
330
A
100
AcDbEntity
  8
LEVEL001
  6
Continuous
 62
     7
100
AcDbLine
 10
370.2839879014891
 20
971.0961714260001
 30
0.0
 11
370.383987901489
 21
971.0961714260001
 31
0.0
  0
LINE
  5
94DD
330
A
100
AcDbEntity
  8
LEVEL001
  6
Continuous
 62
     7
100
AcDbLine
 10
370.6839879014892
 20
963.0961714260001
 30
0.0
 11
370.2839879014891
 21
963.0961714260001
 31
0.0
  0
LINE
  5
94DE
330
A
100
AcDbEntity
  8
LEVEL001
  6
Continuous
 62
     7
100
AcDbLine
 10
370.6839879014892
 20
971.3961714260003
 30
0.0
 11
370.6839879014892
 21
980.4961714259999
 31
0.0
  0
LINE
  5
94DF
330
A
100
AcDbEntity
  8
LEVEL001
  6
Continuous
 62
     7
100
AcDbLine
 10
352.6839879014892
 20
1009.596171426
 30
0.0
 11
359.6839879014892
 21
1009.596171426
 31
0.0
  0
LINE
  5
94E0
330
A
100
AcDbEntity
  8
LEVEL001
  6
Continuous
 62
     7
100
AcDbLine
 10
352.6839879014892
 20
1009.596171426
 30
0.0
 11
352.6839879014892
 21
1008.971171426
 31
0.0
  0
LINE
  5
94E1
330
A
100
AcDbEntity
  8
LEVEL001
  6
Continuous
 62
     7
100
AcDbLine
 10
359.6839879014892
 20
1009.596171426
 30
0.0
 11
357.6839879014892
 21
1009.596171426
 31
0.0
  0
LINE
  5
94E2
330
A
100
AcDbEntity
  8
LEVEL001
  6
Continuous
 62
     7
100
AcDbLine
 10
353.1839879014892
 20
1007.971171426
 30
0.0
 11
357.6839879014892
 21
1004.596171426
 31
0.0
  0
ARC
  5
94E3
330
A
100
AcDbEntity
  8
LEVEL001
  6
Continuous
 62
     7
100
AcDbCircle
 10
353.9339879014892
 20
1008.971171428
 30
0.0
 40
1.25
100
AcDbArc
 50
180.0000000914534
 51
233.1301024090332
  0
LINE
  5
94E4
330
A
100
AcDbEntity
  8
LEVEL001
  6
Continuous
 62
     7
100
AcDbLine
 10
409.1839879014992
 20
1009.596171426
 30
0.0
 11
363.6839879014892
 21
1009.596171426
 31
0.0
  0
ARC
  5
94E5
330
A
100
AcDbEntity
  8
LEVEL001
  6
Continuous
 62
     7
100
AcDbCircle
 10
376.483987901489
 20
993.0401571943002
 30
0.0
 40
18.8
100
AcDbArc
 50
179.9999998559413
 51
180.1523824279004
  0
LINE
  5
94E6
330
A
100
AcDbEntity
  8
LEVEL001
  6
Continuous
 62
     7
100
AcDbLine
 10
409.1839879014992
 20
1007.496171426
 30
0.0
 11
409.1839879014992
 21
1009.596171426
 31
0.0
  0
LINE
  5
94E7
330
A
100
AcDbEntity
  8
LEVEL001
  6
Continuous
 62
     7
100
AcDbLine
 10
359.6839879014892
 20
1009.596171426
 30
0.0
 11
359.6839879014892
 21
1007.496171426
 31
0.0
  0
LINE
  5
94E8
330
A
100
AcDbEntity
  8
LEVEL001
  6
Continuous
 62
     7
100
AcDbLine
 10
363.6839879014892
 20
1007.496171426
 30
0.0
 11
363.6839879014892
 21
1009.596171426
 31
0.0
  0
LINE
  5
94E9
330
A
100
AcDbEntity
  8
LEVEL001
  6
Continuous
 62
     7
100
AcDbLine
 10
370.7839879014891
 20
946.5961714260002
 30
0.0
 11
361.7839879014891
 21
946.5961714260002
 31
0.0
  0
LINE
  5
94EA
330
A
100
AcDbEntity
  8
LEVEL001
  6
Continuous
 62
     7
100
AcDbLine
 10
370.7839879014891
 20
756.1160641401002
 30
0.0
 11
370.7839879014891
 21
772.6160641401002
 31
0.0
  0
LINE
  5
94EB
330
A
100
AcDbEntity
  8
LEVEL001
  6
Continuous
 62
     7
100
AcDbLine
 10
361.7839879014891
 20
756.1160641401002
 30
0.0
 11
361.7839879014891
 21
772.6160641401002
 31
0.0
  0
ARC
  5
94EC
330
A
100
AcDbEntity
  8
LEVEL001
  6
Continuous
 62
     7
100
AcDbCircle
 10
362.2839879035291
 20
779.1160641401002
 30
0.0
 40
1.5
100
AcDbArc
 50
0.0
 51
90.00000007793081
  0
LINE
  5
94ED
330
A
100
AcDbEntity
  8
LEVEL001
  6
Continuous
 62
     7
100
AcDbLine
 10
362.2839879014891
 20
780.6160641401001
 30
0.0
 11
362.1839879014892
 21
780.6160641401001
 31
0.0
  0
ARC
  5
94EE
330
A
100
AcDbEntity
  8
LEVEL001
  6
Continuous
 62
     7
100
AcDbCircle
 10
362.1839879014892
 20
780.9160641482003
 30
0.0
 40
0.3
100
AcDbArc
 50
180.0000015311803
 51
270.0000000000521
  0
LINE
  5
94EF
330
A
100
AcDbEntity
  8
LEVEL001
  6
Continuous
 62
     7
100
AcDbLine
 10
363.7839879014891
 20
774.1160641401002
 30
0.0
 11
363.7839879014891
 21
779.1160641401002
 31
0.0
  0
ARC
  5
94F0
330
A
100
AcDbEntity
  8
LEVEL001
  6
Continuous
 62
     7
100
AcDbCircle
 10
362.2839879014891
 20
774.1160641418
 30
0.0
 40
1.5
100
AcDbArc
 50
270.0
 51
0.0
  0
LINE
  5
94F1
330
A
100
AcDbEntity
  8
LEVEL001
  6
Continuous
 62
     7
100
AcDbLine
 10
361.8839879014891
 20
772.6160641401002
 30
0.0
 11
362.2839879014891
 21
772.6160641401002
 31
0.0
  0
LINE
  5
94F2
330
A
100
AcDbEntity
  8
LEVEL001
  6
Continuous
 62
     7
100
AcDbLine
 10
361.8839879014891
 20
780.9160641401003
 30
0.0
 11
361.8839879014891
 21
790.2160641400996
 31
0.0
  0
ARC
  5
94F3
330
A
100
AcDbEntity
  8
LEVEL001
  6
Continuous
 62
     7
100
AcDbCircle
 10
370.2839879014891
 20
774.1160641406004
 30
0.0
 40
1.5
100
AcDbArc
 50
180.0000000169618
 51
270.0
  0
LINE
  5
94F4
330
A
100
AcDbEntity
  8
LEVEL001
  6
Continuous
 62
     7
100
AcDbLine
 10
368.7839879014891
 20
774.1160641401002
 30
0.0
 11
368.7839879014891
 21
779.1160641401002
 31
0.0
  0
ARC
  5
94F5
330
A
100
AcDbEntity
  8
LEVEL001
  6
Continuous
 62
     7
100
AcDbCircle
 10
370.2839879006792
 20
779.1160641401002
 30
0.0
 40
1.5
100
AcDbArc
 50
89.99999996928103
 51
180.0
  0
ARC
  5
94F6
330
A
100
AcDbEntity
  8
LEVEL001
  6
Continuous
 62
     7
100
AcDbCircle
 10
370.3839879021189
 20
780.9160641401003
 30
0.0
 40
0.3
100
AcDbArc
 50
269.9999998795212
 51
0.0
  0
LINE
  5
94F7
330
A
100
AcDbEntity
  8
LEVEL001
  6
Continuous
 62
     7
100
AcDbLine
 10
370.2839879014891
 20
780.6160641401001
 30
0.0
 11
370.383987901489
 21
780.6160641401001
 31
0.0
  0
LINE
  5
94F8
330
A
100
AcDbEntity
  8
LEVEL001
  6
Continuous
 62
     7
100
AcDbLine
 10
370.6839879014892
 20
772.6160641401002
 30
0.0
 11
370.2839879014891
 21
772.6160641401002
 31
0.0
  0
LINE
  5
94F9
330
A
100
AcDbEntity
  8
LEVEL001
  6
Continuous
 62
     7
100
AcDbLine
 10
370.6839879014892
 20
780.9160641401003
 30
0.0
 11
370.6839879014892
 21
790.0160641400998
 31
0.0
  0
LINE
  5
94FA
330
A
100
AcDbEntity
  8
LEVEL001
  6
Continuous
 62
     7
100
AcDbLine
 10
352.6839879014892
 20
819.1160641401001
 30
0.0
 11
359.6839879014892
 21
819.1160641401001
 31
0.0
  0
LINE
  5
94FB
330
A
100
AcDbEntity
  8
LEVEL001
  6
Continuous
 62
     7
100
AcDbLine
 10
352.6839879014892
 20
819.1160641401001
 30
0.0
 11
352.6839879014892
 21
818.4910641401001
 31
0.0
  0
LINE
  5
94FC
330
A
100
AcDbEntity
  8
LEVEL001
  6
Continuous
 62
     7
100
AcDbLine
 10
359.6839879014892
 20
819.1160641401001
 30
0.0
 11
357.6839879014892
 21
819.1160641401001
 31
0.0
  0
LINE
  5
94FD
330
A
100
AcDbEntity
  8
LEVEL001
  6
Continuous
 62
     7
100
AcDbLine
 10
353.1839879014892
 20
817.4910641401002
 30
0.0
 11
357.6839879014892
 21
814.1160641401002
 31
0.0
  0
ARC
  5
94FE
330
A
100
AcDbEntity
  8
LEVEL001
  6
Continuous
 62
     7
100
AcDbCircle
 10
353.9339879014892
 20
818.4910641390997
 30
0.0
 40
1.25
100
AcDbArc
 50
179.9999999547423
 51
233.1301023269961
  0
LINE
  5
94FF
330
A
100
AcDbEntity
  8
LEVEL001
  6
Continuous
 62
     7
100
AcDbLine
 10
409.1839879014992
 20
819.1160641401001
 30
0.0
 11
363.6839879014892
 21
819.1160641401001
 31
0.0
  0
ARC
  5
9500
330
A
100
AcDbEntity
  8
LEVEL001
  6
Continuous
 62
     7
100
AcDbCircle
 10
376.483987901489
 20
802.5600499596002
 30
0.0
 40
18.8
100
AcDbArc
 50
180.0000000118811
 51
180.1523825838408
  0
LINE
  5
9501
330
A
100
AcDbEntity
  8
LEVEL001
  6
Continuous
 62
     7
100
AcDbLine
 10
409.1839879014992
 20
817.0160641400999
 30
0.0
 11
409.1839879014992
 21
819.1160641401001
 31
0.0
  0
LINE
  5
9502
330
A
100
AcDbEntity
  8
LEVEL001
  6
Continuous
 62
     7
100
AcDbLine
 10
359.6839879014892
 20
819.1160641401001
 30
0.0
 11
359.6839879014892
 21
817.0160641400999
 31
0.0
  0
LINE
  5
9503
330
A
100
AcDbEntity
  8
LEVEL001
  6
Continuous
 62
     7
100
AcDbLine
 10
363.6839879014892
 20
817.0160641400999
 30
0.0
 11
363.6839879014892
 21
819.1160641401001
 31
0.0
  0
LINE
  5
9504
330
A
100
AcDbEntity
  8
LEVEL001
  6
Continuous
 62
     7
100
AcDbLine
 10
370.7839879014891
 20
756.1160641401002
 30
0.0
 11
361.7839879014891
 21
756.1160641401002
 31
0.0
  0
LWPOLYLINE
  5
9505
330
A
100
AcDbEntity
  8
LEVEL001
  6
Continuous
 62
     8
100
AcDbPolyline
 90
        5
 70
     0
 43
0.0
 10
96.06350873196925
 20
986.9006241386996
 10
96.06350873196925
 20
960.1668535031004
 10
221.1393642054391
 20
960.1668535031004
 10
221.1393642054391
 20
986.9006241386996
 10
96.06350873196925
 20
986.9006241386996
  0
LWPOLYLINE
  5
9506
330
A
100
AcDbEntity
  8
LEVEL001
  6
Continuous
 62
     8
100
AcDbPolyline
 90
        5
 70
     0
 43
0.0
 10
96.22263831908913
 20
787.7629533150002
 10
96.22263831908913
 20
774.3960679971997
 10
221.2984937925489
 20
774.3960679971997
 10
221.2984937925489
 20
787.7629533150002
 10
96.22263831908913
 20
787.7629533150002
  0
TEXT
  5
9507
330
A
100
AcDbEntity
  8
LEVEL001
 62
     8
100
AcDbText
 10
104.6014364686989
 20
973.5337388209
 30
0.0
 40
9.0
  1
　　笠木(%%c４０用)
 41
0.8
100
AcDbText
  0
TEXT
  5
9508
330
A
100
AcDbEntity
  8
LEVEL001
 62
     8
100
AcDbText
 10
104.6014364686989
 20
961.5337388208999
 30
0.0
 40
9.0
  1
ＧＳＫ１Ｆ(スリムタイプ)
 41
0.8
100
AcDbText
  0
TEXT
  5
9509
330
A
100
AcDbEntity
  8
LEVEL001
 62
     8
100
AcDbText
 10
109.2605660558192
 20
776.5795106560999
 30
0.0
 40
9.0
  1
笠木(%%c４０用)ＧＳＫ１
 41
0.8
 11
109.2605660558192
 21
781.0795106560999
 31
0.0
100
AcDbText
 73
     2
  0
TEXT
  5
95C5
330
A
100
AcDbEntity
  8
LEVEL001
 62
     8
100
AcDbText
 10
1276.7858875373
 20
308.8270360248998
 30
0.0
 40
12.0
  1
※カラーバリエーションはカタログ参照願います
 41
0.8
100
AcDbText
  0
TEXT
  5
95C6
330
A
100
AcDbEntity
  8
LEVEL001
 62
     8
100
AcDbText
 10
1276.7858875373
 20
292.8270360248998
 30
0.0
 40
12.0
  1
※本製品は予告無しに変更する事があります。
 41
0.8
100
AcDbText
  0
LINE
  5
95C7
330
A
100
AcDbEntity
  8
LEVEL001
  6
Continuous
 62
     3
100
AcDbLine
 10
1268.0000000001
 20
333.3836096905998
 30
0.0
 11
1618.0000000001
 21
333.3836096905998
 31
0.0
  0
LWPOLYLINE
  5
9CFD
330
A
100
AcDbEntity
  8
LEVEL001
  6
Continuous
 62
     6
370
    15
100
AcDbPolyline
 90
        3
 70
     0
 43
0.0
 10
372.2445368670192
 20
651.0923121943997
 10
394.204419889079
 20
681.6451929206996
 10
481.204419889099
 20
681.6451929206996
  0
CIRCLE
  5
9CFE
330
A
100
AcDbEntity
  8
LEVEL001
  6
Continuous
 62
     6
370
    15
100
AcDbCircle
 10
372.2445368670192
 20
651.0923121943997
 30
0.0
 40
0.8
  0
TEXT
  5
9CFF
330
A
100
AcDbEntity
  8
LEVEL001
 62
     6
370
    15
100
AcDbText
 10
394.204419889079
 20
699.6451929206996
 30
0.0
 40
12.0
  1
 　アール
 41
0.8
100
AcDbText
  0
TEXT
  5
9D00
330
A
100
AcDbEntity
  8
LEVEL001
 62
     6
370
    15
100
AcDbText
 10
394.204419889079
 20
683.6451929206996
 30
0.0
 40
12.0
  1
　 エンドキャップ
 41
0.8
100
AcDbText
  0
LINE
  5
9D01
330
A
100
AcDbEntity
  8
LEVEL001
  6
Continuous
 62
     6
370
    15
100
AcDbLine
 10
432.6285180793993
 20
531.0802737308003
 30
0.0
 11
432.6285180793993
 21
499.0802737308004
 31
0.0
  0
LINE
  5
9D02
330
A
100
AcDbEntity
  8
LEVEL001
  6
Continuous
 62
     6
370
    15
100
AcDbLine
 10
410.6839879014992
 20
531.0802737308003
 30
0.0
 11
436.6285180793993
 21
531.0802737308003
 31
0.0
  0
LINE
  5
9D03
330
A
100
AcDbEntity
  8
LEVEL001
  6
Continuous
 62
     6
370
    15
100
AcDbLine
 10
410.6839879014992
 20
499.0802737308004
 30
0.0
 11
436.6285180793993
 21
499.0802737308004
 31
0.0
  0
CIRCLE
  5
9D04
330
A
100
AcDbEntity
  8
LEVEL001
  6
Continuous
 62
     6
370
    15
100
AcDbCircle
 10
432.6285180793993
 20
531.0802737308003
 30
0.0
 40
0.8
  0
CIRCLE
  5
9D05
330
A
100
AcDbEntity
  8
LEVEL001
  6
Continuous
 62
     6
370
    15
100
AcDbCircle
 10
432.6285180793993
 20
499.0802737308004
 30
0.0
 40
0.8
  0
TEXT
  5
9D06
330
A
100
AcDbEntity
  8
LEVEL001
 62
     6
370
    15
100
AcDbText
 10
428.6285180793993
 20
504.0802737308004
 30
0.0
 40
12.0
  1
３２
 50
90.0
 41
0.8
100
AcDbText
  0
LINE
  5
9D07
330
A
100
AcDbEntity
  8
LEVEL001
  6
Continuous
 62
     6
370
    15
100
AcDbLine
 10
318.708105060799
 20
590.0823668559996
 30
0.0
 11
318.708105060799
 21
665.0802737308004
 31
0.0
  0
LINE
  5
9D08
330
A
100
AcDbEntity
  8
LEVEL001
  6
Continuous
 62
     6
370
    15
100
AcDbLine
 10
345.2839879015292
 20
590.0823668559996
 30
0.0
 11
314.708105060799
 21
590.0823668559996
 31
0.0
  0
LINE
  5
9D09
330
A
100
AcDbEntity
  8
LEVEL001
  6
Continuous
 62
     6
370
    15
100
AcDbLine
 10
362.2839879014891
 20
665.0802737308004
 30
0.0
 11
314.708105060799
 21
665.0802737308004
 31
0.0
  0
CIRCLE
  5
9D0A
330
A
100
AcDbEntity
  8
LEVEL001
  6
Continuous
 62
     6
370
    15
100
AcDbCircle
 10
318.708105060799
 20
590.0823668559996
 30
0.0
 40
0.8
  0
CIRCLE
  5
9D0B
330
A
100
AcDbEntity
  8
LEVEL001
  6
Continuous
 62
     6
370
    15
100
AcDbCircle
 10
318.708105060799
 20
665.0802737308004
 30
0.0
 40
0.8
  0
TEXT
  5
9D0C
330
A
100
AcDbEntity
  8
LEVEL001
 62
     6
370
    15
100
AcDbText
 10
314.708105060799
 20
616.5813202933995
 30
0.0
 40
12.0
  1
７５
 50
90.0
 41
0.8
100
AcDbText
  0
LWPOLYLINE
  5
9D0D
330
A
100
AcDbEntity
  8
LEVEL001
  6
Continuous
 62
     6
370
    15
100
AcDbPolyline
 90
        3
 70
     0
 43
0.0
 10
374.9852972304489
 20
232.1844921420998
 10
358.083636001189
 20
185.0593760796
 10
266.083636001189
 20
185.0593760796
  0
CIRCLE
  5
9D0E
330
A
100
AcDbEntity
  8
LEVEL001
  6
Continuous
 62
     6
370
    15
100
AcDbCircle
 10
374.9852972304489
 20
232.1844921420998
 30
0.0
 40
0.8
  0
TEXT
  5
9D0F
330
A
100
AcDbEntity
  8
LEVEL001
 62
     6
370
    15
100
AcDbText
 10
266.083636001189
 20
189.0593760796
 30
0.0
 40
12.0
  1
コーナージョイント
 41
0.8
100
AcDbText
  0
LINE
  5
9D10
330
A
100
AcDbEntity
  8
LEVEL001
  6
Continuous
 62
     6
370
    15
100
AcDbLine
 10
286.7230580503992
 20
211.8851885984995
 30
0.0
 11
286.7230580503992
 21
361.8851885984995
 31
0.0
  0
LINE
  5
9D11
330
A
100
AcDbEntity
  8
LEVEL001
  6
Continuous
 62
     6
370
    15
100
AcDbLine
 10
413.0339879014991
 20
211.8851885984995
 30
0.0
 11
282.7230580503993
 21
211.8851885984995
 31
0.0
  0
CIRCLE
  5
9D12
330
A
100
AcDbEntity
  8
LEVEL001
  6
Continuous
 62
     6
370
    15
100
AcDbCircle
 10
286.7230580503992
 20
211.8851885984995
 30
0.0
 40
0.8
  0
TEXT
  5
9D13
330
A
100
AcDbEntity
  8
LEVEL001
 62
     6
370
    15
100
AcDbText
 10
282.7230580503993
 20
270.8851885984996
 30
0.0
 40
12.0
  1
１５０
 50
90.0
 41
0.8
100
AcDbText
  0
LINE
  5
9D14
330
A
100
AcDbEntity
  8
LEVEL001
  6
Continuous
 62
     6
370
    15
100
AcDbLine
 10
286.7230580503992
 20
361.8851885984995
 30
0.0
 11
286.7230580503992
 21
515.0802737308004
 31
0.0
  0
LINE
  5
9D15
330
A
100
AcDbEntity
  8
LEVEL001
  6
Continuous
 62
     6
370
    15
100
AcDbLine
 10
346.2885939337493
 20
361.8851885984995
 30
0.0
 11
282.7230580503993
 21
361.8851885984995
 31
0.0
  0
CIRCLE
  5
9D16
330
A
100
AcDbEntity
  8
LEVEL001
  6
Continuous
 62
     6
370
    15
100
AcDbCircle
 10
286.7230580503992
 20
361.8851885984995
 30
0.0
 40
0.8
  0
TEXT
  5
9D17
330
A
100
AcDbEntity
  8
LEVEL001
 62
     6
370
    15
100
AcDbText
 10
282.7230580503993
 20
412.4827311646003
 30
0.0
 40
12.0
  1
＠≦５００
 50
90.0
 41
0.8
100
AcDbText
  0
LINE
  5
9D18
330
A
100
AcDbEntity
  8
LEVEL001
  6
Continuous
 62
     6
370
    15
100
AcDbLine
 10
286.7230580503992
 20
515.0802737308004
 30
0.0
 11
286.7230580503992
 21
665.0802737308004
 31
0.0
  0
LINE
  5
9D19
330
A
100
AcDbEntity
  8
LEVEL001
  6
Continuous
 62
     6
370
    15
100
AcDbLine
 10
344.2885939337493
 20
515.0802737308004
 30
0.0
 11
282.7230580503993
 21
515.0802737308004
 31
0.0
  0
LINE
  5
9D1A
330
A
100
AcDbEntity
  8
LEVEL001
  6
Continuous
 62
     6
370
    15
100
AcDbLine
 10
325.2839879015291
 20
665.0802737308004
 30
0.0
 11
282.7230580503993
 21
665.0802737308004
 31
0.0
  0
CIRCLE
  5
9D1B
330
A
100
AcDbEntity
  8
LEVEL001
  6
Continuous
 62
     6
370
    15
100
AcDbCircle
 10
286.7230580503992
 20
515.0802737308004
 30
0.0
 40
0.8
  0
CIRCLE
  5
9D1C
330
A
100
AcDbEntity
  8
LEVEL001
  6
Continuous
 62
     6
370
    15
100
AcDbCircle
 10
286.7230580503992
 20
665.0802737308004
 30
0.0
 40
0.8
  0
TEXT
  5
9D1D
330
A
100
AcDbEntity
  8
LEVEL001
 62
     6
370
    15
100
AcDbText
 10
282.7230580503993
 20
574.0802737308004
 30
0.0
 40
12.0
  1
１５０
 50
90.0
 41
0.8
100
AcDbText
  0
LINE
  5
9D1E
330
A
100
AcDbEntity
  8
LEVEL001
  6
Continuous
 62
     6
370
    15
100
AcDbLine
 10
496.2839879013991
 20
313.6891256653998
 30
0.0
 11
577.283987901399
 21
313.6891256653998
 31
0.0
  0
CIRCLE
  5
9D1F
330
A
100
AcDbEntity
  8
LEVEL001
  6
Continuous
 62
     6
370
    15
100
AcDbCircle
 10
496.2839879013991
 20
313.6891256653998
 30
0.0
 40
0.8
  0
LWPOLYLINE
  5
9D20
330
A
100
AcDbEntity
  8
LEVEL001
  6
Continuous
 62
     6
370
    15
100
AcDbPolyline
 90
        4
 70
     0
 43
0.0
 10
565.283987901399
 20
315.8050494339004
 10
577.283987901399
 20
313.6891256653998
 10
565.283987901399
 20
311.5732018969002
 10
565.283987901399
 20
315.8050494339004
  0
TEXT
  5
9D21
330
A
100
AcDbEntity
  8
LEVEL001
 62
     6
370
    15
100
AcDbText
 10
510.783987901399
 20
317.6891256653998
 30
0.0
 40
12.0
  1
＠≦９００
 41
0.8
100
AcDbText
  0
LINE
  5
9D22
330
A
100
AcDbEntity
  8
LEVEL001
  6
Continuous
 62
     6
370
    15
100
AcDbLine
 10
346.2839879014491
 20
313.6891256653998
 30
0.0
 11
496.2839879013991
 21
313.6891256653998
 31
0.0
  0
LINE
  5
9D23
330
A
100
AcDbEntity
  8
LEVEL001
  6
Continuous
 62
     6
370
    15
100
AcDbLine
 10
496.2839879013991
 20
270.9398112911003
 30
0.0
 11
496.2839879013991
 21
317.6891256653998
 31
0.0
  0
CIRCLE
  5
9D24
330
A
100
AcDbEntity
  8
LEVEL001
  6
Continuous
 62
     8
100
AcDbCircle
 10
346.2839879014491
 20
313.6891256653998
 30
0.0
 40
0.8
  0
CIRCLE
  5
9D25
330
A
100
AcDbEntity
  8
LEVEL001
  6
Continuous
 62
     6
370
    15
100
AcDbCircle
 10
496.2839879013991
 20
313.6891256653998
 30
0.0
 40
0.8
  0
TEXT
  5
9D26
330
A
100
AcDbEntity
  8
LEVEL001
 62
     6
370
    15
100
AcDbText
 10
405.2839879013991
 20
317.6891256653998
 30
0.0
 40
12.0
  1
１５０
 41
0.8
100
AcDbText
  0
LINE
  5
9D27
330
A
100
AcDbEntity
  8
LEVEL001
  6
Continuous
 62
     6
370
    15
100
AcDbLine
 10
318.708105060799
 20
819.1160641401001
 30
0.0
 11
318.708105060799
 21
756.1160641401002
 31
0.0
  0
LINE
  5
9D28
330
A
100
AcDbEntity
  8
LEVEL001
  6
Continuous
 62
     6
370
    15
100
AcDbLine
 10
348.6839879014892
 20
819.1160641401001
 30
0.0
 11
314.708105060799
 21
819.1160641401001
 31
0.0
  0
LINE
  5
9D29
330
A
100
AcDbEntity
  8
LEVEL001
  6
Continuous
 62
     6
370
    15
100
AcDbLine
 10
357.883987901489
 20
756.1160641401002
 30
0.0
 11
314.708105060799
 21
756.1160641401002
 31
0.0
  0
CIRCLE
  5
9D2A
330
A
100
AcDbEntity
  8
LEVEL001
  6
Continuous
 62
     6
370
    15
100
AcDbCircle
 10
318.708105060799
 20
819.1160641401001
 30
0.0
 40
0.8
  0
CIRCLE
  5
9D2B
330
A
100
AcDbEntity
  8
LEVEL001
  6
Continuous
 62
     6
370
    15
100
AcDbCircle
 10
318.708105060799
 20
756.1160641401002
 30
0.0
 40
0.8
  0
TEXT
  5
9D2C
330
A
100
AcDbEntity
  8
LEVEL001
 62
     6
370
    15
100
AcDbText
 10
314.708105060799
 20
776.6160641401001
 30
0.0
 40
12.0
  1
６３
 50
90.0
 41
0.8
100
AcDbText
  0
LINE
  5
9D2D
330
A
100
AcDbEntity
  8
LEVEL001
  6
Continuous
 62
     6
370
    15
100
AcDbLine
 10
289.2839879015292
 20
744.1160641401002
 30
0.0
 11
289.2839879015292
 21
819.1160641401001
 31
0.0
  0
LINE
  5
9D2E
330
A
100
AcDbEntity
  8
LEVEL001
  6
Continuous
 62
     6
370
    15
100
AcDbLine
 10
362.2839879013991
 20
744.1160641401002
 30
0.0
 11
285.2839879015292
 21
744.1160641401002
 31
0.0
  0
LINE
  5
9D2F
330
A
100
AcDbEntity
  8
LEVEL001
  6
Continuous
 62
     6
370
    15
100
AcDbLine
 10
289.2839879015292
 20
819.1160641401001
 30
0.0
 11
285.2839879015292
 21
819.1160641401001
 31
0.0
  0
CIRCLE
  5
9D30
330
A
100
AcDbEntity
  8
LEVEL001
  6
Continuous
 62
     6
370
    15
100
AcDbCircle
 10
289.2839879015292
 20
744.1160641401002
 30
0.0
 40
0.8
  0
CIRCLE
  5
9D31
330
A
100
AcDbEntity
  8
LEVEL001
  6
Continuous
 62
     6
370
    15
100
AcDbCircle
 10
289.2839879015292
 20
819.1160641401001
 30
0.0
 40
0.8
  0
TEXT
  5
9D32
330
A
100
AcDbEntity
  8
LEVEL001
 62
     6
370
    15
100
AcDbText
 10
285.2839879015292
 20
770.6160641401002
 30
0.0
 40
12.0
  1
７５
 50
90.0
 41
0.8
100
AcDbText
  0
LINE
  5
9D33
330
A
100
AcDbEntity
  8
LEVEL001
  6
Continuous
 62
     6
370
    15
100
AcDbLine
 10
409.1839879014992
 20
890.9670846157997
 30
0.0
 11
352.6839879014892
 21
890.9670846157997
 31
0.0
  0
LINE
  5
9D34
330
A
100
AcDbEntity
  8
LEVEL001
  6
Continuous
 62
     6
370
    15
100
AcDbLine
 10
409.1839879014992
 20
823.1160641401002
 30
0.0
 11
409.1839879014992
 21
894.9670846157996
 31
0.0
  0
LINE
  5
9D35
330
A
100
AcDbEntity
  8
LEVEL001
  6
Continuous
 62
     6
370
    15
100
AcDbLine
 10
352.6839879014892
 20
823.1160641401002
 30
0.0
 11
352.6839879014892
 21
894.9670846157996
 31
0.0
  0
CIRCLE
  5
9D36
330
A
100
AcDbEntity
  8
LEVEL001
  6
Continuous
 62
     6
370
    15
100
AcDbCircle
 10
409.1839879014992
 20
890.9670846157997
 30
0.0
 40
0.8
  0
CIRCLE
  5
9D37
330
A
100
AcDbEntity
  8
LEVEL001
  6
Continuous
 62
     6
370
    15
100
AcDbCircle
 10
352.6839879014892
 20
890.9670846157997
 30
0.0
 40
0.8
  0
TEXT
  5
9D38
330
A
100
AcDbEntity
  8
LEVEL001
 62
     6
370
    15
100
AcDbText
 10
362.4339879014892
 20
894.9670846157996
 30
0.0
 40
12.0
  1
５６.５
 41
0.8
100
AcDbText
  0
LINE
  5
9D39
330
A
100
AcDbEntity
  8
LEVEL001
  6
Continuous
 62
     6
370
    15
100
AcDbLine
 10
318.708105060799
 20
1009.596171426
 30
0.0
 11
318.708105060799
 21
946.5961714260002
 31
0.0
  0
LINE
  5
9D3A
330
A
100
AcDbEntity
  8
LEVEL001
  6
Continuous
 62
     6
370
    15
100
AcDbLine
 10
348.6839879014892
 20
1009.596171426
 30
0.0
 11
314.708105060799
 21
1009.596171426
 31
0.0
  0
LINE
  5
9D3B
330
A
100
AcDbEntity
  8
LEVEL001
  6
Continuous
 62
     6
370
    15
100
AcDbLine
 10
357.883987901489
 20
946.5961714260002
 30
0.0
 11
314.708105060799
 21
946.5961714260002
 31
0.0
  0
CIRCLE
  5
9D3C
330
A
100
AcDbEntity
  8
LEVEL001
  6
Continuous
 62
     6
370
    15
100
AcDbCircle
 10
318.708105060799
 20
1009.596171426
 30
0.0
 40
0.8
  0
CIRCLE
  5
9D3D
330
A
100
AcDbEntity
  8
LEVEL001
  6
Continuous
 62
     6
370
    15
100
AcDbCircle
 10
318.708105060799
 20
946.5961714260002
 30
0.0
 40
0.8
  0
TEXT
  5
9D3E
330
A
100
AcDbEntity
  8
LEVEL001
 62
     6
370
    15
100
AcDbText
 10
314.708105060799
 20
967.0961714260002
 30
0.0
 40
12.0
  1
６３
 50
90.0
 41
0.8
100
AcDbText
  0
LINE
  5
9D3F
330
A
100
AcDbEntity
  8
LEVEL001
  6
Continuous
 62
     6
370
    15
100
AcDbLine
 10
289.2839879015292
 20
935.2371280988
 30
0.0
 11
289.2839879015292
 21
1009.596171426
 31
0.0
  0
LINE
  5
9D40
330
A
100
AcDbEntity
  8
LEVEL001
  6
Continuous
 62
     6
370
    15
100
AcDbLine
 10
362.2839879013991
 20
935.2371280988
 30
0.0
 11
285.2839879015292
 21
935.2371280988
 31
0.0
  0
LINE
  5
9D41
330
A
100
AcDbEntity
  8
LEVEL001
  6
Continuous
 62
     6
370
    15
100
AcDbLine
 10
289.2839879015292
 20
1009.596171426
 30
0.0
 11
285.2839879015292
 21
1009.596171426
 31
0.0
  0
CIRCLE
  5
9D42
330
A
100
AcDbEntity
  8
LEVEL001
  6
Continuous
 62
     6
370
    15
100
AcDbCircle
 10
289.2839879015292
 20
935.2371280988
 30
0.0
 40
0.8
  0
CIRCLE
  5
9D43
330
A
100
AcDbEntity
  8
LEVEL001
  6
Continuous
 62
     6
370
    15
100
AcDbCircle
 10
289.2839879015292
 20
1009.596171426
 30
0.0
 40
0.8
  0
TEXT
  5
9D44
330
A
100
AcDbEntity
  8
LEVEL001
 62
     6
370
    15
100
AcDbText
 10
285.2839879015292
 20
961.4166497624001
 30
0.0
 40
12.0
  1
７５
 50
90.0
 41
0.8
100
AcDbText
  0
LINE
  5
9D45
330
A
100
AcDbEntity
  8
LEVEL001
  6
Continuous
 62
     6
370
    15
100
AcDbLine
 10
409.1839879014992
 20
1069.3687666849
 30
0.0
 11
352.6839879014892
 21
1069.3687666849
 31
0.0
  0
LINE
  5
9D46
330
A
100
AcDbEntity
  8
LEVEL001
  6
Continuous
 62
     6
370
    15
100
AcDbLine
 10
409.1839879014992
 20
1013.596171426
 30
0.0
 11
409.1839879014992
 21
1073.3687666849
 31
0.0
  0
LINE
  5
9D47
330
A
100
AcDbEntity
  8
LEVEL001
  6
Continuous
 62
     6
370
    15
100
AcDbLine
 10
352.6839879014892
 20
1013.596171426
 30
0.0
 11
352.6839879014892
 21
1073.3687666849
 31
0.0
  0
CIRCLE
  5
9D48
330
A
100
AcDbEntity
  8
LEVEL001
  6
Continuous
 62
     6
370
    15
100
AcDbCircle
 10
409.1839879014992
 20
1069.3687666849
 30
0.0
 40
0.8
  0
CIRCLE
  5
9D49
330
A
100
AcDbEntity
  8
LEVEL001
  6
Continuous
 62
     6
370
    15
100
AcDbCircle
 10
352.6839879014892
 20
1069.3687666849
 30
0.0
 40
0.8
  0
TEXT
  5
9D4A
330
A
100
AcDbEntity
  8
LEVEL001
 62
     6
370
    15
100
AcDbText
 10
362.4339879014892
 20
1073.3687666849
 30
0.0
 40
12.0
  1
５６.５
 41
0.8
100
AcDbText
  0
LINE
  5
9D4B
330
A
100
AcDbEntity
  8
LEVEL001
  6
Continuous
 62
     6
370
    15
100
AcDbLine
 10
433.5511772722993
 20
854.4689955413996
 30
0.0
 11
384.2839879014891
 21
854.4689955413996
 31
0.0
  0
LINE
  5
9D4C
330
A
100
AcDbEntity
  8
LEVEL001
  6
Continuous
 62
     6
370
    15
100
AcDbLine
 10
409.1839879014992
 20
823.1160641401002
 30
0.0
 11
409.1839879014992
 21
858.4689955413995
 31
0.0
  0
CIRCLE
  5
9D4D
330
A
100
AcDbEntity
  8
LEVEL001
  6
Continuous
 62
     6
370
    15
100
AcDbCircle
 10
409.1839879014992
 20
854.4689955413996
 30
0.0
 40
0.8
  0
TEXT
  5
9D4E
330
A
100
AcDbEntity
  8
LEVEL001
 62
     6
370
    15
100
AcDbText
 10
411.5511772722993
 20
858.1244863865004
 30
0.0
 40
12.0
  1
２５
 41
0.8
100
AcDbText
  0
LINE
  5
9D4F
330
A
100
AcDbEntity
  8
LEVEL001
  6
Continuous
 62
     6
370
    15
100
AcDbLine
 10
384.2839879014891
 20
854.4689955413996
 30
0.0
 11
313.445415819599
 21
854.4689955413996
 31
0.0
  0
LINE
  5
9D50
330
A
100
AcDbEntity
  8
LEVEL001
  6
Continuous
 62
     6
370
    15
100
AcDbLine
 10
384.2839879014891
 20
825.2217272065999
 30
0.0
 11
384.2839879014891
 21
858.4689955413995
 31
0.0
  0
LINE
  5
9D51
330
A
100
AcDbEntity
  8
LEVEL001
  6
Continuous
 62
     6
370
    15
100
AcDbLine
 10
352.6839879014892
 20
823.1160641401002
 30
0.0
 11
352.6839879014892
 21
858.4689955413995
 31
0.0
  0
CIRCLE
  5
9D52
330
A
100
AcDbEntity
  8
LEVEL001
  6
Continuous
 62
     6
370
    15
100
AcDbCircle
 10
384.2839879014891
 20
854.4689955413996
 30
0.0
 40
0.8
  0
CIRCLE
  5
9D53
330
A
100
AcDbEntity
  8
LEVEL001
  6
Continuous
 62
     6
370
    15
100
AcDbCircle
 10
352.6839879014892
 20
854.4689955413996
 30
0.0
 40
0.8
  0
TEXT
  5
9D54
330
A
100
AcDbEntity
  8
LEVEL001
 62
     6
370
    15
100
AcDbText
 10
313.445415819599
 20
858.7610047349999
 30
0.0
 40
12.0
  1
３１.５
 41
0.8
100
AcDbText
  0
LINE
  5
9D55
330
A
100
AcDbEntity
  8
LEVEL001
  6
Continuous
 62
     6
370
    15
100
AcDbLine
 10
435.4607323176987
 20
1044.949102827299
 30
0.0
 11
384.2839879014891
 21
1044.949102827299
 31
0.0
  0
LINE
  5
9D56
330
A
100
AcDbEntity
  8
LEVEL001
  6
Continuous
 62
     6
370
    15
100
AcDbLine
 10
409.1839879014992
 20
1013.596171426
 30
0.0
 11
409.1839879014992
 21
1048.949102827299
 31
0.0
  0
CIRCLE
  5
9D57
330
A
100
AcDbEntity
  8
LEVEL001
  6
Continuous
 62
     6
370
    15
100
AcDbCircle
 10
409.1839879014992
 20
1044.949102827299
 30
0.0
 40
0.8
  0
TEXT
  5
9D58
330
A
100
AcDbEntity
  8
LEVEL001
 62
     6
370
    15
100
AcDbText
 10
413.4607323176992
 20
1048.4434725778
 30
0.0
 40
12.0
  1
２５
 41
0.8
100
AcDbText
  0
LINE
  5
9D59
330
A
100
AcDbEntity
  8
LEVEL001
  6
Continuous
 62
     6
370
    15
100
AcDbLine
 10
384.2839879014891
 20
1044.949102827299
 30
0.0
 11
313.445415819599
 21
1044.949102827299
 31
0.0
  0
LINE
  5
9D5A
330
A
100
AcDbEntity
  8
LEVEL001
  6
Continuous
 62
     6
370
    15
100
AcDbLine
 10
384.2839879014891
 20
1015.7018344924
 30
0.0
 11
384.2839879014891
 21
1048.949102827299
 31
0.0
  0
LINE
  5
9D5B
330
A
100
AcDbEntity
  8
LEVEL001
  6
Continuous
 62
     6
370
    15
100
AcDbLine
 10
352.6839879014892
 20
1013.596171426
 30
0.0
 11
352.6839879014892
 21
1048.949102827299
 31
0.0
  0
CIRCLE
  5
9D5C
330
A
100
AcDbEntity
  8
LEVEL001
  6
Continuous
 62
     6
370
    15
100
AcDbCircle
 10
384.2839879014891
 20
1044.949102827299
 30
0.0
 40
0.8
  0
CIRCLE
  5
9D5D
330
A
100
AcDbEntity
  8
LEVEL001
  6
Continuous
 62
     6
370
    15
100
AcDbCircle
 10
352.6839879014892
 20
1044.949102827299
 30
0.0
 40
0.8
  0
TEXT
  5
9D5E
330
A
100
AcDbEntity
  8
LEVEL001
 62
     6
370
    15
100
AcDbText
 10
313.445415819599
 20
1048.4434725778
 30
0.0
 40
12.0
  1
３１.５
 41
0.8
100
AcDbText
  0
LWPOLYLINE
  5
9EB9
330
A
100
AcDbEntity
  8
LEVEL001
  6
Continuous
 62
     8
100
AcDbPolyline
 90
        5
 70
     0
 43
0.0
 10
101.9469306363089
 20
769.0834604273995
 10
101.9469306363089
 20
755.7165751095999
 10
169.4178755736493
 20
755.7165751095999
 10
169.4178755736493
 20
769.0834604273995
 10
101.9469306363089
 20
769.0834604273995
  0
TEXT
  5
9EBA
330
A
100
AcDbEntity
  8
LEVEL001
 62
     8
100
AcDbText
 10
108.6824031049791
 20
757.9000177685002
 30
0.0
 40
9.0
  1
※受注生産品
 41
0.8
 11
108.6824031049791
 21
762.4000177685002
 31
0.0
100
AcDbText
 73
     2
  0
LINE
  5
9F2B
330
A
100
AcDbEntity
  8
LEVEL001
  6
HIDDEN
 62
     2
 48
0.5
370
    15
100
AcDbLine
 10
387.5839879014748
 20
799.6160641401002
 30
0.0
 11
381.1839879014751
 21
799.6160641401002
 31
0.0
  0
LINE
  5
9F2C
330
A
100
AcDbEntity
  8
LEVEL001
  6
HIDDEN
 62
     2
 48
0.5
370
    15
100
AcDbLine
 10
380.383987901474
 20
800.4160641401012
 30
0.0
 11
388.3839879014758
 21
800.4160641401012
 31
0.0
  0
LINE
  5
9F2D
330
A
100
AcDbEntity
  8
LEVEL001
  6
HIDDEN
 62
     2
 48
0.5
370
    15
100
AcDbLine
 10
381.1839879014751
 20
799.6160641401002
 30
0.0
 11
381.1839879014751
 21
803.1160641401001
 31
0.0
  0
LINE
  5
9F2E
330
A
100
AcDbEntity
  8
LEVEL001
  6
HIDDEN
 62
     2
 48
0.5
370
    15
100
AcDbLine
 10
380.383987901474
 20
800.4160641401012
 30
0.0
 11
380.383987901474
 21
803.1160641401001
 31
0.0
  0
LINE
  5
9F2F
330
A
100
AcDbEntity
  8
LEVEL001
  6
HIDDEN
 62
     2
 48
0.5
370
    15
100
AcDbLine
 10
381.1839879014751
 20
799.6160641401002
 30
0.0
 11
380.383987901474
 21
800.4160641401012
 31
0.0
  0
LINE
  5
9F30
330
A
100
AcDbEntity
  8
LEVEL001
  6
HIDDEN
 62
     2
 48
0.5
370
    15
100
AcDbLine
 10
388.3839879014741
 20
803.1160641401001
 30
0.0
 11
388.3839879014741
 21
800.4160641401012
 31
0.0
  0
LINE
  5
9F31
330
A
100
AcDbEntity
  8
LEVEL001
  6
HIDDEN
 62
     2
 48
0.5
370
    15
100
AcDbLine
 10
387.5839879014748
 20
803.1160641401001
 30
0.0
 11
387.5839879014748
 21
799.6160641401002
 31
0.0
  0
LINE
  5
9F32
330
A
100
AcDbEntity
  8
LEVEL001
  6
HIDDEN
 62
     2
 48
0.5
370
    15
100
AcDbLine
 10
388.3839879014741
 20
800.4160641401012
 30
0.0
 11
387.5839879014748
 21
799.6160641401002
 31
0.0
  0
LINE
  5
9F33
330
A
100
AcDbEntity
  8
LEVEL001
  6
HIDDEN
 62
     2
 48
0.5
370
    15
100
AcDbLine
 10
387.5839879014748
 20
990.0961714260002
 30
0.0
 11
381.1839879014751
 21
990.0961714260002
 31
0.0
  0
LINE
  5
9F34
330
A
100
AcDbEntity
  8
LEVEL001
  6
HIDDEN
 62
     2
 48
0.5
370
    15
100
AcDbLine
 10
380.383987901474
 20
990.8961714260012
 30
0.0
 11
388.3839879014758
 21
990.8961714260012
 31
0.0
  0
LINE
  5
9F35
330
A
100
AcDbEntity
  8
LEVEL001
  6
HIDDEN
 62
     2
 48
0.5
370
    15
100
AcDbLine
 10
381.1839879014751
 20
990.0961714260002
 30
0.0
 11
381.1839879014751
 21
993.5961714260001
 31
0.0
  0
LINE
  5
9F36
330
A
100
AcDbEntity
  8
LEVEL001
  6
HIDDEN
 62
     2
 48
0.5
370
    15
100
AcDbLine
 10
380.383987901474
 20
990.8961714260012
 30
0.0
 11
380.383987901474
 21
993.5961714260001
 31
0.0
  0
LINE
  5
9F37
330
A
100
AcDbEntity
  8
LEVEL001
  6
HIDDEN
 62
     2
 48
0.5
370
    15
100
AcDbLine
 10
381.1839879014751
 20
990.0961714260002
 30
0.0
 11
380.383987901474
 21
990.8961714260012
 31
0.0
  0
LINE
  5
9F38
330
A
100
AcDbEntity
  8
LEVEL001
  6
HIDDEN
 62
     2
 48
0.5
370
    15
100
AcDbLine
 10
388.3839879014741
 20
993.5961714260001
 30
0.0
 11
388.3839879014741
 21
990.8961714260012
 31
0.0
  0
LINE
  5
9F39
330
A
100
AcDbEntity
  8
LEVEL001
  6
HIDDEN
 62
     2
 48
0.5
370
    15
100
AcDbLine
 10
387.5839879014748
 20
993.5961714260001
 30
0.0
 11
387.5839879014748
 21
990.0961714260002
 31
0.0
  0
LINE
  5
9F3A
330
A
100
AcDbEntity
  8
LEVEL001
  6
HIDDEN
 62
     2
 48
0.5
370
    15
100
AcDbLine
 10
388.3839879014741
 20
990.8961714260012
 30
0.0
 11
387.5839879014748
 21
990.0961714260002
 31
0.0
  0
HATCH
  5
A84F
330
A
100
AcDbEntity
  8
LEVEL001
  6
Continuous
100
AcDbHatch
 10
0.0
 20
0.0
 30
0.0
210
0.0
220
0.0
230
1.0
  2
ANSI31
 70
     0
 71
     0
 91
        9
 92
        7
 72
     1
 73
     1
 93
        8
 10
1576.9200000003
 20
1087.34
 42
0.0
 10
1559.6400000003
 20
1087.34
 42
1.0
 10
1559.6400000003
 20
1052.78
 42
0.0
 10
1576.9200000003
 20
1052.78
 42
0.0
 10
1576.9200000003
 20
1064.299999999999
 42
0.0
 10
1559.6400000003
 20
1064.299999999999
 42
-1.0
 10
1559.6400000003
 20
1075.819999999999
 42
0.0
 10
1576.9200000003
 20
1075.819999999999
 42
0.0
 97
        0
 92
        7
 72
     0
 73
     1
 93
       22
 10
1542.3600000003
 20
1087.34
 10
1473.2400000003
 20
1087.34
 10
1473.2400000003
 20
1075.819999999999
 10
1484.7600000003
 20
1075.819999999999
 10
1484.7600000003
 20
1064.299999999999
 10
1467.4800000003
 20
1064.299999999999
 10
1467.4800000003
 20
1087.34
 10
1455.9600000003
 20
1087.34
 10
1455.9600000003
 20
1052.78
 10
1496.2800000003
 20
1052.78
 10
1496.2800000003
 20
1075.819999999999
 10
1507.8000000003
 20
1075.819999999999
 10
1507.8000000003
 20
1052.78
 10
1542.3600000003
 20
1052.78
 10
1542.3600000003
 20
1064.299999999999
 10
1519.3200000003
 20
1064.299999999999
 10
1519.3200000003
 20
1067.18
 10
1539.480000000299
 20
1067.18
 10
1539.480000000299
 20
1072.94
 10
1519.3200000003
 20
1072.94
 10
1519.3200000003
 20
1075.819999999999
 10
1542.3600000003
 20
1075.819999999999
 97
        0
 92
       23
 72
     0
 73
     1
 93
        3
 10
1452.1200000003
 20
1074.657341551099
 10
1437.5351056329
 20
1052.78
 10
1452.1200000003
 20
1052.78
 97
        0
 92
        7
 72
     0
 73
     1
 93
        4
 10
1455.9600000003
 20
1087.34
 10
1438.6800000003
 20
1087.34
 10
1415.6400000003
 20
1052.78
 10
1432.9200000003
 20
1052.78
 97
        0
 92
        7
 72
     1
 73
     1
 93
        6
 10
1409.8800000003
 20
1087.34
 42
0.0
 10
1386.8400000003
 20
1087.34
 42
0.0
 10
1386.8400000003
 20
1052.78
 42
0.0
 10
1398.3600000003
 20
1052.78
 42
0.0
 10
1398.3600000003
 20
1058.54
 42
0.0
 10
1409.8800000003
 20
1058.54
 42
1.0
 97
        0
 92
       22
 72
     1
 73
     1
 93
        4
 10
1409.8800000003
 20
1070.059999999999
 42
0.0
 10
1398.3600000003
 20
1070.059999999999
 42
0.0
 10
1398.3600000003
 20
1075.819999999999
 42
0.0
 10
1409.8800000003
 20
1075.819999999999
 42
-1.0
 97
        0
 92
        7
 72
     0
 73
     1
 93
        3
 10
1375.3200000003
 20
1083.5
 10
1360.9200000003
 20
1083.5
 10
1375.3200000003
 20
1060.46
 97
        0
 92
        7
 72
     0
 73
     1
 93
        6
 10
1372.7600000003
 20
1114.219999999999
 10
1355.4800000003
 20
1114.219999999999
 10
1335.0000000003
 20
1083.5
 10
1355.4800000003
 20
1052.78
 10
1372.7600000003
 20
1052.78
 10
1352.2800000003
 20
1083.5
 97
        0
 92
        7
 72
     0
 73
     1
 93
        6
 10
1346.8400000003
 20
1114.219999999999
 10
1329.5600000003
 20
1114.219999999999
 10
1309.0800000003
 20
1083.5
 10
1329.5600000003
 20
1052.78
 10
1346.8400000003
 20
1052.78
 10
1326.3600000003
 20
1083.5
 97
        0
 75
     1
 76
     1
 52
0.0
 41
1.0
 77
     0
 78
     1
 53
45.0
 43
0.0
 44
0.0
 45
-0.0883883476483184
 46
0.0883883476483185
 79
     0
 47
0.3942339837251763
 98
        9
 10
1560.503682650167
 20
1083.514472919065
 10
1519.867685341247
 20
1082.726005559532
 10
1445.697116532407
 20
1057.495030692309
 10
1435.439489327917
 20
1065.773937967395
 10
1416.896828905148
 20
1068.927807405525
 10
1416.896828905148
 20
1068.927807405525
 10
1367.186775359907
 20
1079.177902441639
 10
1357.718207614576
 20
1104.803110988629
 10
1331.285061923656
 20
1108.351214106522
1001
GradientColor1ACI
1070
     5
1001
GradientColor2ACI
1070
     2
1001
ACAD
1010
0.0
1020
0.0
1030
0.0
  0
LWPOLYLINE
  5
A850
330
A
100
AcDbEntity
  8
LEVEL001
  6
Continuous
 62
     3
100
AcDbPolyline
 90
        6
 70
     0
 43
0.0
 10
1409.8800000003
 20
1087.34
 10
1386.8400000003
 20
1087.34
 10
1386.8400000003
 20
1052.78
 10
1398.3600000003
 20
1052.78
 10
1398.3600000003
 20
1058.54
 10
1409.8800000003
 20
1058.54
  0
LWPOLYLINE
  5
A851
330
A
100
AcDbEntity
  8
LEVEL001
  6
Continuous
 62
     3
100
AcDbPolyline
 90
       26
 70
     0
 43
0.0
 10
1415.6400000003
 20
1052.78
 10
1438.6800000003
 20
1087.34
 10
1467.4800000003
 20
1087.34
 10
1467.4800000003
 20
1064.299999999999
 10
1484.7600000003
 20
1064.299999999999
 10
1484.7600000003
 20
1075.819999999999
 10
1473.2400000003
 20
1075.819999999999
 10
1473.2400000003
 20
1087.34
 10
1542.3600000003
 20
1087.34
 10
1542.3600000003
 20
1075.819999999999
 10
1519.3200000003
 20
1075.819999999999
 10
1519.3200000003
 20
1072.94
 10
1539.480000000299
 20
1072.94
 10
1539.480000000299
 20
1067.18
 10
1519.3200000003
 20
1067.18
 10
1519.3200000003
 20
1064.299999999999
 10
1542.3600000003
 20
1064.299999999999
 10
1542.3600000003
 20
1052.78
 10
1507.8000000003
 20
1052.78
 10
1507.8000000003
 20
1075.819999999999
 10
1496.2800000003
 20
1075.819999999999
 10
1496.2800000003
 20
1052.78
 10
1455.9600000003
 20
1052.78
 10
1455.9600000003
 20
1087.34
 10
1432.9200000003
 20
1052.78
 10
1415.6400000003
 20
1052.78
  0
LWPOLYLINE
  5
A852
330
A
100
AcDbEntity
  8
LEVEL001
  6
Continuous
 62
     3
100
AcDbPolyline
 90
        4
 70
     0
 43
0.0
 10
1452.1200000003
 20
1074.657341551099
 10
1437.5351056329
 20
1052.78
 10
1452.1200000003
 20
1052.78
 10
1452.1200000003
 20
1074.657341551099
  0
LWPOLYLINE
  5
A853
330
A
100
AcDbEntity
  8
LEVEL001
  6
Continuous
 62
     3
100
AcDbPolyline
 90
        4
 70
     0
 43
0.0
 10
1559.6400000003
 20
1087.34
 10
1576.9200000003
 20
1087.34
 10
1576.9200000003
 20
1075.819999999999
 10
1559.6400000003
 20
1075.819999999999
  0
ARC
  5
A854
330
A
100
AcDbEntity
  8
LEVEL001
  6
Continuous
 62
     3
100
AcDbCircle
 10
1409.8800000003
 20
1072.94
 30
0.0
 40
14.4
100
AcDbArc
 50
270.0
 51
90.0
  0
LINE
  5
A855
330
A
100
AcDbEntity
  8
LEVEL001
  6
Continuous
 62
     3
100
AcDbLine
 10
1409.8800000003
 20
1087.34
 30
0.0
 11
1386.8400000003
 21
1087.34
 31
0.0
  0
LINE
  5
A856
330
A
100
AcDbEntity
  8
LEVEL001
  6
Continuous
 62
     3
100
AcDbLine
 10
1398.3600000003
 20
1075.819999999999
 30
0.0
 11
1398.3600000003
 21
1070.059999999999
 31
0.0
  0
LINE
  5
A857
330
A
100
AcDbEntity
  8
LEVEL001
  6
Continuous
 62
     3
100
AcDbLine
 10
1398.3600000003
 20
1070.059999999999
 30
0.0
 11
1409.8800000003
 21
1070.059999999999
 31
0.0
  0
ARC
  5
A858
330
A
100
AcDbEntity
  8
LEVEL001
  6
Continuous
 62
     3
100
AcDbCircle
 10
1409.8800000003
 20
1072.94
 30
0.0
 40
2.879999999999999
100
AcDbArc
 50
270.0
 51
90.0
  0
LINE
  5
A859
330
A
100
AcDbEntity
  8
LEVEL001
  6
Continuous
 62
     3
100
AcDbLine
 10
1409.8800000003
 20
1075.819999999999
 30
0.0
 11
1398.3600000003
 21
1075.819999999999
 31
0.0
  0
LINE
  5
A85A
330
A
100
AcDbEntity
  8
LEVEL001
  6
Continuous
 62
     3
100
AcDbLine
 10
1432.9200000003
 20
1052.78
 30
0.0
 11
1455.9600000003
 21
1087.34
 31
0.0
  0
LINE
  5
A85B
330
A
100
AcDbEntity
  8
LEVEL001
  6
Continuous
 62
     3
100
AcDbLine
 10
1437.5351056329
 20
1052.78
 30
0.0
 11
1452.1200000003
 21
1052.78
 31
0.0
  0
LINE
  5
A85C
330
A
100
AcDbEntity
  8
LEVEL001
  6
Continuous
 62
     3
100
AcDbLine
 10
1542.3600000003
 20
1087.34
 30
0.0
 11
1473.2400000003
 21
1087.34
 31
0.0
  0
LINE
  5
A85D
330
A
100
AcDbEntity
  8
LEVEL001
  6
Continuous
 62
     3
100
AcDbLine
 10
1559.6400000003
 20
1052.78
 30
0.0
 11
1576.9200000003
 21
1052.78
 31
0.0
  0
LINE
  5
A85E
330
A
100
AcDbEntity
  8
LEVEL001
  6
Continuous
 62
     3
100
AcDbLine
 10
1576.9200000003
 20
1052.78
 30
0.0
 11
1576.9200000003
 21
1064.299999999999
 31
0.0
  0
LINE
  5
A85F
330
A
100
AcDbEntity
  8
LEVEL001
  6
Continuous
 62
     3
100
AcDbLine
 10
1576.9200000003
 20
1064.299999999999
 30
0.0
 11
1559.6400000003
 21
1064.299999999999
 31
0.0
  0
ARC
  5
A860
330
A
100
AcDbEntity
  8
LEVEL001
  6
Continuous
 62
     3
100
AcDbCircle
 10
1559.6400000003
 20
1070.059999999999
 30
0.0
 40
5.759999999999999
100
AcDbArc
 50
90.0
 51
270.0
  0
LINE
  5
A861
330
A
100
AcDbEntity
  8
LEVEL001
  6
Continuous
 62
     3
100
AcDbLine
 10
1576.9200000003
 20
1087.34
 30
0.0
 11
1559.6400000003
 21
1087.34
 31
0.0
  0
ARC
  5
A862
330
A
100
AcDbEntity
  8
LEVEL001
  6
Continuous
 62
     3
100
AcDbCircle
 10
1559.6400000003
 20
1070.059999999999
 30
0.0
 40
17.28
100
AcDbArc
 50
90.0
 51
270.0
  0
LWPOLYLINE
  5
A863
330
A
100
AcDbEntity
  8
LEVEL001
  6
Continuous
 62
     3
100
AcDbPolyline
 90
        4
 70
     0
 43
0.0
 10
1375.3200000003
 20
1060.46
 10
1360.9200000003
 20
1083.5
 10
1375.3200000003
 20
1083.5
 10
1375.3200000003
 20
1060.46
  0
LINE
  5
A864
330
A
100
AcDbEntity
  8
LEVEL001
  6
Continuous
 62
     3
100
AcDbLine
 10
1360.9200000003
 20
1083.5
 30
0.0
 11
1375.3200000003
 21
1060.46
 31
0.0
  0
LWPOLYLINE
  5
A865
330
A
100
AcDbEntity
  8
LEVEL001
  6
Continuous
 62
     3
100
AcDbPolyline
 90
        3
 70
     0
 43
0.0
 10
1329.5600000003
 20
1052.78
 10
1309.0800000003
 20
1083.5
 10
1329.5600000003
 20
1114.219999999999
  0
LINE
  5
A866
330
A
100
AcDbEntity
  8
LEVEL001
  6
Continuous
 62
     3
100
AcDbLine
 10
1329.5600000003
 20
1114.219999999999
 30
0.0
 11
1346.8400000003
 21
1114.219999999999
 31
0.0
  0
LWPOLYLINE
  5
A867
330
A
100
AcDbEntity
  8
LEVEL001
  6
Continuous
 62
     3
100
AcDbPolyline
 90
        3
 70
     0
 43
0.0
 10
1346.8400000003
 20
1114.219999999999
 10
1326.3600000003
 20
1083.5
 10
1346.8400000003
 20
1052.78
  0
LINE
  5
A868
330
A
100
AcDbEntity
  8
LEVEL001
  6
Continuous
 62
     3
100
AcDbLine
 10
1346.8400000003
 20
1052.78
 30
0.0
 11
1329.5600000003
 21
1052.78
 31
0.0
  0
LWPOLYLINE
  5
A869
330
A
100
AcDbEntity
  8
LEVEL001
  6
Continuous
 62
     3
100
AcDbPolyline
 90
        3
 70
     0
 43
0.0
 10
1355.4800000003
 20
1052.78
 10
1335.0000000003
 20
1083.5
 10
1355.4800000003
 20
1114.219999999999
  0
LINE
  5
A86A
330
A
100
AcDbEntity
  8
LEVEL001
  6
Continuous
 62
     3
100
AcDbLine
 10
1355.4800000003
 20
1114.219999999999
 30
0.0
 11
1372.7600000003
 21
1114.219999999999
 31
0.0
  0
LWPOLYLINE
  5
A86B
330
A
100
AcDbEntity
  8
LEVEL001
  6
Continuous
 62
     3
100
AcDbPolyline
 90
        3
 70
     0
 43
0.0
 10
1372.7600000003
 20
1114.219999999999
 10
1352.2800000003
 20
1083.5
 10
1372.7600000003
 20
1052.78
  0
LINE
  5
A86C
330
A
100
AcDbEntity
  8
LEVEL001
  6
Continuous
 62
     3
100
AcDbLine
 10
1372.7600000003
 20
1052.78
 30
0.0
 11
1355.4800000003
 21
1052.78
 31
0.0
  0
TEXT
  5
A89C
330
A
100
AcDbEntity
  8
LEVEL001
 62
     8
100
AcDbText
 10
1268.800000000101
 20
833.5
 30
0.0
 40
8.0
  1
(４０%%c用)
 41
0.8
100
AcDbText
  0
TEXT
  5
A89D
330
A
100
AcDbEntity
  8
LEVEL001
 62
     8
100
AcDbText
 10
1268.800000000101
 20
822.8333333333303
 30
0.0
 40
8.0
  1
・屋内用
 41
0.8
100
AcDbText
  0
TEXT
  5
A89E
330
A
100
AcDbEntity
  8
LEVEL001
 62
     8
100
AcDbText
 10
1268.800000000101
 20
812.1666666666696
 30
0.0
 40
8.0
  1
 標準色　
 41
0.8
100
AcDbText
  0
TEXT
  5
A89F
330
A
100
AcDbEntity
  8
LEVEL001
 62
     8
100
AcDbText
 10
1268.800000000101
 20
801.5
 30
0.0
 40
8.0
  1
　笠木(ＧＳＫ１Ｃ)･･･特殊樹脂
 41
0.8
100
AcDbText
  0
TEXT
  5
A8A0
330
A
100
AcDbEntity
  8
LEVEL001
 62
     8
100
AcDbText
 10
1268.800000000101
 20
790.8333333333303
 30
0.0
 40
8.0
  1
　　　(ＧＳＫ１ＦＣ･スリムタイプ)･･･特殊樹脂　　　　　　
 41
0.8
100
AcDbText
  0
TEXT
  5
A8A1
330
A
100
AcDbEntity
  8
LEVEL001
 62
     8
100
AcDbText
 10
1268.800000000101
 20
780.1666666666696
 30
0.0
 40
8.0
  1
　笠木受(ＳＫ１Ａ)･･･アルミ
 41
0.8
100
AcDbText
  0
TEXT
  5
A8A2
330
A
100
AcDbEntity
  8
LEVEL001
 62
     8
100
AcDbText
 10
1268.800000000101
 20
769.5
 30
0.0
 40
8.0
  1
　アールエンドキャップ(ＲＣ４０)･･･ＡＳＡ
 41
0.8
100
AcDbText
  0
TEXT
  5
A8A3
330
A
100
AcDbEntity
  8
LEVEL001
 62
     8
100
AcDbText
 10
1268.800000000101
 20
758.8333333333302
 30
0.0
 40
8.0
  1
　　(エンドキャップ･･･ＡＳＡ)有
 41
0.8
100
AcDbText
  0
TEXT
  5
A8A4
330
A
100
AcDbEntity
  8
LEVEL001
 62
     8
100
AcDbText
 10
1268.800000000101
 20
737.5
 30
0.0
 40
8.0
  1
木目色　
 41
0.8
100
AcDbText
  0
TEXT
  5
A8A5
330
A
100
AcDbEntity
  8
LEVEL001
 62
     8
100
AcDbText
 10
1268.800000000101
 20
726.8333333333303
 30
0.0
 40
8.0
  1
　笠木(ＧＳＫ１Ｍ)･･･特殊樹脂(耐候性樹脂)　
 41
0.8
100
AcDbText
  0
TEXT
  5
A8A6
330
A
100
AcDbEntity
  8
LEVEL001
 62
     8
100
AcDbText
 10
1268.800000000101
 20
716.1666666666697
 30
0.0
 40
8.0
  1
　　　(ＧＳＫ１ＦＭ･スリムタイプ)･･･特殊樹脂(耐候性樹脂)　　　　　　
 41
0.8
100
AcDbText
  0
TEXT
  5
A8A7
330
A
100
AcDbEntity
  8
LEVEL001
 62
     8
100
AcDbText
 10
1268.800000000101
 20
705.4999999999999
 30
0.0
 40
8.0
  1
　笠木受(ＳＫ１Ａ)･･･アルミ
 41
0.8
100
AcDbText
  0
TEXT
  5
A8A8
330
A
100
AcDbEntity
  8
LEVEL001
 62
     8
100
AcDbText
 10
1268.800000000101
 20
694.8333333333303
 30
0.0
 40
8.0
  1
　アールエンドキャップ(ＲＣ４０Ｍ)･･･ＡＳＡ
 41
0.8
100
AcDbText
  0
TEXT
  5
A8A9
330
A
100
AcDbEntity
  8
LEVEL001
 62
     8
100
AcDbText
 10
1268.800000000101
 20
684.1666666666696
 30
0.0
 40
8.0
  1
　　(エンドキャップ･･･ＡＳＡ)有
 41
0.8
100
AcDbText
  0
TEXT
  5
A8AA
330
A
100
AcDbEntity
  8
LEVEL001
 62
     8
100
AcDbText
 10
1268.800000000101
 20
662.8333333333302
 30
0.0
 40
8.0
  1
・屋外用
 41
0.8
100
AcDbText
  0
TEXT
  5
A8AB
330
A
100
AcDbEntity
  8
LEVEL001
 62
     8
100
AcDbText
 10
1268.800000000101
 20
652.1666666666696
 30
0.0
 40
8.0
  1
 標準色
 41
0.8
100
AcDbText
  0
TEXT
  5
A8AC
330
A
100
AcDbEntity
  8
LEVEL001
 62
     8
100
AcDbText
 10
1268.800000000101
 20
641.5
 30
0.0
 40
8.0
  1
　笠木(ＧＳＫ１Ｇ)･･･特殊樹脂(耐候性樹脂)
 41
0.8
100
AcDbText
  0
TEXT
  5
A8AD
330
A
100
AcDbEntity
  8
LEVEL001
 62
     8
100
AcDbText
 10
1268.800000000101
 20
630.8333333333303
 30
0.0
 40
8.0
  1
　　　(ＧＳＫ１ＦＧ･スリムタイプ)･･･特殊樹脂(耐候性樹脂)　　　　　　
 41
0.8
100
AcDbText
  0
TEXT
  5
A8AE
330
A
100
AcDbEntity
  8
LEVEL001
 62
     8
100
AcDbText
 10
1268.800000000101
 20
620.1666666666697
 30
0.0
 40
8.0
  1
　笠木受(ＳＫ１Ａ)･･･アルミ
 41
0.8
100
AcDbText
  0
TEXT
  5
A8AF
330
A
100
AcDbEntity
  8
LEVEL001
 62
     8
100
AcDbText
 10
1268.800000000101
 20
609.4999999999999
 30
0.0
 40
8.0
  1
　アールエンドキャップ(ＲＣ４０)･･･ＡＳＡ
 41
0.8
100
AcDbText
  0
TEXT
  5
A8B0
330
A
100
AcDbEntity
  8
LEVEL001
 62
     8
100
AcDbText
 10
1268.8000000001
 20
598.8333333333248
 30
0.0
 40
8.0
  1
　　(エンドキャップ･･･ＡＳＡ)有
 41
0.8
100
AcDbText
  0
TEXT
  5
A8B9
330
A
100
AcDbEntity
  8
LEVEL001
 62
     8
100
AcDbText
 10
1532.2400000001
 20
190.666666666671
 30
0.0
 40
8.0
  1
平成３０年　７月１９日
 41
0.8
 72
     1
 11
1573.2000000001
 21
194.666666666671
 31
0.0
100
AcDbText
 73
     2
  0
TEXT
  5
A8BA
330
A
100
AcDbEntity
  8
LEVEL001
 62
     8
100
AcDbText
 10
1532.2400000001
 20
164.0000000000009
 30
0.0
 40
8.0
  1
平成　　年　　月　　日
 41
0.8
 72
     1
 11
1573.2000000001
 21
168.0000000000009
 31
0.0
100
AcDbText
 73
     2
  0
TEXT
  5
A8BB
330
A
100
AcDbEntity
  8
LEVEL001
 62
     8
100
AcDbText
 10
1494.2000000001
 20
80.5
 30
0.0
 40
15.0
  1
ＧＳＫ１Ｆ－４
 41
0.8
 72
     1
 11
1543.0000000001
 21
88.0
 31
0.0
100
AcDbText
 73
     2
  0
TEXT
  5
A8BC
330
A
100
AcDbEntity
  8
LEVEL001
 62
     8
100
AcDbText
 10
1532.2400000001
 20
137.3333333333312
 30
0.0
 40
8.0
  1
平成　　年　　月　　日
 41
0.8
 72
     1
 11
1573.2000000001
 21
141.3333333333312
 31
0.0
100
AcDbText
 73
     2
  0
ENDSEC
  0
SECTION
  2
OBJECTS
  0
DICTIONARY
  5
3D
330
0
100
AcDbDictionary
281
     1
  3
ACAD_CIP_PREVIOUS_PRODUCT_INFO
350
3DF0
  3
ACAD_COLOR
350
37EF
  3
ACAD_GROUP
350
3E
  3
ACAD_LAYOUT
350
37F2
  3
ACAD_MATERIAL
350
37EE
  3
ACAD_MLEADERSTYLE
350
3DEB
  3
ACAD_MLINESTYLE
350
3F
  3
ACAD_PLOTSETTINGS
350
37F3
  3
ACAD_PLOTSTYLENAME
350
37EC
  3
ACAD_SCALELIST
350
3DD9
  3
ACAD_TABLESTYLE
350
37F0
  3
ACAD_VISUALSTYLE
350
3DC0
  3
ACDB_RECOMPOSE_DATA
350
1453C
  3
AcDbVariableDictionary
350
380C
  3
DWGPROPS
350
1453D
  0
DICTIONARY
  5
4CA3
330
68
100
AcDbDictionary
280
     1
281
     1
  3
ACAD_LAYERSTATES
360
4CA4
  0
DICTIONARY
  5
473F
330
38
100
AcDbDictionary
280
     1
281
     1
  3
ADSK_XREC_LAYER_RECONCILED
360
4740
  0
DICTIONARY
  5
4741
330
39
100
AcDbDictionary
280
     1
281
     1
  3
ADSK_XREC_LAYER_RECONCILED
360
4742
  0
DICTIONARY
  5
474C
330
474B
100
AcDbDictionary
280
     1
281
     1
  0
DICTIONARY
  5
474E
330
474D
100
AcDbDictionary
280
     1
281
     1
  0
DICTIONARY
  5
4750
330
474F
100
AcDbDictionary
280
     1
281
     1
  0
DICTIONARY
  5
4752
330
4751
100
AcDbDictionary
280
     1
281
     1
  0
DICTIONARY
  5
37FA
330
A
100
AcDbDictionary
280
     1
281
     1
  3
ACAD_SORTENTS
360
37FB
  0
XRECORD
  5
3DF0
102
{ACAD_REACTORS
330
3D
102
}
330
3D
100
AcDbXrecord
280
     1
300
ACDLT
300
2012
300
ACDLT_F_S
  0
DICTIONARY
  5
37EF
102
{ACAD_REACTORS
330
3D
102
}
330
3D
100
AcDbDictionary
281
     1
  0
DICTIONARY
  5
3E
102
{ACAD_REACTORS
330
3D
102
}
330
0
100
AcDbDictionary
281
     1
  0
DICTIONARY
  5
37F2
102
{ACAD_REACTORS
330
3D
102
}
330
3D
100
AcDbDictionary
281
     1
  3
Model
350
37F4
  3
レイアウト1
350
37F5
  0
DICTIONARY
  5
37EE
102
{ACAD_REACTORS
330
3D
102
}
330
3D
100
AcDbDictionary
281
     1
  3
ByBlock
350
3DB0
  3
ByLayer
350
3DA8
  3
Global
350
3DB8
  0
DICTIONARY
  5
3DEB
102
{ACAD_REACTORS
330
3D
102
}
330
3D
100
AcDbDictionary
281
     1
  3
Standard
350
3DEC
  0
DICTIONARY
  5
3F
102
{ACAD_REACTORS
330
3D
102
}
330
0
100
AcDbDictionary
281
     1
  3
STANDARD
350
40
  0
DICTIONARY
  5
37F3
102
{ACAD_REACTORS
330
3D
102
}
330
3D
100
AcDbDictionary
281
     1
  0
ACDBDICTIONARYWDFLT
  5
37EC
102
{ACAD_REACTORS
330
3D
102
}
330
3D
100
AcDbDictionary
281
     1
  3
Normal
350
37ED
100
AcDbDictionaryWithDefault
340
37ED
  0
DICTIONARY
  5
3DD9
102
{ACAD_REACTORS
330
3D
102
}
330
3D
100
AcDbDictionary
281
     1
  3
A0
350
3DDA
  3
A1
350
3DDB
  3
A2
350
3DDC
  3
A3
350
3DDD
  3
A4
350
3DDE
  3
A5
350
3DDF
  3
A6
350
3DE0
  3
A7
350
3DE1
  3
A8
350
3DE2
  3
A9
350
3DE3
  3
B0
350
3DE4
  3
B1
350
3DE5
  3
B2
350
3DE6
  3
B3
350
3DE7
  3
B4
350
3DE8
  3
B5
350
3DE9
  3
B6
350
3DEA
  0
DICTIONARY
  5
37F0
102
{ACAD_REACTORS
330
3D
102
}
330
3D
100
AcDbDictionary
281
     1
  3
Standard
350
37F1
  0
DICTIONARY
  5
3DC0
102
{ACAD_REACTORS
330
3D
102
}
330
3D
100
AcDbDictionary
281
     1
  3
2dWireframe
350
3DC6
  3
Basic
350
3DC5
  3
Brighten
350
3DCC
  3
ColorChange
350
3DD0
  3
Conceptual
350
3DC9
  3
Dim
350
3DCB
  3
EdgeColorOff
350
3DD8
  3
Facepattern
350
3DCF
  3
Flat
350
3DC1
  3
FlatWithEdges
350
3DC2
  3
Gouraud
350
3DC3
  3
GouraudWithEdges
350
3DC4
  3
Hidden
350
3DC8
  3
JitterOff
350
3DD6
  3
Linepattern
350
3DCE
  3
OverhangOff
350
3DD7
  3
Realistic
350
3DCA
  3
Shaded
350
3DD5
  3
Shaded with edges
350
3DD4
  3
Shades of Gray
350
3DD1
  3
Sketchy
350
3DD2
  3
Thicken
350
3DCD
  3
Wireframe
350
3DC7
  3
X-Ray
350
3DD3
  0
XRECORD
  5
1453C
102
{ACAD_REACTORS
330
3D
102
}
330
3D
100
AcDbXrecord
280
     1
 90
        1
330
37F1
  0
DICTIONARY
  5
380C
102
{ACAD_REACTORS
330
3D
102
}
330
3D
100
AcDbDictionary
281
     1
  3
CANNOSCALE
350
4DD1
  3
CMLEADERSTYLE
350
4DCF
  3
CTABLESTYLE
350
380D
  3
DIMASSOC
350
3868
  3
INDEXCTL
350
14536
  3
LAYEREVAL
350
4DD3
  3
LAYERNOTIFY
350
4DD4
  3
LIGHTINGUNITS
350
4DD2
  3
MSLTSCALE
350
4DD0
  3
PROJECTNAME
350
3869
  3
SORTENTS
350
14535
  3
XCLIPFRAME
350
14537
  0
XRECORD
  5
1453D
102
{ACAD_REACTORS
330
3D
102
}
330
3D
100
AcDbXrecord
280
     1
  1
DWGPROPS COOKIE
  2

  3

  4

  6

  7

  8
kg-paltec
  9

300
=
301
=
302
=
303
=
304
=
305
=
306
=
307
=
308
=
309
=
 40
0.3948175694444445
 41
2451212.682759178
 42
2458321.560104062
  1

 90
        0
  0
DICTIONARY
  5
4CA4
102
{ACAD_REACTORS
330
4CA3
102
}
330
4CA3
100
AcDbDictionary
281
     1
  0
XRECORD
  5
4740
102
{ACAD_REACTORS
330
473F
102
}
330
473F
100
AcDbXrecord
280
     1
290
     1
  0
XRECORD
  5
4742
102
{ACAD_REACTORS
330
4741
102
}
330
4741
100
AcDbXrecord
280
     1
290
     1
  0
SORTENTSTABLE
  5
37FB
102
{ACAD_REACTORS
330
37FA
102
}
330
37FA
100
AcDbSortentsTable
330
A
331
2CA6
  5
2CB9
331
2D38
  5
2D4C
331
2CFE
  5
2D12
331
2C92
  5
2CA4
331
2D6F
  5
2D88
331
2CF4
  5
2D08
331
2C88
  5
2C9A
331
2CFD
  5
2D11
331
2C91
  5
2CA3
331
2CAE
  5
2CC1
331
2D37
  5
2D4B
331
2D49
  5
2D5E
331
2D10
  5
2D24
331
2CFC
  5
2D10
331
2C90
  5
2CA2
331
2C3A
  5
2C4B
331
2C69
  5
2C7B
331
2CD5
  5
2CE9
331
2C42
  5
2C53
331
2CB7
  5
2CCA
331
2C4B
  5
2C5C
331
2D17
  5
2D2B
331
2D28
  5
2D3C
331
2D50
  5
2D65
331
2C70
  5
2C82
331
2CDC
  5
2CF0
331
2D1F
  5
2D33
331
2CC8
  5
2CDB
331
2CBE
  5
2CD1
331
2C52
  5
2C63
331
2D60
  5
2D75
331
2CC7
  5
2CDA
331
2CE4
  5
2CF8
331
2CED
  5
2D01
331
2D2F
  5
2D43
331
2C5C
  5
2C6D
331
2C9F
  5
2CB2
331
2C33
  5
2C44
331
2CC6
  5
2CD9
331
2D71
  5
2D8A
331
2C5B
  5
2C6C
331
2C78
  5
2C8A
331
2C81
  5
2C93
331
2D39
  5
2D4D
331
2D67
  5
2D7C
331
2D70
  5
2D89
331
2C5A
  5
2C6B
  0
LAYOUT
  5
37F4
102
{ACAD_XDICTIONARY
360
4CA9
102
}
102
{ACAD_REACTORS
330
37F2
102
}
330
37F2
100
AcDbPlotSettings
  1

  2
クセロPDF2
  4
A4
  6

 40
3.174999952316284
 41
3.174999952316284
 42
3.175003051757812
 43
3.17498779296875
 44
209.9733276367187
 45
296.9259948730469
 46
0.0
 47
0.0
 48
0.0
 49
0.0
140
0.0
141
0.0
142
1.0
143
1469.220105060981
 70
 11952
 72
     0
 73
     1
 74
     0
  7

 75
     0
147
0.0006806332125155
148
192124.0556615123
149
1341.521742125432
100
AcDbLayout
  1
Model
 70
     1
 71
     0
 10
0.0
 20
0.0
 11
12.0
 21
9.0
 12
0.0
 22
0.0
 32
0.0
 14
0.0
 24
0.0
 34
0.0
 15
0.0
 25
0.0
 35
0.0
146
0.0
 13
0.0
 23
0.0
 33
0.0
 16
1.0
 26
0.0
 36
0.0
 17
0.0
 27
1.0
 37
0.0
 76
     0
330
A
331
3DA1
1001
ACAD_PSEXT
1000
クセロPDF2
1000
XeloPDF2
1000
Xelo PDF Port2
1000

1070
     0
  0
LAYOUT
  5
37F5
102
{ACAD_XDICTIONARY
360
14540
102
}
102
{ACAD_REACTORS
330
37F2
102
}
330
37F2
100
AcDbPlotSettings
  1

  2
クセロPDF2
  4

  6

 40
0.0
 41
0.0
 42
0.0
 43
0.0
 44
0.0
 45
0.0
 46
0.0
 47
0.0
 48
0.0
 49
0.0
140
0.0
141
0.0
142
1.0
143
1.0
 70
   688
 72
     0
 73
     0
 74
     5
  7

 75
    16
147
1.0
148
0.0
149
0.0
100
AcDbLayout
  1
レイアウト1
 70
     1
 71
     1
 10
0.0
 20
0.0
 11
12.0
 21
9.0
 12
0.0
 22
0.0
 32
0.0
 14
1.000000000000000E+20
 24
1.000000000000000E+20
 34
1.000000000000000E+20
 15
-1.000000000000000E+20
 25
-1.000000000000000E+20
 35
-1.000000000000000E+20
146
0.0
 13
0.0
 23
0.0
 33
0.0
 16
1.0
 26
0.0
 36
0.0
 17
0.0
 27
1.0
 37
0.0
 76
     0
330
B
  0
MATERIAL
  5
3DB0
102
{ACAD_XDICTIONARY
360
3DB1
102
}
102
{ACAD_REACTORS
330
37EE
102
}
330
37EE
100
AcDbMaterial
  1
ByBlock
 72
     0
 43
0.0208333333333333
 43
0.0
 43
0.0
 43
0.0
 43
0.0
 43
0.0208333333333333
 43
0.0
 43
0.0
 43
0.0
 43
0.0
 43
1.0
 43
0.0
 43
0.0
 43
0.0
 43
0.0
 43
1.0
 77
     0
 47
0.0208333333333333
 47
0.0
 47
0.0
 47
0.0
 47
0.0
 47
0.0208333333333333
 47
0.0
 47
0.0
 47
0.0
 47
0.0
 47
1.0
 47
0.0
 47
0.0
 47
0.0
 47
0.0
 47
1.0
171
     0
 49
0.0208333333333333
 49
0.0
 49
0.0
 49
0.0
 49
0.0
 49
0.0208333333333333
 49
0.0
 49
0.0
 49
0.0
 49
0.0
 49
1.0
 49
0.0
 49
0.0
 49
0.0
 49
0.0
 49
1.0
175
     0
142
0.0208333333333333
142
0.0
142
0.0
142
0.0
142
0.0
142
0.0208333333333333
142
0.0
142
0.0
142
0.0
142
0.0
142
1.0
142
0.0
142
0.0
142
0.0
142
0.0
142
1.0
179
     0
144
0.0208333333333333
144
0.0
144
0.0
144
0.0
144
0.0
144
0.0208333333333333
144
0.0
144
0.0
144
0.0
144
0.0
144
1.0
144
0.0
144
0.0
144
0.0
144
0.0
144
1.0
147
0.0208333333333333
147
0.0
147
0.0
147
0.0
147
0.0
147
0.0208333333333333
147
0.0
147
0.0
147
0.0
147
0.0
147
1.0
147
0.0
147
0.0
147
0.0
147
0.0
147
1.0
  0
MATERIAL
  5
3DA8
102
{ACAD_XDICTIONARY
360
3DA9
102
}
102
{ACAD_REACTORS
330
37EE
102
}
330
37EE
100
AcDbMaterial
  1
ByLayer
 72
     0
 43
0.0208333333333333
 43
0.0
 43
0.0
 43
0.0
 43
0.0
 43
0.0208333333333333
 43
0.0
 43
0.0
 43
0.0
 43
0.0
 43
1.0
 43
0.0
 43
0.0
 43
0.0
 43
0.0
 43
1.0
 77
     0
 47
0.0208333333333333
 47
0.0
 47
0.0
 47
0.0
 47
0.0
 47
0.0208333333333333
 47
0.0
 47
0.0
 47
0.0
 47
0.0
 47
1.0
 47
0.0
 47
0.0
 47
0.0
 47
0.0
 47
1.0
171
     0
 49
0.0208333333333333
 49
0.0
 49
0.0
 49
0.0
 49
0.0
 49
0.0208333333333333
 49
0.0
 49
0.0
 49
0.0
 49
0.0
 49
1.0
 49
0.0
 49
0.0
 49
0.0
 49
0.0
 49
1.0
175
     0
142
0.0208333333333333
142
0.0
142
0.0
142
0.0
142
0.0
142
0.0208333333333333
142
0.0
142
0.0
142
0.0
142
0.0
142
1.0
142
0.0
142
0.0
142
0.0
142
0.0
142
1.0
179
     0
144
0.0208333333333333
144
0.0
144
0.0
144
0.0
144
0.0
144
0.0208333333333333
144
0.0
144
0.0
144
0.0
144
0.0
144
1.0
144
0.0
144
0.0
144
0.0
144
0.0
144
1.0
147
0.0208333333333333
147
0.0
147
0.0
147
0.0
147
0.0
147
0.0208333333333333
147
0.0
147
0.0
147
0.0
147
0.0
147
1.0
147
0.0
147
0.0
147
0.0
147
0.0
147
1.0
  0
MATERIAL
  5
3DB8
102
{ACAD_XDICTIONARY
360
3DB9
102
}
102
{ACAD_REACTORS
330
37EE
102
}
330
37EE
100
AcDbMaterial
  1
Global
 72
     0
 43
0.0208333333333333
 43
0.0
 43
0.0
 43
0.0
 43
0.0
 43
0.0208333333333333
 43
0.0
 43
0.0
 43
0.0
 43
0.0
 43
1.0
 43
0.0
 43
0.0
 43
0.0
 43
0.0
 43
1.0
 77
     0
 47
0.0208333333333333
 47
0.0
 47
0.0
 47
0.0
 47
0.0
 47
0.0208333333333333
 47
0.0
 47
0.0
 47
0.0
 47
0.0
 47
1.0
 47
0.0
 47
0.0
 47
0.0
 47
0.0
 47
1.0
171
     0
 49
0.0208333333333333
 49
0.0
 49
0.0
 49
0.0
 49
0.0
 49
0.0208333333333333
 49
0.0
 49
0.0
 49
0.0
 49
0.0
 49
1.0
 49
0.0
 49
0.0
 49
0.0
 49
0.0
 49
1.0
175
     0
142
0.0208333333333333
142
0.0
142
0.0
142
0.0
142
0.0
142
0.0208333333333333
142
0.0
142
0.0
142
0.0
142
0.0
142
1.0
142
0.0
142
0.0
142
0.0
142
0.0
142
1.0
179
     0
144
0.0208333333333333
144
0.0
144
0.0
144
0.0
144
0.0
144
0.0208333333333333
144
0.0
144
0.0
144
0.0
144
0.0
144
1.0
144
0.0
144
0.0
144
0.0
144
0.0
144
1.0
147
0.0208333333333333
147
0.0
147
0.0
147
0.0
147
0.0
147
0.0208333333333333
147
0.0
147
0.0
147
0.0
147
0.0
147
1.0
147
0.0
147
0.0
147
0.0
147
0.0
147
1.0
  0
MLEADERSTYLE
  5
3DEC
102
{ACAD_XDICTIONARY
360
1453A
102
}
102
{ACAD_REACTORS
330
3DEB
102
}
330
3DEB
100
AcDbMLeaderStyle
170
     2
171
     1
172
     0
 90
        2
 40
0.0
 41
0.0
173
     1
 91
-1056964608
340
1D
 92
       -2
290
     1
 42
0.09
291
     1
 43
0.36
  3
Standard
 44
0.18
300

342
7
174
     1
178
     6
175
     1
176
     0
 93
-1056964608
 45
0.18
292
     0
297
     0
 46
0.18
 94
-1056964608
 47
1.0
 49
1.0
140
1.0
293
     1
141
0.0
294
     1
177
     0
142
1.0
295
     0
296
     0
143
0.125
1001
ACAD_MLEADERVER
1070
     2
  0
MLINESTYLE
  5
40
102
{ACAD_REACTORS
330
3F
102
}
330
0
100
AcDbMlineStyle
  2
STANDARD
 70
     0
  3

 62
   256
 51
90.0
 52
90.0
 71
     2
 49
0.5
 62
   256
  6
BYLAYER
 49
-0.5
 62
   256
  6
BYLAYER
  0
ACDBPLACEHOLDER
  5
37ED
102
{ACAD_REACTORS
330
37EC
102
}
330
37EC
  0
SCALE
  5
3DDA
102
{ACAD_REACTORS
330
3DD9
102
}
330
3DD9
100
AcDbScale
 70
     0
300
1:1
140
1.0
141
1.0
290
     1
  0
SCALE
  5
3DDB
102
{ACAD_REACTORS
330
3DD9
102
}
330
3DD9
100
AcDbScale
 70
     0
300
1/128" = 1'-0"
140
0.0078125
141
12.0
290
     0
  0
SCALE
  5
3DDC
102
{ACAD_REACTORS
330
3DD9
102
}
330
3DD9
100
AcDbScale
 70
     0
300
1/64" = 1'-0"
140
0.015625
141
12.0
290
     0
  0
SCALE
  5
3DDD
102
{ACAD_REACTORS
330
3DD9
102
}
330
3DD9
100
AcDbScale
 70
     0
300
1/32" = 1'-0"
140
0.03125
141
12.0
290
     0
  0
SCALE
  5
3DDE
102
{ACAD_REACTORS
330
3DD9
102
}
330
3DD9
100
AcDbScale
 70
     0
300
1/16" = 1'-0"
140
0.0625
141
12.0
290
     0
  0
SCALE
  5
3DDF
102
{ACAD_REACTORS
330
3DD9
102
}
330
3DD9
100
AcDbScale
 70
     0
300
3/32" = 1'-0"
140
0.09375
141
12.0
290
     0
  0
SCALE
  5
3DE0
102
{ACAD_REACTORS
330
3DD9
102
}
330
3DD9
100
AcDbScale
 70
     0
300
1/8" = 1'-0"
140
0.125
141
12.0
290
     0
  0
SCALE
  5
3DE1
102
{ACAD_REACTORS
330
3DD9
102
}
330
3DD9
100
AcDbScale
 70
     0
300
3/16" = 1'-0"
140
0.1875
141
12.0
290
     0
  0
SCALE
  5
3DE2
102
{ACAD_REACTORS
330
3DD9
102
}
330
3DD9
100
AcDbScale
 70
     0
300
1/4" = 1'-0"
140
0.25
141
12.0
290
     0
  0
SCALE
  5
3DE3
102
{ACAD_REACTORS
330
3DD9
102
}
330
3DD9
100
AcDbScale
 70
     0
300
3/8" = 1'-0"
140
0.375
141
12.0
290
     0
  0
SCALE
  5
3DE4
102
{ACAD_REACTORS
330
3DD9
102
}
330
3DD9
100
AcDbScale
 70
     0
300
1/2" = 1'-0"
140
0.5
141
12.0
290
     0
  0
SCALE
  5
3DE5
102
{ACAD_REACTORS
330
3DD9
102
}
330
3DD9
100
AcDbScale
 70
     0
300
3/4" = 1'-0"
140
0.75
141
12.0
290
     0
  0
SCALE
  5
3DE6
102
{ACAD_REACTORS
330
3DD9
102
}
330
3DD9
100
AcDbScale
 70
     0
300
1" = 1'-0"
140
1.0
141
12.0
290
     0
  0
SCALE
  5
3DE7
102
{ACAD_REACTORS
330
3DD9
102
}
330
3DD9
100
AcDbScale
 70
     0
300
1-1/2" = 1'-0"
140
1.5
141
12.0
290
     0
  0
SCALE
  5
3DE8
102
{ACAD_REACTORS
330
3DD9
102
}
330
3DD9
100
AcDbScale
 70
     0
300
3" = 1'-0"
140
3.0
141
12.0
290
     0
  0
SCALE
  5
3DE9
102
{ACAD_REACTORS
330
3DD9
102
}
330
3DD9
100
AcDbScale
 70
     0
300
6" = 1'-0"
140
6.0
141
12.0
290
     0
  0
SCALE
  5
3DEA
102
{ACAD_REACTORS
330
3DD9
102
}
330
3DD9
100
AcDbScale
 70
     0
300
1'-0" = 1'-0"
140
12.0
141
12.0
290
     0
  0
TABLESTYLE
  5
37F1
102
{ACAD_XDICTIONARY
360
14538
102
}
102
{ACAD_REACTORS
330
37F0
102
}
330
37F0
100
AcDbTableStyle
  3
Standard
 70
     0
 71
     0
 40
0.06
 41
0.06
280
     0
281
     0
  7
STANDARD
140
0.18
170
     2
 62
     0
 63
     7
283
     0
274
    -2
284
     1
 64
     0
275
    -2
285
     1
 65
     0
276
    -2
286
     1
 66
     0
277
    -2
287
     1
 67
     0
278
    -2
288
     1
 68
     0
279
    -2
289
     1
 69
     0
  7
STANDARD
140
0.25
170
     5
 62
     0
 63
     7
283
     0
274
    -2
284
     1
 64
     0
275
    -2
285
     1
 65
     0
276
    -2
286
     1
 66
     0
277
    -2
287
     1
 67
     0
278
    -2
288
     1
 68
     0
279
    -2
289
     1
 69
     0
  7
STANDARD
140
0.18
170
     5
 62
     0
 63
     7
283
     0
274
    -2
284
     1
 64
     0
275
    -2
285
     1
 65
     0
276
    -2
286
     1
 66
     0
277
    -2
287
     1
 67
     0
278
    -2
288
     1
 68
     0
279
    -2
289
     1
 69
     0
  0
VISUALSTYLE
  5
3DC6
102
{ACAD_XDICTIONARY
360
1454F
102
}
102
{ACAD_REACTORS
330
3DC0
102
}
330
3DC0
100
AcDbVisualStyle
  2
2dWireframe
 70
     4
 71
     0
 72
     2
 73
     0
 90
        0
 40
-0.6
 41
-30.0
 62
     5
 63
     7
 74
     1
 91
        4
 64
     7
 65
   257
 75
     1
175
     1
 42
1.0
 92
        0
 66
   257
 43
1.0
 76
     1
 77
     6
 78
     2
 67
     7
 79
     5
170
     0
171
     0
290
     0
174
     0
 93
        1
 44
0.0
173
     0
291
     0
 45
0.0
1001
ACAD
1000
AcDbSavedByObjectVersion
1070
     0
  0
VISUALSTYLE
  5
3DC5
102
{ACAD_XDICTIONARY
360
1454D
102
}
102
{ACAD_REACTORS
330
3DC0
102
}
330
3DC0
100
AcDbVisualStyle
  2
Basic
 70
     7
 71
     1
 72
     0
 73
     1
 90
        0
 40
-0.6
 41
-30.0
 62
     5
 63
     7
 74
     0
 91
        4
 64
     7
 65
   257
 75
     1
175
     1
 42
1.0
 92
        8
 66
     7
 43
1.0
 76
     1
 77
     6
 78
     2
 67
     7
 79
     5
170
     0
171
     0
290
     0
174
     0
 93
        1
 44
0.0
173
     0
291
     1
 45
0.0
1001
ACAD
1000
AcDbSavedByObjectVersion
1070
     0
  0
VISUALSTYLE
  5
3DCC
102
{ACAD_XDICTIONARY
360
1455B
102
}
102
{ACAD_REACTORS
330
3DC0
102
}
330
3DC0
100
AcDbVisualStyle
  2
Brighten
 70
    12
 71
     2
 72
     2
 73
     0
 90
        0
 40
-0.6
 41
-30.0
 62
     5
 63
     7
 74
     1
 91
        4
 64
     7
 65
   257
 75
     1
175
     1
 42
1.0
 92
        8
 66
     7
 43
1.0
 76
     1
 77
     6
 78
     2
 67
     7
 79
     5
170
     0
171
     0
290
     0
174
     0
 93
        1
 44
50.0
173
     0
291
     1
 45
0.0
1001
ACAD
1000
AcDbSavedByObjectVersion
1070
     0
  0
VISUALSTYLE
  5
3DD0
102
{ACAD_XDICTIONARY
360
14563
102
}
102
{ACAD_REACTORS
330
3DC0
102
}
330
3DC0
100
AcDbVisualStyle
  2
ColorChange
 70
    16
 71
     2
 72
     2
 73
     3
 90
        0
 40
-0.6
 41
-30.0
 62
     5
 63
     8
 74
     1
 91
        4
 64
     7
 65
   257
 75
     1
175
     1
 42
1.0
 92
        8
 66
     8
 43
1.0
 76
     1
 77
     6
 78
     2
 67
     7
 79
     5
170
     0
171
     0
290
     0
174
     0
 93
        1
 44
0.0
173
     0
291
     1
 45
0.0
1001
ACAD
1000
AcDbSavedByObjectVersion
1070
     0
  0
VISUALSTYLE
  5
3DC9
102
{ACAD_XDICTIONARY
360
14555
102
}
102
{ACAD_REACTORS
330
3DC0
102
}
330
3DC0
100
AcDbVisualStyle
  2
Conceptual
 70
     9
 71
     3
 72
     2
 73
     0
 90
        0
 40
-0.6
 41
-30.0
 62
     5
 63
     7
 74
     2
 91
        2
 64
     7
 65
   257
 75
     1
175
     1
 42
179.0
 92
        8
 66
     7
 43
1.0
 76
     1
 77
     6
 78
     2
 67
     7
 79
     3
170
     0
171
     0
290
     0
174
     0
 93
        1
 44
0.0
173
     0
291
     0
 45
0.0
1001
ACAD
1000
AcDbSavedByObjectVersion
1070
     0
  0
VISUALSTYLE
  5
3DCB
102
{ACAD_XDICTIONARY
360
14559
102
}
102
{ACAD_REACTORS
330
3DC0
102
}
330
3DC0
100
AcDbVisualStyle
  2
Dim
 70
    11
 71
     2
 72
     2
 73
     0
 90
        0
 40
-0.6
 41
-30.0
 62
     5
 63
     7
 74
     1
 91
        4
 64
     7
 65
   257
 75
     1
175
     1
 42
1.0
 92
        8
 66
     7
 43
1.0
 76
     1
 77
     6
 78
     2
 67
     7
 79
     5
170
     0
171
     0
290
     0
174
     0
 93
        1
 44
-50.0
173
     0
291
     1
 45
0.0
1001
ACAD
1000
AcDbSavedByObjectVersion
1070
     0
  0
VISUALSTYLE
  5
3DD8
102
{ACAD_XDICTIONARY
360
14573
102
}
102
{ACAD_REACTORS
330
3DC0
102
}
330
3DC0
100
AcDbVisualStyle
  2
EdgeColorOff
 70
    22
 71
     2
 72
     2
 73
     0
 90
        0
 40
-0.6
 41
-30.0
 62
     5
 63
     7
 74
     1
 91
        4
 64
     7
 65
   257
 75
     1
175
     1
 42
1.0
 92
        8
 66
     7
 43
1.0
 76
     1
 77
     6
 78
     2
 67
     7
 79
     5
170
     0
171
     0
290
     0
174
     0
 93
        1
 44
0.0
173
     0
291
     1
 45
0.0
1001
ACAD
1000
AcDbSavedByObjectVersion
1070
     0
  0
VISUALSTYLE
  5
3DCF
102
{ACAD_XDICTIONARY
360
14561
102
}
102
{ACAD_REACTORS
330
3DC0
102
}
330
3DC0
100
AcDbVisualStyle
  2
Facepattern
 70
    15
 71
     2
 72
     2
 73
     0
 90
        0
 40
-0.6
 41
-30.0
 62
     5
 63
     7
 74
     1
 91
        4
 64
     7
 65
   257
 75
     1
175
     1
 42
1.0
 92
        8
 66
     7
 43
1.0
 76
     1
 77
     6
 78
     2
 67
     7
 79
     5
170
     0
171
     0
290
     0
174
     0
 93
        1
 44
0.0
173
     0
291
     1
 45
0.0
1001
ACAD
1000
AcDbSavedByObjectVersion
1070
     0
  0
VISUALSTYLE
  5
3DC1
102
{ACAD_XDICTIONARY
360
14545
102
}
102
{ACAD_REACTORS
330
3DC0
102
}
330
3DC0
100
AcDbVisualStyle
  2
Flat
 70
     0
 71
     2
 72
     1
 73
     1
 90
        2
 40
-0.6
 41
30.0
 62
     5
 63
     7
 74
     0
 91
        0
 64
     7
 65
   257
 75
     1
175
     1
 42
1.0
 92
        8
 66
     7
 43
1.0
 76
     1
 77
     6
 78
     2
 67
     7
 79
     5
170
     0
171
     0
290
     0
174
     0
 93
       13
 44
0.0
173
     0
291
     1
 45
0.0
1001
ACAD
1000
AcDbSavedByObjectVersion
1070
     0
  0
VISUALSTYLE
  5
3DC2
102
{ACAD_XDICTIONARY
360
14547
102
}
102
{ACAD_REACTORS
330
3DC0
102
}
330
3DC0
100
AcDbVisualStyle
  2
FlatWithEdges
 70
     1
 71
     2
 72
     1
 73
     1
 90
        2
 40
-0.6
 41
30.0
 62
     5
 63
     7
 74
     1
 91
        0
 64
     7
 65
   257
 75
     1
175
     1
 42
1.0
 92
        0
 66
   257
 43
1.0
 76
     1
 77
     6
 78
     2
 67
     7
 79
     5
170
     0
171
     0
290
     0
174
     0
 93
       13
 44
0.0
173
     0
291
     1
 45
0.0
1001
ACAD
1000
AcDbSavedByObjectVersion
1070
     0
  0
VISUALSTYLE
  5
3DC3
102
{ACAD_XDICTIONARY
360
14549
102
}
102
{ACAD_REACTORS
330
3DC0
102
}
330
3DC0
100
AcDbVisualStyle
  2
Gouraud
 70
     2
 71
     2
 72
     2
 73
     1
 90
        2
 40
-0.6
 41
30.0
 62
     5
 63
     7
 74
     0
 91
        0
 64
     7
 65
   257
 75
     1
175
     1
 42
1.0
 92
        0
 66
     7
 43
1.0
 76
     1
 77
     6
 78
     2
 67
     7
 79
     5
170
     0
171
     0
290
     0
174
     0
 93
       13
 44
0.0
173
     0
291
     1
 45
0.0
1001
ACAD
1000
AcDbSavedByObjectVersion
1070
     0
  0
VISUALSTYLE
  5
3DC4
102
{ACAD_XDICTIONARY
360
1454B
102
}
102
{ACAD_REACTORS
330
3DC0
102
}
330
3DC0
100
AcDbVisualStyle
  2
GouraudWithEdges
 70
     3
 71
     2
 72
     2
 73
     1
 90
        2
 40
-0.6
 41
30.0
 62
     5
 63
     7
 74
     1
 91
        0
 64
     7
 65
   257
 75
     1
175
     1
 42
1.0
 92
        0
 66
   257
 43
1.0
 76
     1
 77
     6
 78
     2
 67
     7
 79
     5
170
     0
171
     0
290
     0
174
     0
 93
       13
 44
0.0
173
     0
291
     1
 45
0.0
1001
ACAD
1000
AcDbSavedByObjectVersion
1070
     0
  0
VISUALSTYLE
  5
3DC8
102
{ACAD_XDICTIONARY
360
14553
102
}
102
{ACAD_REACTORS
330
3DC0
102
}
330
3DC0
100
AcDbVisualStyle
  2
Hidden
 70
     6
 71
     1
 72
     2
 73
     2
 90
        0
 40
-0.6
 41
-30.0
 62
     5
 63
     7
 74
     2
 91
        2
 64
     7
 65
   257
 75
     2
175
     1
 42
40.0
 92
        0
 66
   257
 43
1.0
 76
     1
 77
     6
 78
     2
 67
     7
 79
     3
170
     0
171
     0
290
     0
174
     0
 93
        1
 44
0.0
173
     0
291
     0
 45
0.0
1001
ACAD
1000
AcDbSavedByObjectVersion
1070
     0
  0
VISUALSTYLE
  5
3DD6
102
{ACAD_XDICTIONARY
360
1456F
102
}
102
{ACAD_REACTORS
330
3DC0
102
}
330
3DC0
100
AcDbVisualStyle
  2
JitterOff
 70
    20
 71
     2
 72
     2
 73
     0
 90
        0
 40
-0.6
 41
-30.0
 62
     5
 63
     7
 74
     1
 91
        4
 64
     7
 65
   257
 75
     1
175
     1
 42
1.0
 92
       10
 66
     7
 43
1.0
 76
     1
 77
     6
 78
     2
 67
     7
 79
     5
170
     0
171
     0
290
     0
174
     0
 93
        1
 44
0.0
173
     0
291
     1
 45
0.0
1001
ACAD
1000
AcDbSavedByObjectVersion
1070
     0
  0
VISUALSTYLE
  5
3DCE
102
{ACAD_XDICTIONARY
360
1455F
102
}
102
{ACAD_REACTORS
330
3DC0
102
}
330
3DC0
100
AcDbVisualStyle
  2
Linepattern
 70
    14
 71
     2
 72
     2
 73
     0
 90
        0
 40
-0.6
 41
-30.0
 62
     5
 63
     7
 74
     1
 91
        4
 64
     7
 65
   257
 75
     7
175
     7
 42
1.0
 92
        8
 66
     7
 43
1.0
 76
     1
 77
     6
 78
     2
 67
     7
 79
     5
170
     0
171
     0
290
     0
174
     0
 93
        1
 44
0.0
173
     0
291
     1
 45
0.0
1001
ACAD
1000
AcDbSavedByObjectVersion
1070
     0
  0
VISUALSTYLE
  5
3DD7
102
{ACAD_XDICTIONARY
360
14571
102
}
102
{ACAD_REACTORS
330
3DC0
102
}
330
3DC0
100
AcDbVisualStyle
  2
OverhangOff
 70
    21
 71
     2
 72
     2
 73
     0
 90
        0
 40
-0.6
 41
-30.0
 62
     5
 63
     7
 74
     1
 91
        4
 64
     7
 65
   257
 75
     1
175
     1
 42
1.0
 92
        9
 66
     7
 43
1.0
 76
     1
 77
     6
 78
     2
 67
     7
 79
     5
170
     0
171
     0
290
     0
174
     0
 93
        1
 44
0.0
173
     0
291
     1
 45
0.0
1001
ACAD
1000
AcDbSavedByObjectVersion
1070
     0
  0
VISUALSTYLE
  5
3DCA
102
{ACAD_XDICTIONARY
360
14557
102
}
102
{ACAD_REACTORS
330
3DC0
102
}
330
3DC0
100
AcDbVisualStyle
  2
Realistic
 70
     8
 71
     2
 72
     3
 73
     0
 90
        2
 40
-0.6
 41
30.0
 62
     5
 63
     7
 74
     0
 91
        0
 64
     7
 65
   257
 75
     1
175
     1
 42
1.0
 92
        8
 66
   257
 43
1.0
 76
     1
 77
     6
 78
     2
 67
     7
 79
     3
170
     0
171
     0
290
     0
174
     0
 93
       13
 44
0.0
173
     0
291
     0
 45
0.0
1001
ACAD
1000
AcDbSavedByObjectVersion
1070
     0
  0
VISUALSTYLE
  5
3DD5
102
{ACAD_XDICTIONARY
360
1456D
102
}
102
{ACAD_REACTORS
330
3DC0
102
}
330
3DC0
100
AcDbVisualStyle
  2
Shaded
 70
    27
 71
     2
 72
     2
 73
     1
 90
        2
 40
-0.6
 41
30.0
 62
     5
 63
     7
 74
     0
 91
        4
 64
     7
 65
   257
 75
     1
175
     1
 42
1.0
 92
        8
 66
   257
 43
1.0
 76
     1
 77
     6
 78
     2
 67
     8
 79
     3
170
     0
171
     0
290
     0
174
     0
 93
        5
 44
0.0
173
     0
291
     0
 45
0.0
1001
ACAD
1000
AcDbSavedByObjectVersion
1070
     0
  0
VISUALSTYLE
  5
3DD4
102
{ACAD_XDICTIONARY
360
1456B
102
}
102
{ACAD_REACTORS
330
3DC0
102
}
330
3DC0
100
AcDbVisualStyle
  2
Shaded with edges
 70
    26
 71
     2
 72
     2
 73
     1
 90
        2
 40
-0.6
 41
30.0
 62
     5
 63
     7
 74
     1
 91
       10
 64
     7
 65
   257
 75
     2
175
     1
 42
1.0
 92
        8
 66
   257
 43
1.0
 76
     1
 77
     6
 78
     2
 67
     7
 79
     3
170
     0
171
     0
290
     0
174
     0
 93
        5
 44
0.0
173
     0
291
     0
 45
0.0
1001
ACAD
1000
AcDbSavedByObjectVersion
1070
     0
  0
VISUALSTYLE
  5
3DD1
102
{ACAD_XDICTIONARY
360
14565
102
}
102
{ACAD_REACTORS
330
3DC0
102
}
330
3DC0
100
AcDbVisualStyle
  2
Shades of Gray
 70
    23
 71
     2
 72
     2
 73
     3
 90
        0
 40
-0.6
 41
-30.0
 62
     5
 63
     7
 74
     2
 91
        2
 64
     7
 65
     7
 75
     1
175
     1
 42
40.0
 92
        8
 66
     7
 43
1.0
 76
     1
 77
     6
 78
     2
 67
     7
 79
     3
170
     0
171
     0
290
     0
174
     0
 93
        1
 44
0.0
173
     0
291
     0
 45
0.0
1001
ACAD
1000
AcDbSavedByObjectVersion
1070
     0
  0
VISUALSTYLE
  5
3DD2
102
{ACAD_XDICTIONARY
360
14567
102
}
102
{ACAD_REACTORS
330
3DC0
102
}
330
3DC0
100
AcDbVisualStyle
  2
Sketchy
 70
    24
 71
     1
 72
     2
 73
     2
 90
        0
 40
-0.6
 41
-30.0
 62
     5
 63
     7
 74
     2
 91
        2
 64
     7
 65
     7
 75
     1
175
     1
 42
40.0
 92
       11
 66
     7
 43
1.0
 76
     1
 77
     6
 78
     2
 67
     7
 79
     6
170
     0
171
     0
290
     0
174
     0
 93
        1
 44
0.0
173
     0
291
     0
 45
0.0
1001
ACAD
1000
AcDbSavedByObjectVersion
1070
     0
  0
VISUALSTYLE
  5
3DCD
102
{ACAD_XDICTIONARY
360
1455D
102
}
102
{ACAD_REACTORS
330
3DC0
102
}
330
3DC0
100
AcDbVisualStyle
  2
Thicken
 70
    13
 71
     2
 72
     2
 73
     0
 90
        0
 40
-0.6
 41
-30.0
 62
     5
 63
     7
 74
     1
 91
        4
 64
     7
 65
   257
 75
     1
175
     1
 42
1.0
 92
       12
 66
     7
 43
1.0
 76
     1
 77
     6
 78
     2
 67
     7
 79
     5
170
     0
171
     0
290
     0
174
     0
 93
        1
 44
0.0
173
     0
291
     1
 45
0.0
1001
ACAD
1000
AcDbSavedByObjectVersion
1070
     0
  0
VISUALSTYLE
  5
3DC7
102
{ACAD_XDICTIONARY
360
14551
102
}
102
{ACAD_REACTORS
330
3DC0
102
}
330
3DC0
100
AcDbVisualStyle
  2
Wireframe
 70
     5
 71
     0
 72
     2
 73
     0
 90
        0
 40
-0.6
 41
-30.0
 62
     5
 63
     7
 74
     1
 91
        4
 64
     7
 65
   257
 75
     1
175
     1
 42
1.0
 92
        0
 66
   257
 43
1.0
 76
     1
 77
     6
 78
     2
 67
     7
 79
     3
170
     0
171
     0
290
     0
174
     0
 93
        1
 44
0.0
173
     0
291
     0
 45
0.0
1001
ACAD
1000
AcDbSavedByObjectVersion
1070
     0
  0
VISUALSTYLE
  5
3DD3
102
{ACAD_XDICTIONARY
360
14569
102
}
102
{ACAD_REACTORS
330
3DC0
102
}
330
3DC0
100
AcDbVisualStyle
  2
X-Ray
 70
    25
 71
     2
 72
     2
 73
     1
 90
        1
 40
0.5
 41
-30.0
 62
     5
 63
     7
 74
     1
 91
        0
 64
     7
 65
   257
 75
     1
175
     1
 42
1.0
 92
        8
 66
     7
 43
1.0
 76
     1
 77
     6
 78
     2
 67
     7
 79
     3
170
     0
171
     0
290
     0
174
     0
 93
       13
 44
0.0
173
     0
291
     0
 45
0.0
1001
ACAD
1000
AcDbSavedByObjectVersion
1070
     0
  0
DICTIONARYVAR
  5
4DD1
102
{ACAD_REACTORS
330
380C
102
}
330
380C
100
DictionaryVariables
280
     0
  1
1:1
  0
DICTIONARYVAR
  5
4DCF
102
{ACAD_REACTORS
330
380C
102
}
330
380C
100
DictionaryVariables
280
     0
  1
STANDARD
  0
DICTIONARYVAR
  5
380D
102
{ACAD_REACTORS
330
380C
102
}
330
380C
100
DictionaryVariables
280
     0
  1
STANDARD
  0
DICTIONARYVAR
  5
3868
102
{ACAD_REACTORS
330
380C
102
}
330
380C
100
DictionaryVariables
280
     0
  1
1
  0
DICTIONARYVAR
  5
14536
102
{ACAD_REACTORS
330
380C
102
}
330
380C
100
DictionaryVariables
280
     0
  1
0
  0
DICTIONARYVAR
  5
4DD3
102
{ACAD_REACTORS
330
380C
102
}
330
380C
100
DictionaryVariables
280
     0
  1
1
  0
DICTIONARYVAR
  5
4DD4
102
{ACAD_REACTORS
330
380C
102
}
330
380C
100
DictionaryVariables
280
     0
  1
15
  0
DICTIONARYVAR
  5
4DD2
102
{ACAD_REACTORS
330
380C
102
}
330
380C
100
DictionaryVariables
280
     0
  1
0
  0
DICTIONARYVAR
  5
4DD0
102
{ACAD_REACTORS
330
380C
102
}
330
380C
100
DictionaryVariables
280
     0
  1
0
  0
DICTIONARYVAR
  5
3869
102
{ACAD_REACTORS
330
380C
102
}
330
380C
100
DictionaryVariables
280
     0
  1

  0
DICTIONARYVAR
  5
14535
102
{ACAD_REACTORS
330
380C
102
}
330
380C
100
DictionaryVariables
280
     0
  1
127
  0
DICTIONARYVAR
  5
14537
102
{ACAD_REACTORS
330
380C
102
}
330
380C
100
DictionaryVariables
280
     0
  1
2
  0
DICTIONARY
  5
4CA9
330
37F4
100
AcDbDictionary
280
     1
281
     1
  3
ACAD_XREC_ROUNDTRIP
360
1453F
  3
ADSK_XREC_LAYOUTTHUMBNAIL
360
4CAA
  0
DICTIONARY
  5
14540
330
37F5
100
AcDbDictionary
280
     1
281
     1
  3
ACAD_XREC_ROUNDTRIP
360
14541
  0
DICTIONARY
  5
3DB1
330
3DB0
100
AcDbDictionary
280
     1
281
     1
  3
ACAD_XREC_ROUNDTRIP
360
14543
  3
BUMPTILE
360
3DB3
  3
DIFFUSETILE
360
3DB2
  3
OPACITYTILE
360
3DB6
  3
REFLECTIONTILE
360
3DB5
  3
REFRACTIONTILE
360
3DB7
  3
SPECULARTILE
360
3DB4
  0
DICTIONARY
  5
3DA9
330
3DA8
100
AcDbDictionary
280
     1
281
     1
  3
ACAD_XREC_ROUNDTRIP
360
14542
  3
BUMPTILE
360
3DAB
  3
DIFFUSETILE
360
3DAA
  3
OPACITYTILE
360
3DAE
  3
REFLECTIONTILE
360
3DAD
  3
REFRACTIONTILE
360
3DAF
  3
SPECULARTILE
360
3DAC
  0
DICTIONARY
  5
3DB9
330
3DB8
100
AcDbDictionary
280
     1
281
     1
  3
ACAD_XREC_ROUNDTRIP
360
14544
  3
BUMPTILE
360
3DBB
  3
DIFFUSETILE
360
3DBA
  3
OPACITYTILE
360
3DBE
  3
REFLECTIONTILE
360
3DBD
  3
REFRACTIONTILE
360
3DBF
  3
SPECULARTILE
360
3DBC
  0
DICTIONARY
  5
1453A
330
3DEC
100
AcDbDictionary
280
     1
281
     1
  3
ACAD_XREC_ROUNDTRIP
360
1453B
  0
DICTIONARY
  5
14538
330
37F1
100
AcDbDictionary
280
     1
281
     1
  3
ACAD_ROUNDTRIP_2008_TABLESTYLE_CELLSTYLEMAP
360
14539
  3
ACAD_XREC_ROUNDTRIP
360
1453E
  0
DICTIONARY
  5
1454F
330
3DC6
100
AcDbDictionary
280
     1
281
     1
  3
ACAD_XREC_ROUNDTRIP
360
14550
  0
DICTIONARY
  5
1454D
330
3DC5
100
AcDbDictionary
280
     1
281
     1
  3
ACAD_XREC_ROUNDTRIP
360
1454E
  0
DICTIONARY
  5
1455B
330
3DCC
100
AcDbDictionary
280
     1
281
     1
  3
ACAD_XREC_ROUNDTRIP
360
1455C
  0
DICTIONARY
  5
14563
330
3DD0
100
AcDbDictionary
280
     1
281
     1
  3
ACAD_XREC_ROUNDTRIP
360
14564
  0
DICTIONARY
  5
14555
330
3DC9
100
AcDbDictionary
280
     1
281
     1
  3
ACAD_XREC_ROUNDTRIP
360
14556
  0
DICTIONARY
  5
14559
330
3DCB
100
AcDbDictionary
280
     1
281
     1
  3
ACAD_XREC_ROUNDTRIP
360
1455A
  0
DICTIONARY
  5
14573
330
3DD8
100
AcDbDictionary
280
     1
281
     1
  3
ACAD_XREC_ROUNDTRIP
360
14574
  0
DICTIONARY
  5
14561
330
3DCF
100
AcDbDictionary
280
     1
281
     1
  3
ACAD_XREC_ROUNDTRIP
360
14562
  0
DICTIONARY
  5
14545
330
3DC1
100
AcDbDictionary
280
     1
281
     1
  3
ACAD_XREC_ROUNDTRIP
360
14546
  0
DICTIONARY
  5
14547
330
3DC2
100
AcDbDictionary
280
     1
281
     1
  3
ACAD_XREC_ROUNDTRIP
360
14548
  0
DICTIONARY
  5
14549
330
3DC3
100
AcDbDictionary
280
     1
281
     1
  3
ACAD_XREC_ROUNDTRIP
360
1454A
  0
DICTIONARY
  5
1454B
330
3DC4
100
AcDbDictionary
280
     1
281
     1
  3
ACAD_XREC_ROUNDTRIP
360
1454C
  0
DICTIONARY
  5
14553
330
3DC8
100
AcDbDictionary
280
     1
281
     1
  3
ACAD_XREC_ROUNDTRIP
360
14554
  0
DICTIONARY
  5
1456F
330
3DD6
100
AcDbDictionary
280
     1
281
     1
  3
ACAD_XREC_ROUNDTRIP
360
14570
  0
DICTIONARY
  5
1455F
330
3DCE
100
AcDbDictionary
280
     1
281
     1
  3
ACAD_XREC_ROUNDTRIP
360
14560
  0
DICTIONARY
  5
14571
330
3DD7
100
AcDbDictionary
280
     1
281
     1
  3
ACAD_XREC_ROUNDTRIP
360
14572
  0
DICTIONARY
  5
14557
330
3DCA
100
AcDbDictionary
280
     1
281
     1
  3
ACAD_XREC_ROUNDTRIP
360
14558
  0
DICTIONARY
  5
1456D
330
3DD5
100
AcDbDictionary
280
     1
281
     1
  3
ACAD_XREC_ROUNDTRIP
360
1456E
  0
DICTIONARY
  5
1456B
330
3DD4
100
AcDbDictionary
280
     1
281
     1
  3
ACAD_XREC_ROUNDTRIP
360
1456C
  0
DICTIONARY
  5
14565
330
3DD1
100
AcDbDictionary
280
     1
281
     1
  3
ACAD_XREC_ROUNDTRIP
360
14566
  0
DICTIONARY
  5
14567
330
3DD2
100
AcDbDictionary
280
     1
281
     1
  3
ACAD_XREC_ROUNDTRIP
360
14568
  0
DICTIONARY
  5
1455D
330
3DCD
100
AcDbDictionary
280
     1
281
     1
  3
ACAD_XREC_ROUNDTRIP
360
1455E
  0
DICTIONARY
  5
14551
330
3DC7
100
AcDbDictionary
280
     1
281
     1
  3
ACAD_XREC_ROUNDTRIP
360
14552
  0
DICTIONARY
  5
14569
330
3DD3
100
AcDbDictionary
280
     1
281
     1
  3
ACAD_XREC_ROUNDTRIP
360
1456A
  0
XRECORD
  5
1453F
102
{ACAD_REACTORS
330
4CA9
102
}
330
4CA9
100
AcDbXrecord
280
     1
102
SHADEPLOT
 70
     0
102
SHADEPLOTRESLEVEL
 70
     2
102
SHADEPLOTCUSTOMDPI
 70
   300
  0
XRECORD
  5
4CAA
102
{ACAD_REACTORS
330
4CA9
102
}
330
4CA9
100
AcDbXrecord
280
     1
310
280000000001000088000000010008000000000000880000000000000000000000010000000000000000000000000000C8C8C8000000000000000000000000000000000000000000000000000000000000000000330000006600000099000000CC000000FF00000000330000333300006633000099330000CC330000FF3300
310
0000660000336600006666000099660000CC660000FF66000000990000339900006699000099990000CC990000FF99000000CC000033CC000066CC000099CC0000CCCC0000FFCC000000FF000033FF000066FF000099FF0000CCFF0000FFFF000000003300330033006600330099003300CC003300FF003300003333003333
310
33006633330099333300CC333300FF33330000663300336633006666330099663300CC663300FF66330000993300339933006699330099993300CC993300FF99330000CC330033CC330066CC330099CC3300CCCC3300FFCC330000FF330033FF330066FF330099FF3300CCFF3300FFFF330000006600330066006600660099
310
006600CC006600FF00660000336600333366006633660099336600CC336600FF33660000666600336666006666660099666600CC666600FF66660000996600339966006699660099996600CC996600FF99660000CC660033CC660066CC660099CC6600CCCC6600FFCC660000FF660033FF660066FF660099FF6600CCFF6600
310
FFFF660000009900330099006600990099009900CC009900FF00990000339900333399006633990099339900CC339900FF33990000669900336699006666990099669900CC669900FF66990000999900339999006699990099999900CC999900FF99990000CC990033CC990066CC990099CC9900CCCC9900FFCC990000FF99
310
0033FF990066FF990099FF9900CCFF9900FFFF99000000CC003300CC006600CC009900CC00CC00CC00FF00CC000033CC003333CC006633CC009933CC00CC33CC00FF33CC000066CC003366CC006666CC009966CC00CC66CC00FF66CC000099CC003399CC006699CC009999CC00CC99CC00FF99CC0000CCCC0033CCCC0066CC
310
CC0099CCCC00CCCCCC00FFCCCC0000FFCC0033FFCC0066FFCC0099FFCC00CCFFCC00FFFFCC000000FF003300FF006600FF009900FF00CC00FF00FF00FF000033FF003333FF006633FF009933FF00CC33FF00FF33FF000066FF003366FF006666FF009966FF00CC66FF00FF66FF000099FF003399FF006699FF009999FF00CC
310
99FF00FF99FF0000CCFF0033CCFF0066CCFF0099CCFF00CCCCFF00FFCCFF0000FFFF0033FFFF0066FFFF0099FFFF00CCFFFF00FFFFFF00000000000D0D0D001A1A1A00282828003535350043434300505050005D5D5D006B6B6B00787878008686860093939300A1A1A100AEAEAE00BBBBBB00C9C9C900D6D6D600E4E4E400
310
F1F1F100FFFFFF000000000000000000000000000000000000000000000000000000000000000000000000000000000000000000000000000000000000000000000000000000000000000000000000000000000000000000000000000000000000000000000000000000000000000000000000000000000000000000000000
310
00000000000000000000000000000000000000000000000000000000000000000000000000000000000000000000000000000000000000000000000000000000000000000000000000000000000000000000000000000000000000000000000000000000000000000000000000000000000000000000000000000000000000
310
00000000000000000000000000000000000000000000000000000000000000000000000000000000000000000000000000000000000000000000000000000000000000000000000000000000000000000000000000000000000000000000000000000000000000000000000000000000000000000000000000000000000000
310
000000000000000000000000F5F5F5F5F5F5F5F5F5F5F5F5F5F5F5F5F5F5F5F5F5F5F5F5F5F5F5F5F5F5F5F5000000000000000000F5F5F5F5F5F5F5F5F5F5F5F5F5F5F5F5F5F5F5F5F5F5F5F5F5F5F5F5F5F5F5F5F50000000000000000F5F5F5F5F5F5F5F5F5F5F5F5F5F5F5F5F5F5F5F5F5F5F5F5F5F5F5F5F5F5F5F5F5
310
00000000000000000000000000000000000000000000000000000000000000000000000000000000000000000000000000000000000000000000000000000000000000000000000000000000000000000000000000000000000000000000000000000000000000000000000000000000000000000000000000000000000000
310
0000000000000000000000000000F5282828282828282828282828282828282828282828282828ECEC28ECECECF5000000000000000000F528282828282828282828282828282828282828282828282828EC28ECECEC00F50000000000000000F528282828282828282828282828282828282828C32828282828EC28ECECEC
310
28F50000000000000000000000000000000000000000000000000000000000000000000000000000000000000000000000000000000000000000000000000000000000000000000000000000000000000000000000000000000000000000000000000000000000000000000000000000000000000000000000000000000000
310
00000000000000000000000000000000F528280000280000C3C300002828000028000000C3C300002828282828ECECF5000000000000000000F528000000280000C3C300000028000028000000C3C300002828282828ECEC00F50000000000000000F528C30FC3C300000F00000000280FC3C3000000C30000002828282828
310
ECECECF5000000000000000000000000000000000000000000000000000000000000000000000000000000000000000000000000000000000000000000000000000000000000000000000000000000000000000000000000000000000000000000000000000000000000000000000000000000000000000000000000000000
310
000000000000000000000000000000000000F5C30FC3C30FC300C3C30000C30FC3C30F0FC300C3C3000028ECEC2828ECECF5000000000000000000F5C30FC3C30FC3C3C3C30000000FC3C30F0FC3C3C3C3000028ECEC0028ECEC00F50000000000000000F528C30FC3C300000FC3C3C3C3C3F50FC3000000C3C3C3C328ECEC
310
EC28ECECECF500000000000000000000000000000000000000000000000000000000000000000000000000000000000000000000000000000000000000000000000000000000000000000000000000000000000000000000000000000000000000000000000000000000000000000000000000000000000000000000000000
310
0000000000000000000000000000000000000000F5C30FBEC30FC3BE0F0FC3C3C30F0FBE0F0FC3BE0F0FC3C3C328ECECEC2828F5000000000000000000F5C30FF5C30FC3C3F5F5BEC3C30F0FC30F0FC3C3C3F5C3C3C328ECECEC282800F50000000000000000F52800C3C3C3C3C3F5C3BEBE0028F5C3C300BEBEC3C3C3C328
310
28ECECEC282828F50000000000000000000000000000000000000000000000000000000000000000000000000000000000000000000000000000000000000000000000000000000000000000000000000000000000000000000000000000000000000000000000000000000000000000000000000000000000000000000000
310
00000000000000000000000000000000000000000000F528BEBEC3C3C3C3C3BEC3C3C328BEBEC3C3C3C3C3C3C3C3C3ECECECECEC28F5000000000000000000F528C3C3C3C3C3C3F5C3C3C3C328C3C3C3C3C3C3C3C3C3C3C3ECECECECEC2800F50000000000000000F52800C3C3C3C300C300C3C3002828C3C3C30000C3C3C3
310
C3ECECECECECEC2828F5000000000000000000000000000000000000000000000000000000000000000000000000000000000000000000000000000000000000000000000000000000000000000000000000000000000000000000000000000000000000000000000000000000000000000000000000000000000000000000
310
000000000000000000000000000000000000000000000000F528C3C3C3C3C3C3C3C3C3C328C3C3C3C3C3C3C3C3C3C3C328282828282828F5000000000000000000F528C3C3C3C3C3C300C3C3C30028C3C3C3C3C3C300C3C3C3C328282828282800F50000000000000000F52800C3C300C3C3C3C3C3C3C328C3C30000C3C3C3
310
C3C3C3ECECECECECEC0028F500000000000000000000000000000000000000000000000000000000000000000000000000000000000000000000000000000000000000000000000000000000000000000000000000000000000000000000000000000000000000000000000000000000000000000000000000000000000000
310
0000000000000000000000000000000000000000000000000000F528C30000C300C3C300C3C3C3C3C30028C30000C300C3C3C3000000000028F5000000000000000000F528C3C300C3C3C3C3C3C3C3C3C3C300C3C3C3C3C3C3C3C3C300000000002800F50000000000000000F52800280000C3C3C3C3C3C3C32828000000BE
310
BEBEBEC3C32800000000000028F50000000000000000000000000000000000000000000000000000000000000000000000000000000000000000000000000000000000000000000000000000000000000000000000000000000000000000000000000000000000000000000000000000000000000000000000000000000000
310
00000000000000000000000000000000000000000000000000000000F528ECECECECECECC3BEC3C3C3ECECECECECECECC3C3C3C3C3000000000028F5000000000000000000F528280000ECECBEBEC3C3C3C3280000ECECECC3C3C3C3C3C300000000002800F50000000000000000F528ECECECEC28280F2828282828ECECEC
310
00BEBEBEBEBEBE2800000000000028F5000000000000000000000000000000000000000000000000000000000000000000000000000000000000000000000000000000000000000000000000000000000000000000000000000000000000000000000000000000000000000000000000000000000000000000000000000000
310
000000000000000000000000000000000000000000000000000000000000F528ECECECECECEC0F0FBEBE28ECECECECECECECF5F5BEBE28000000000028F5000000000000000000F528ECECECECECECF5F5282828ECECECECECECEC0FF5BEBEBE00000000002800F50000000000000000F528000000000000C3000000002800
310
00000028280F2828282800000000000028F500000000000000000000000000000000000000000000000000000000000000000000000000000000000000000000000000000000000000000000000000000000000000000000000000000000000000000000000000000000000000000000000000000000000000000000000000
310
0000000000000000000000000000000000000000000000000000000000000000F528ECECECECEC282828282828ECECECECEC28280F0F282828000000000028F5000000000000000000F528ECECECECEC2828C3282828ECECECECEC28280FF528282800000000002800F50000000000000000F528ECECECECEC282828282828
310
ECECECECECEC2828282828ECECECEC00000028F50000000000000000000000000000000000000000000000000000000000000000000000000000000000000000000000000000000000000000000000000000000000000000000000000000000000000000000000000000000000000000000000000000000000000000000000
310
00000000000000000000000000000000000000000000000000000000000000000000F528ECECECECEC282828282828ECECECECEC28282828282828ECECECEC0028F5000000000000000000F528ECECECECEC282828282828ECECECECEC28282828282828ECECECEC002800F50000000000000000F528ECECECECEC28282828
310
2828ECECECECECEC2828282828ECECECEC00000028F5000000000000000000000000000000000000000000000000000000000000000000000000000000000000000000000000000000000000000000000000000000000000000000000000000000000000000000000000000000000000000000000000000000000000000000
310
000000000000000000000000000000000000000000000000000000000000000000000000F528000000000000C3C300002800000000000000C3C30000ECECECECEC0028F5000000000000000000F52800000000000000000000002800000000000000000000ECECECECEC002800F50000000000000000F528C3C3C3C300000F
310
00000000C3C3C3C3000000C3000000ECECECEC00000028F500000000000000000000000000000000000000000000000000000000000000000000000000000000000000000000000000000000000000000000000000000000000000000000000000000000000000000000000000000000000000000000000000000000000000
310
0000000000000000000000000000000000000000000000000000000000000000000000000000F5C3DCC3C3DCC300C3C30000C3DCC3C3DCC3C300C3C30000ECECECECEC0028F5000000000000000000F5C3C3C3C3C3C3C3C3C3000000C3C3C3C3C3C3C3C3C30000ECECECECEC002800F50000000000000000F528C3DCC3C300
310
000FC3C3C3C3C3F5F5C3000000C3C3C3C3ECECECEC00000028F50000000000000000000000000000000000000000000000000000000000000000000000000000000000000000000000000000000000000000000000000000000000000000000000000000000000000000000000000000000000000000000000000000000000
310
00000000000000000000000000000000000000000000000000000000000000000000000000000000F5C3DCC3C3DCC3000F0FBEC3C3DCF5C3DC7DC300C3C3C3C3C3ECECEC000028F5000000000000000000F5C3DCF5C3DCC3C3F5F500C3C3DC7DC3C3DCC3C3C3F5C3C3C3ECECEC00002800F50000000000000000F528C3C3C3
310
C3C3C3F5C3C3BE00C3F5C3C300BEBEBEBEC3C3ECECECEC00000028F5000000000000000000000000000000000000000000000000000000000000000000000000000000000000000000000000000000000000000000000000000000000000000000000000000000000000000000000000000000000000000000000000000000
310
000000000000000000000000000000000000000000000000000000000000000000000000000000000000F528BEBEC3C3C3BEC3F5C3C3C328BEBE28C3C3C3F5C3C3C3ECECECEC000028F5000000000000000000F5C3C3C3C3C3C3C3F5F5C3C3C3C3C3C3C3C3C3C3C3F5C3C3C3ECECEC00002800F50000000000000000F52800
310
C3C3C3C300C300C3C3002828C3C3C30000C3C3C3C3ECECEC0000000028F500000000000000000000000000000000000000000000000000000000000000000000000000000000000000000000000000000000000000000000000000000000000000000000000000000000000000000000000000000000000000000000000000
310
0000000000000000000000000000000000000000000000000000000000000000000000000000000000000000F528C3C3C3C3C3C3C300C3C32828C3C3C3C3C3C300C3C3C328ECECECECEC28F5000000000000000000F528C3C3C3C3C3C300C3C3C30028C3C3C3C3C3C300C3C3C3C3ECECECECECEC00F50000000000000000F5
310
280028C300C3C3C3C3C3C30028C3C30000C3C3C3C3C3C328ECECECECECEC28F50000000000000000000000000000000000000000000000000000000000000000000000000000000000000000000000000000000000000000000000000000000000000000000000000000000000000000000000000000000000000000000000
310
00000000000000000000000000000000000000000000000000000000000000000000000000000000000000000000F528C3C3C3C3C3C3C3C3C3C3C3C3C300C3C3C3C3C3C3C3C3C3ECECECECEC28F5000000000000000000F528C3C300C3C3C3C3C3C3C300C3C300C3C3C3C3C3C3C3C3C3ECECECECECEC00F500000000000000
310
00F52800280000BEBEC3BEBEBEC32828000000BEBEBEC3C3C328ECECECECECEC28F5000000000000000000000000000000000000000000000000000000000000000000000000000000000000000000000000000000000000000000000000000000000000000000000000000000000000000000000000000000000000000000
310
000000000000000000000000000000000000000000000000000000000000000000000000000000000000000000000000F528ECECECECECBEC3BEC3C3C3ECECECECECECC3C3C3C3C3C3ECECECECEC28F5000000000000000000F5282800002800BEBEC3C3C3C3280000280000BEBEC3C3C3C3ECECECECEC2800F50000000000
310
000000F528ECECECECC3C30FC3C3C30028ECECEC00BEBEBEBEC3BE28ECECECECECEC28F500000000000000000000000000000000000000000000000000000000000000000000000000000000000000000000000000000000000000000000000000000000000000000000000000000000000000000000000000000000000000
310
0000000000000000000000000000000000000000000000000000000000000000000000000000000000000000000000000000F528ECECECECECEC0F0FBEBE28ECECECECECECECF5F5BEBE28F5F5F5F5F5F5F5000000000000000000F528ECECECECECECF5F5BEBEC3ECECECECECECEC0FF5C3C3C328282828282800F5000000
310
0000000000F5280000000028280F2828282828000000002828F528BEBE2828282828282828F50000000000000000000000000000000000000000000000000000000000000000000000000000000000000000000000000000000000000000000000000000000000000000000000000000000000000000000000000000000000
310
00000000000000000000000000000000000000000000000000000000000000000000000000000000000000000000000000000000F528282828282828C328282828282828282828280F0F2828F5F5F5F5F5F5F5F5000000000000000000F528282828282828F5F5282828282828282828280FF528282828282828282800F500
310
00000000000000F528282828282828282828282828282828282828282828282828282828282828F5000000000000000000000000000000000000000000000000000000000000000000000000000000000000000000000000000000000000000000000000000000000000000000000000000000000000000000000000000000
310
000000000000000000000000000000000000000000000000000000000000000000000000000000000000000000000000000000000000F528ECECECECEC282828282828ECECECECEC28282828282828F5F528282828F5000000000000000000F528ECECECECEC282828282828ECECECECEC2828282828282828282828282800
310
F50000000000000000F528ECECECECEC282828282828ECECECECECEC28282828282828282828282828F500000000000000000000000000000000000000000000000000000000000000000000000000000000000000000000000000000000000000000000000000000000000000000000000000000000000000000000000000
310
0000000000000000000000000000000000000000000000000000000000000000000000000000000000000000000000000000000000000000F5F5F5F5F5F5F5F5F5F5F5F5F5F5F5F5F5F5F5F5F5F5F5F5F5F5F5F5F5F5F5F5000000000000000000F5F5F5F5F5F5F5F5F5F5F5F5F5F5F5F5F5F5F5F5F5F5F5F5F5F5F5F5F5F5
310
F5F5F50000000000000000F5F5F5F5F5F5F5F5F5F5F5F5F5F5F5F5F5F5F5F5F5F5F5F5F5F5F5F5F5F5F5F5F50000000000000000000000000000000000000000000000000000000000000000000000000000000000000000000000000000000000000000000000000000000000000000000000000000000000000000000000
310
00000000000000000000000000000000000000000000000000000000000000000000000000000000000000000000000000000000000000000000F5282828282828282828282828282828282828282828282828ECEC28ECECECF5000000000000000000F528282828282828282828282828282828282828282828282828EC28
310
ECECEC00F50000000000000000F528282828282828282828282828282828282828282828282828EC28ECECEC28F5000000000000000000000000000000000000000000000000000000000000000000000000000000000000000000000000000000000000000000000000000000000000000000000000000000000000000000
310
000000000000000000000000000000000000000000000000000000000000000000000000000000000000000000000000000000000000000000000000F5C3C3C3C3C3C3C3C3C3000028C3C3C3C3C3C3C3C3C3C30028ECEC28ECECECF5000000000000000000F5C3C3C3C3C3C3C3C3C3C30000C3C3C3C3C3C3C300C3C3002828
310
EC28ECECEC00F50000000000000000F528C3C3C3C30000C3C300000028C3C3C3C300C3C30000002828EC28ECECEC28F500000000000000000000000000000000000000000000000000000000000000000000000000000000000000000000000000000000000000000000000000000000000000000000000000000000000000
310
0000000000000000000000000000000000000000000000000000000000000000000000000000000000000000000000000000000000000000000000000000F5C3C3C3C3C3C300DCDC00C3C3C3C3C3C3C3C300DCDCC3C3C3ECEC2828ECECF5000000000000000000F5C3C3C3C3C3C3C3C3C300C3C3C3C3C3C3C3C3C3C3F5C3C3
310
C3ECEC0028ECEC00F50000000000000000F528C3C3C3000000DC00C3C3C328C3C3C3C300DCDCC3C30028ECECEC28ECECECF50000000000000000000000000000000000000000000000000000000000000000000000000000000000000000000000000000000000000000000000000000000000000000000000000000000000
310
00000000000000000000000000000000000000000000000000000000000000000000000000000000000000000000000000000000000000000000000000000000F5C3BEBEC3C3C3BEF5F5C3C3C3C3BEBEC3C3C3C3F5F5C3C3C328ECECECECECF5000000000000000000F5C3C3C3C3C3C3C3F5F5C3C3C3C3C3C3C3C3C3C3C3F5
310
C3C3C328ECECECECEC00F50000000000000000F528C3C3C3C3BEBEBEBEC3C30028C3C3C3C3BEBEBEC3C3C32828ECECECECECECF5000000000000000000000000000000000000000000000000000000000000000000000000000000000000000000000000000000000000000000000000000000000000000000000000000000
310
000000000000000000000000000000000000000000000000000000000000000000000000000000000000000000000000000000000000000000000000000000000000F528C3BEC3C3C3C3C3BEC3C32828BEC3C3C3C3C3BEC3C3C3ECECECECEC2828F5000000000000000000F528C3C3C3C3C3C3BEC3C3C30028C3C3C3C3C3C3
310
BEC3C3C3C3ECECECEC282800F50000000000000000F52800C3C3C3BEBEC3BEC3C3002828C3C3C3C3C3BEC3C3002828ECECEC282828F500000000000000000000000000000000000000000000000000000000000000000000000000000000000000000000000000000000000000000000000000000000000000000000000000
310
0000000000000000000000000000000000000000000000000000000000000000000000000000000000000000000000000000000000000000000000000000000000000000F528C3C3C3C3C3C3C3C3C3C328C3C300C3C3C3C3C3C3C3C328282828282828F5000000000000000000F528C3C3C3C3C3C3C3C3C3C300C3C3C3C3C3
310
C3C3C3C3C3C3C328282828282800F50000000000000000F52800C3C30000C3C3C3C3C30028C3C3C300C3C3C3C3C300ECECECECECEC0028F50000000000000000000000000000000000000000000000000000000000000000000000000000000000000000000000000000000000000000000000000000000000000000000000
310
00000000000000000000000000000000000000000000000000000000000000000000000000000000000000000000000000000000000000000000000000000000000000000000F528280000280000000000C3C3280000280000000000C3C3C3000000000028F5000000000000000000F5282800002800000000000000280000
310
28000000000000002800000000002800F50000000000000000F5280028000000000000C3C3C32828000000000000C3C3002800000000000028F5000000000000000000000000000000000000000000000000000000000000000000000000000000000000000000000000000000000000000000000000000000000000000000
310
000000000000000000000000000000000000000000000000000000000000000000000000000000000000000000000000000000000000000000000000000000000000000000000000F5ECECECECEC00BEC3BEC3C3C3ECECECECEC00C3C3C3C3C3C3000000000028F5000000000000000000F5ECECECECECECBEBEC3C3C3C3EC
310
ECECECECECBEBEC3C3C3C300000000002800F50000000000000000F528ECECECECBEBEBEBEC3C3C328ECECECECBEBEBEC3C3002800000000000028F500000000000000000000000000000000000000000000000000000000000000000000000000000000000000000000000000000000000000000000000000000000000000
310
0000000000000000000000000000000000000000000000000000000000000000000000000000000000000000000000000000000000000000000000000000000000000000000000000000F5ECECECECECECBEF5F5BEBE28ECECECECECECBEF5F5BEBE28000000000028F5000000000000000000F5ECECECECECECECF5F5C3C3
310
C3ECECECECECECC3C3F5C3C3C300000000002800F50000000000000000F52800000000BEBEBEBEBEBE282800000000BEBEBEBEBE002800000000000028F50000000000000000000000000000000000000000000000000000000000000000000000000000000000000000000000000000000000000000000000000000000000
310
00000000000000000000000000000000000000000000000000000000000000000000000000000000000000000000000000000000000000000000000000000000000000000000000000000000F528282828282828C32828282828282828282828F5F5282828000000000028F5000000000000000000F528282828282828F5F5
310
2828282828282828282828F528282800000000002800F50000000000000000F528282828282828C3282828282828282828282828282828ECECECEC00000028F5000000000000000000000000000000000000000000000000000000000000000000000000000000000000000000000000000000000000000000000000000000
310
000000000000000000000000000000000000000000000000000000000000000000000000000000000000000000000000000000000000000000000000000000000000000000000000000000000000F5282828282828282828282828282828282828282828282828ECECEC000028F5000000000000000000F528282828282828
310
28282828282828282828282828282828ECECECEC00002800F50000000000000000F528ECECECECEC282828282828ECECECECECEC2828282828ECECECEC00000028F500000000000000000000000000000000000000000000000000000000000000000000000000000000000000000000000000000000000000000000000000
310
0000000000000000000000000000000000000000000000000000000000000000000000000000000000000000000000000000000000000000000000000000000000000000000000000000000000000000F52800000000000000000000280000000000000000000000ECECECECEC0028F5000000000000000000F52800000000
310
000000000000002800000000000000000000ECECECECEC002800F50000000000000000F528000000000000C30000000028000000000000C3000000ECECECEC00000028F50000000000000000000000000000000000000000000000000000000000000000000000000000000000000000000000000000000000000000000000
310
00000000000000000000000000000000000000000000000000000000000000000000000000000000000000000000000000000000000000000000000000000000C3C300000000000000000000000000000000F5C3C3C3C3C3C3C3C3C3000028C3C3C3C3C3C3C3C3C30000ECECECECEC0028F5000000000000000000F52828C3
310
C3C3C3C3C3C30000002800C3C300C3C3C3C30000ECECECECEC002800F50000000000000000F528C328C3C30000C30000000028F5C3C3C30000C3000000ECECECEC00000028F5000000000000000000000000000000000000000000000000000000000000000000000000000000000000000000000000000000000000000000
310
00000000000000000000000000000000000000000000000000000000000000000000000000000000000000000000000000000000000000000000C3C3C3C3C3C3C3C3C3C300000000000000000000000000000000F5C3C3C3C3C3C300ECF500C3C3C3F5C3C3C3C300F5C3C3C3C3ECECECEC0028F5000000000000000000F5C3
310
C3C3C3C3C3C3C3C300C3C3C3C3C3C3C3C3C3C3C3C3C3ECECECECEC002800F50000000000000000F528C3C3F5000000C300C3C3C328C3F5C3000000C3C3C3C3ECECECEC00000028F500000000000000000000000000000000000000000000000000000000000000000000000000000000000000000000000000000000000000
310
000000000000000000000000000000000000000000000000000000000000000000000000000000000000000000000000000000000000000000000000C3C3C3C3C3DCC3C3C30F00000000000000000000000000000000F5C3BEBEC3C3C3BEBEBEC3C3C3C3BEBEC3C3C3C3C3C3C3C3C3ECECEC000028F5000000000000000000
310
F5C3C3C3C3C3C3C3BEBEC3C3C3C3C3C3C3C3C3C3C3C3C3C3ECECECEC00002800F50000000000000000F52800BEBEC3BEBEBEBEBEBE002828BEBE00BEBEC3C3C3C3ECECECEC00000028F50000000000000000000000000000000000000000000000000000000000000000000000000000000000000000000000000000000000
310
000000000000000000000000000000000000000000000000000000000000000000000000000000000000000000000000000000000000000000000000000000BEC3C3BEC3C3C3C3C3C3000000000000000000000000000000F528C3BEC3C3C3C3C3BEC3C32828BEC3C3C3C3C3BEC3C3C3ECECECECECEC28F500000000000000
310
0000F528C3C3C3C3C3C3BEC3C3C30028C3C3C3C3C3C3BEC3C3BEECECECECECEC2800F50000000000000000F5280028C3C30000C300C3C3002828C3C3C30000C3C3C3C3ECECECECECECEC28F5000000000000000000000000000000000000000000000000000000000000000000000000000000000000000000000000000000
310
0000000000000000000000000000000000000000000000000000000000000000000000000000000000000000000000000000000000000000000000000000000000C3C300C3C3C300000000000000000000000000000000000000F528C3C3C3C3C3C3C3C3C3C328C3C300C3C3C3C3C3C3C3C328ECECECECEC28F50000000000
310
00000000F528C3C3C3C3C3C3C3C3C3C300C3C3C3C3C3C3C3C3C3C3C3C3ECECECECECEC00F50000000000000000F5280028C300C3C3C3C3C3C3002828C30000C3C3C3C3C3C328ECECECECECEC28F500000000000000000000000000000000000000000000000000000000000000000000000000000000000000000000000000
310
0000000000000000000000000000000000000000000000000000000000000000000000000000000000000000000000000000000000000000000000000000000000000000000000000000000000000000000000000000000000000000F528280000280000C30000C3C32800002800000000C3C3C3C3ECECECECEC28F5000000
310
000000000000F528C30000C3000000C3BEC3C328C30028C3000000C3C3C3C3ECECECECEC2800F50000000000000000F52800280000BEBEBEBEBEBEC32828000000BEBEBEBEC3C328ECECECECECEC28F50000000000000000000000000000000000000000000000000000000000000000000000000000000000000000000000
310
00000000000000000000000000000000000000000000000000000000000000000000000000000000000000000000000000000000000000000000000000000000000000000000000000000000000000000000000000000000000000000000F528ECECECECECECC3BEC3BEC3ECECECECECECECF5F5C3C3C3ECECECECEC28F500
310
0000000000000000F528ECECECECECC3C3C3C3C3C3ECECECECECECECF5F5C3C3C3ECECECECEC2800F50000000000000000F528ECECEC00BEBEBEBEBEBE0028ECECEC00BEBEBEBEBEBE28ECECECECEC2828F5000000000000000000000000000000000000000000000000000000000000000000000000000000000000000000
310
000000000000000000000000000000000000000000000000000000000000000000000000000000000000000000000000000000000000000000000000000000000000000000000000000000000000000000000000000000000000000000000000F528ECECECECEC282828282828ECECECECECECECF5F5282828282828282828
310
F5000000000000000000F528ECECECECEC282828282828ECECECECECECECF5F528282828282828282800F50000000000000000F528000000002828282828280028000000002828F52828282828282828282828F500000000000000000000000000000000000000000000000000000000000000000000000000000000000000
310
0000000000000000000000000000000000000000000000000000000000000000000000000000000000000000000000000000000000000000000000000000000000000000000000000000000000000000000000000000000000000000000000000000F528ECECECECEC282828282828ECECECECEC2828282828282828282828
310
2828F5000000000000000000F528ECECECECEC282828282828ECECECECEC282828C328282828282828282800F50000000000000000F528ECECECECEC282828282828ECECECECECEC28282828282828282828282828F50000000000000000000000000000000000000000000000000000000000000000000000000000000000
310
000000000000000000000000000000000000000000000000000000000000000000000000000000000000000000000000000000000000000000000000000000F5F5F5F5F5F5F5F5F5F5F5F5F5F5F5F5F5F5F5F5F5F5F5F5F5F5F5F5F5F5F5F5F500000000F5F5F5F5F5F5F5F5F5F5F5F5F5F5F5F5F5F5F5F5F5F5F5F5F5F5F5
310
F5F5F5F5F5000000000000000000F5F5F5F5F5F5F5F5F5F5F5F5F5F5F5F5F5F5F5F5F5F5F5F5F5F5F5F5F5F5F5F5F50000000000000000F5F5F5F5F5F5F5F5F5F5F5F5F5F5F5F5F5F5F5F5F5F5F5F5F5F5F5F5F5F5F5F5F5000000000000000000000000000000000000000000000000000000000000000000000000000000
310
0000000000000000000000000000000000000000000000000000000000000000000000000000000000000000000000000000000000000000000000000000000000F5F5F5282828282828282828282828282828282828282828282828282828F5F5F500000000F5282828282828282828282828282828282828282828282828
310
282828282828F5000000000000000000F528282828282828282828282828282828282828282828282828282828282800F50000000000000000F528282828282828282828282828282828282828282828282828282828282828F500000000000000000000000000000000000000000000000000000000000000000000000000
310
00000000000000000000000000000000000000000000000000000000000000000000000000000000000000000000000000000000000000000000000000000000000000F52800F500000000000000000000000000000000000000002828EC0028F5EC28F500000000F528000000000000000000000000000000000000000000
310
0028ECEC28ECECECF5000000000000000000F528000000000000000000000000000000000000000000002828EC00ECECEC00F50000000000000000F528000000000000000000000000000000000000000000002828EC00ECECEC28F50000000000000000000000000000000000000000000000000000000000000000000000
310
000000000000000000000000000000000000000000000000000000000000000000000000000000000000000000000000000000000000000000000000000000000000000000F52800C3F5C3C3C300C3C3C3C3C3000000C3C3C3C3C3000028ECECECF5ECECECF500000000F52800000000000000000000000000000000000000
310
00000028ECEC2828ECECF5000000000000000000F5280000000000000000000000000000000000000000000028ECEC2828ECEC00F50000000000000000F5280000000000000000000000000000000000000000000028ECECEC28ECECECF5000000000000000000000000000000000000000000000000000000000000000000
310
0000000000000000000000000000000000000000000000000000000000000000000000000000000000000000000000000000000000000000000000000000000000000000000000F52800C3C3F5F50000C3C3F5C3C3000000F5C300C3C300002828F5F528ECECECF500000000F5280000000000000000000000000000000000
310
00000000002828282828ECECF5000000000000000000F528000000000000000000000000000000000000000000002828282828ECEC00F50000000000000000F528000000000000000000000000000000000000000000002828282828ECECECF500000000000000000000000000000000000000000000000000000000000000
310
00000000000000000000000000000000000000000000000000000000000000000000000000000000000000000000000000000000000000000000000000000000000000000000000000F52800C3C3C3C3F500C3C3C3C3C3C3BEBEBEC3C3C3C3000028F5ECECECEC0028F500000000F528000028000000000000280000000000
310
00C3C3000000002828ECECEC0028F5000000000000000000F52800002800000000000028000000000000C3C3000000002828ECECEC002800F50000000000000000F528000000002800000000000000000000C3C300000000002828ECECEC000028F50000000000000000000000000000000000000000000000000000000000
310
000000000000000000000000000000000000000000000000000000000000000000000000000000000000000000000000000000000000000000000000000000000000000000000000000000F528000028C3C3C3F5F528C3C3C3C3000000C3C3C3C300F5F528282828282828F500000000F5280000C3C3C300000000C3C3C300
310
000000C3C30000000028282828282828F5000000000000000000F5280000C3C3C300000000C3C3C30000000000C3000000002828282828282800F50000000000000000F52800000000C3C300000000000000000000C30000000000ECECECECECEC2828F5000000000000000000000000000000000000000000000000000000
310
0000000000000000000000000000000000000000000000000000000000000000000000000000000000000000000000000000000000000000000000000000000000000000000000000000000000F5280000C3C3C3000000F5C3C30000C3C3C3C3C3C3C3F500ECECECECEC000028F500000000F528C3C3DCDCBEC3C300C3C3DC
310
C3C3C3BEBEC3C3BEC3C30028000000000028F5000000000000000000F528C3C3DCDCC3C3C3C3C3DCC3C3C3C3BEBEBEC3BEC3C3C32800000000002800F50000000000000000F5280000C3C3DCC3C3C3000000BEBEBEBEBEC3BEC3C300002800000000000028F500000000000000000000000000000000000000000000000000
310
00000000000000000000000000000000000000000000000000000000000000000000000000000000000000000000000000000000000000000000000000000000000000000000000000000000000000F528000028000000000028F50000C3BEBEBEBEBEC3F50000ECECECEC00000028F500000000F528C3C328BEBEC3C3C3C3
310
280FC3C3C3C3C3C3C3C3C3C30028000000000028F5000000000000000000F528C3C328C3C3C3C3C3C328C3C3C3C3BEBEBEBEC3C3C3002800000000002800F50000000000000000F5280000C3C328C3C3C30000C3C3C3C3C3C3C3C3C3C300002800000000000028F50000000000000000000000000000000000000000000000
310
000000000000000000000000000000000000000000000000000000000000000000000000000000000000000000000000000000000000000000000000000000000000000000000000000000000000000000F5280000ECECEC000000ECECF5F500BEBEBEBEF5F5BE0000ECECECECEC000028F500000000F528C3C3DCDCC3C3C3
310
00C3C3DCC3C3C30000F5F5C3C3C30028000000000028F5000000000000000000F52800C3DCDCC3C3C3C3C3DCC3C3C3C3000000F5C3C3C3002800000000002800F50000000000000000F5280000C3C3DCC3C3C30000000000000000F5C3C3C300002800000000000028F5000000000000000000000000000000000000000000
310
0000000000000000000000000000000000000000000000000000000000000000000000000000000000000000000000000000000000000000000000000000000000000000000000000000000000000000000000F528000000000000000000000000F5282828F52828280000ECECECEC00000028F500000000F528C3C3C3BEBE
310
00C300C3C3DCDC00C3BEBEBEBEBEC3C30028000000000028F5000000000000000000F528C3C3C3DCDC00C3C3C3C3DCBE00C3BEBEBEBEBEBEBE002800000000002800F50000000000000000F5280000C3C3C3C300C30000C3BEBEBEBEBEBEBEBEC30000ECECECEC00000028F500000000000000000000000000000000000000
310
00000000000000000000000000000000000000000000000000000000000000000000000000000000000000000000000000000000000000000000000000000000000000000000000000000000000000000000000000F52828282828282828282828282828F5F5F52828282828282828282828282828F500000000F528000028
310
BEBEC3C3000028C3C3C3C3BEBEBEC3C3BEC300ECECEC00000028F5000000000000000000F528000028C3C3C3C3000028C3C3C3C3BEBEBEC3C3BEC300ECECEC0000002800F50000000000000000F52800000000C3C3C3C3000000BEBEBEBEBEC3C3BEC30000ECECECEC00000028F50000000000000000000000000000000000
310
000000000000000000000000000000000000000000000000000000000000000000000000000000000000000000000000000000000000000000000000000000000000000000000000000000000000000000000000000000F528000028C3C3C3000028C3C3C300F5F5F5C30000000000ECECECECEC000028F500000000F52800
310
00ECC3C3C3000000C3C3C3C300C3C3C3C3C3C3C300ECECECECEC0028F5000000000000000000F5280000C3C3C3C3000000C3C3C3C300C3C3C3C3C3C3C300ECECECECEC002800F50000000000000000F52800000000C3C3C3C3000000C3C3C3C3C3C3C3C3C30000ECECECEC00000028F5000000000000000000000000000000
310
0000000000000000000000000000000000000000000000000000000000000000000000000000000000000000000000000000000000000000000000000000000000000000000000000000000000000000000000000000000000F52800C3C3C3C3C300C3C3C3C3C3F50000C3F50000000000ECECECEC00000028F500000000F5
310
28000028C3000000000028C300000000C3C300C3000000ECECECEC000028F5000000000000000000F528000028C30000000000C3C300000000C3C300C3C30000ECECECEC00002800F50000000000000000F52800000000C30000000000000000C3C30000C3C3000000ECECECEC00000028F500000000000000000000000000
310
00000000000000000000000000000000000000000000000000000000000000000000000000000000000000000000000000000000000000000000000000000000000000000000000000000000000000000000000000000000000000F52800C3C3F5C30000C3C3F5F5F500BEBEBEBEF5F5C30000ECECECECEC000028F5000000
310
00F5280000ECECEC00000000ECECEC00000000000000C3C300ECECECECEC0028F5000000000000000000F5280000ECECEC00000000ECECEC00000000000000C3C3C3ECECECECEC002800F50000000000000000F528000000ECECECEC0000000000000000000000C3C30000ECECECEC00000028F50000000000000000000000
310
000000000000000000000000000000000000000000000000000000000000000000000000000000000000000000000000000000000000000000000000000000000000000000000000000000000000000000000000000000000000000000F528000028BEBE00000028F5C3C3C3C3C3C3C3C3C3F50000ECECECEC00000028F500
310
000000F52800000000000000000000000000C3BEBEBEBEBEC3C300ECECECEC000028F5000000000000000000F52800000000000000000000000000C3BEBEBEBEBEC3BE00ECECECEC00002800F50000000000000000F52800000000000000000000C3BEBEBEBEBEBEBEC3C30000ECECECEC00000028F5000000000000000000
310
0000000000000000000000000000000000000000000000000000000000000000000000000000000000000000000000000000000000000000000000000000000000000000000000000000000000000000000000000000000000000000000000F528000028C3C3C30000F5C3C3C3C3000000C3C3C300F500ECEC282828282828
310
F500000000F5280000000000000000000000000000BEBEBEBEBEBEBE00EC282828282828F5000000000000000000F5280000000000000000000000000000BEBEBEBEBEBEBE00ECEC282828282800F50000000000000000F5280000000000000000000000BEBEBEBEBEBEBEBEBE0000ECEC282828282828F500000000000000
310
00000000000000000000000000000000000000000000000000000000000000000000000000000000000000000000000000000000000000000000000000000000000000000000000000000000000000000000000000000000000000000000000000F5280000C3C3C300F5F5C3C3C30000C3C3C3C3C3C3C300F5F500ECECECEC
310
0028F500000000F52800000000000000000000000000282828282828282828ECECECECECECECF5000000000000000000F52800000000000000000000000000282828282828282828ECECECECECECEC00F50000000000000000F528000000000000000000282828282828282828282828002800ECECECEC0028F50000000000
310
000000000000000000000000000000000000000000000000000000000000000000000000000000000000000000000000000000000000000000000000000000000000000000000000000000000000000000000000000000000000000000000000000000F5280000280000F5000028000000C3BEBEBEBEBEC3C3000028F5ECEC
310
ECEC2828F500000000F528000000000000000000000000000000000000000000002828ECEC282828F5000000000000000000F528000000000000000000000000000000000000000000002828ECEC28282800F50000000000000000F528000000000000000000000000000000000000000000002828282828282828F5000000
310
0000000000000000000000000000000000000000000000000000000000000000000000000000000000000000000000000000000000000000000000000000000000000000000000000000000000000000000000000000000000000000000000000000000000F5280000ECF5F5000000ECECEC0000BEBEBEBEBEBE00000028EC
310
F5F5ECEC2828F500000000F5280000000000000000000000000000000000000000000028ECECECECEC28F5000000000000000000F5280000000000000000000000000000000000000000000028ECECECECEC2800F50000000000000000F5280000000000000000000000000000000000000000000028ECECECECECEC28F500
310
00000000000000000000000000000000000000000000000000000000000000000000000000000000000000000000000000000000000000000000000000000000000000000000000000000000000000000000000000000000000000000000000000000000000000F5280000F500000000000000000028282828282828280000
310
28282828F5282828F500000000F5280000000000000000000000000000000000000000000028282828282828F5000000000000000000F528000000000000000000000000000000000000000000002828282828282800F50000000000000000F528000000000000000000000000000000000000000000002828282828282828
310
F50000000000000000000000000000000000000000000000000000000000000000000000000000000000000000000000000000000000000000000000000000000000000000000000000000000000000000000000000000000000000000000000000000000000000000F528ECF5ECECEC282828282828282828282828282828
310
28282828282828F52828F500000000F528ECECECECEC282828282828282828282828282828282828282828282828F5000000000000000000F528ECECECECEC28282828282828282828282828282828282828282828282800F50000000000000000F528ECECECECEC2828282828282828282828282828282828282828282828
310
2828F50000000000000000000000000000000000000000000000000000000000000000000000000000000000000000000000000000000000000000000000000000000000000000000000000000000000000000000000000000000000000000000000000000000000000000F5F5F52828282828282828282828282828282828
310
28282828282828282828F5F5F500000000F5282828282828282828282828282828282828282828282828282828282828F5000000000000000000F528282828282828282828282828282828282828282828282828282828282800F50000000000000000F5282828282828282828282828282828282828282828282828282828
310
28282828F50000000000000000000000000000000000000000000000000000000000000000000000000000000000000000000000000000000000000000000000000000000000000000000000000000000000000000000000000000000000000000000000000000000000000000F5F5F5F5F5F5F5F5F5F5F5F5F5F5F5F5F5F5
310
F5F5F5F5F5F5F5F5F5F5F5F5F5F5F500000000F5F5F5F5F5F5F5F5F5F5F5F528F5F5F5F5F5F5F5F5F5F5F528F5F528F5F5F5F5000000000000000000F5F5F5F5F5F5F5F5F5F5F5F5F5F5F5F5F5F5F5F5F5F5F5F528F5F5F528F5F5F5F50000000000000000F5F5F5F5F5F5F5F5F5F5F5F5F528F5F5F5F5F5F5F5F5F5F528F5
310
F5F528F5F5F5F5000000000000000000000000000000000000000000000000000000000000000000000000000000000000000000000000000000000000000000000000000000000000000000000000000000000000000000000000000000000000000000000000000000000000000000000000000000000000000000000000
310
000000000000000000000000000000000000000000F5280000282828282828282828000000000000000000000028ECEC28ECECECF5000000000000000000F528000000282828282828282800000000000000000000002800EC00ECECEC00F50000000000000000F52800000000000000000000002800000000000000000000
310
2800EC00ECECEC28F500000000000000000000000000000000000000000000000000000000000000000000000000000000000000000000000000000000000000000000000000000000000000000000000000000000000000000000000000000000000000000000000000000000000000000000000000000000000000000000
310
0000000000000000000000000000000000000000000000F528000028000000000F00002800000000000000000000002828282828ECECF5000000000000000000F528000000280000000F0F000000000000000000000000002828282828ECEC00F50000000000000000F5280000282828282828282828280000000000000000
310
00002828282828ECECECF50000000000000000000000000000000000000000000000000000000000000000000000000000000000000000000000000000000000000000000000000000000000000000000000000000000000000000000000000000000000000000000000000000000000000000000000000000000000000000
310
00000000000000000000000000000000000000000000000000F5280000C3C3C300C30F000028000000000000000000000028ECEC2828ECECF5000000000000000000F528000000C3C3C3C30F0FBE00000000000000000000000028ECEC2828ECEC00F50000000000000000F528000028280000000000000028000000000000
310
0000000028ECECEC28ECECECF5000000000000000000000000000000000000000000000000000000000000000000000000000000000000000000000000000000000000000000000000000000000000000000000000000000000000000000000000000000000000000000000000000000000000000000000000000000000000
310
000000000000000000000000000000000000000000000000000000F528000028C3C3C3BE0FBEC3C300000000000000000000002800ECECEC0028F5000000000000000000F528000000C300C3BEC3BEBEC300000000000000000000002800ECECEC002800F50000000000000000F528000028C3C3C300000000002800000000
310
0000000000002800ECECEC000028F500000000000000000000000000000000000000000000000000000000000000000000000000000000000000000000000000000000000000000000000000000000000000000000000000000000000000000000000000000000000000000000000000000000000000000000000000000000
310
0000000000000000000000000000000000000000000000000000000000F528000028C3ECC3C3C3C300280000000000000000000000ECECECECECEC28F5000000000000000000F528000000C300ECC3C3C3C3000000000000000000000000ECECECECECEC2800F50000000000000000F528000028C3BEC30000000000280000
310
0000000000000000ECECECECECEC2828F50000000000000000000000000000000000000000000000000000000000000000000000000000000000000000000000000000000000000000000000000000000000000000000000000000000000000000000000000000000000000000000000000000000000000000000000000000
310
00000000000000000000000000000000000000000000000000000000000000F528000028C3C3C3C3C3C30028000000000000000000000028282828282828F5000000000000000000F528000000C3C3C3C300C3C30000000000000000000000002828282828282800F50000000000000000F528000028C3BEC3000000000028
310
00000000000000000000ECECECECECEC0028F5000000000000000000000000000000000000000000000000000000000000000000000000000000000000000000000000000000000000000000000000000000000000000000000000000000000000000000000000000000000000000000000000000000000000000000000000
310
000000000000000000000000000000000000000000000000000000000000000000F528000028C3BE0F0000000028000000000000000000000028000000000028F5000000000000000000F528000000C3000F0F0000000000000000000000000000002800000000002800F50000000000000000F528000028C3C3C3C3000000
310
0028000000000000000000002800000000000028F500000000000000000000000000000000000000000000000000000000000000000000000000000000000000000000000000000000000000000000000000000000000000000000000000000000000000000000000000000000000000000000000000000000000000000000
310
0000000000000000000000000000000000000000000000000000000000000000000000F528000028C3BEBE0000000028000000000000000000000028000000000028F5000000000000000000F528000000C300BE000000000000000000000000000000002800000000002800F50000000000000000F528000028C3BEBE0000
310
00000028000000000000000000002800000000000028F50000000000000000000000000000000000000000000000000000000000000000000000000000000000000000000000000000000000000000000000000000000000000000000000000000000000000000000000000000000000000000000000000000000000000000
310
00000000000000000000000000000000000000000000000000000000000000000000000000F528000028C3C3C3C300000028000000000000000000000028000000000028F5000000000000000000F528000000C3C3C3C30000000000000000000000000000002800000000002800F50000000000000000F528000028C3BEBE
310
000000000028000000000000000000002800000000000028F5000000000000000000000000000000000000000000000000000000000000000000000000000000000000000000000000000000000000000000000000000000000000000000000000000000000000000000000000000000000000000000000000000000000000
310
000000000000000000000000000000000000000000000000000000000000000000000000000000F528000028C3C3BE0000000028000000000000000000000028000000000028F5000000000000000000F528000000C300BE000000000000000000000000000000002800000000002800F50000000000000000F528000028C3
310
C3C3C3000000002800000000000000000000ECECECEC00000028F500000000000000000000000000000000000000000000000000000000000000000000000000000000000000000000000000000000000000000000000000000000000000000000000000000000000000000000000000000000000000000000000000000000
310
0000000000000000000000000000000000000000000000000000000000000000000000000000000000F528000028C3C3BE00000000280000000000000000000000ECECECECEC0028F5000000000000000000F528000000C3C3BE00000000000000000000000000000000ECECECECEC002800F50000000000000000F5280000
310
28C3BEBE00000000002800000000000000000000ECECECEC00000028F50000000000000000000000000000000000000000000000000000000000000000000000000000000000000000000000000000000000000000000000000000000000000000000000000000000000000000000000000000000000000000000000000000
310
00000000000000000000000000000000000000000000000000000000000000000000000000000000000000F528000028C3C3C3C3C30000280000000000000000000000ECECECEC000028F5000000000000000000F528000000C3C3C3C3C30000000000000000000000000000ECECECEC00002800F50000000000000000F528
310
000028C3BEBE00000000002800000000000000000000ECECECEC00000028F5000000000000000000000000000000000000000000000000000000000000000000000000000000000000000000000000000000000000000000000000000000000000000000000000000000000000000000000000000000000000000000000000
310
000000000000000000000000000000000000000000000000000000000000000000000000000000000000000000F52800000000C3C3C3C30000280000000000000000000000ECECECECEC0028F5000000000000000000F528000000C3C3C3C3C30000000000000000000000000000ECECECECEC002800F50000000000000000
310
F528000028C3C3C3C3C30000002800000000000000000000ECECECEC00000028F500000000000000000000000000000000000000000000000000000000000000000000000000000000000000000000000000000000000000000000000000000000000000000000000000000000000000000000000000000000000000000000
310
0000000000000000000000000000000000000000000000000000000000000000000000000000000000000000000000F5ECECECECC3C3C300000000280000000000000000000000ECECECEC000028F5000000000000000000F528ECECECC3C3C30F000000000000000000000000000000ECECECEC00002800F5000000000000
310
0000F52800000000000000000000002800000000000000000000ECECECEC00000028F50000000000000000000000000000000000000000000000000000000000000000000000000000000000000000000000000000000000000000000000000000000000000000000000000000000000000000000000000000000000000000
310
00000000000000000000000000000000000000000000000000000000000000000000000000000000000000000000000000F528000028C3C3DC28280000280000000000000000000000ECECEC00000028F5000000000000000000F528000000C3C3DCC3280000000000000000000000000000ECECEC0000002800F500000000
310
00000000F52800000000000000000000002800000000000000000000ECECEC0000000028F5000000000000000000000000000000000000000000000000000000000000000000000000000000000000000000000000000000000000000000000000000000000000000000000000000000000000000000000000000000000000
310
000000000000000000000000000000000000000000000000000000000000000000000000000000000000000000000000000000F528000000C3C3C3C300000028000000000000000000000028ECECECECEC28F5000000000000000000F52800000000C3C3C300000000000000000000000000000028ECECECECEC2800F50000
310
000000000000F52800000000C3C30000000000280000000000000000000028ECECECECECEC28F500000000000000000000000000000000000000000000000000000000000000000000000000000000000000000000000000000000000000000000000000000000000000000000000000000000000000000000000000000000
310
0000000000000000000000000000000000000000000000000000000000000000000000000000000000000000000000000000000000F528000000C3BEBE0000000028000000000000000000000028ECECECECEC28F5000000000000000000F528000000C3C3C30000000000000000000000000000000028ECECECECEC2800F5
310
0000000000000000F528ECECECC3BEBE0000000000280000000000000000000028ECECECECECEC28F50000000000000000000000000000000000000000000000000000000000000000000000000000000000000000000000000000000000000000000000000000000000000000000000000000000000000000000000000000
310
00000000000000000000000000000000000000000000000000000000000000000000000000000000000000000000000000000000000000F5ECECECECC3BEDC2828000028000000000000000000000028ECECECECEC28F5000000000000000000F528ECECECC3C3DCF528000000000000000000000000000028ECECECECEC28
310
00F50000000000000000F52800002828BEBE2828000000280000000000000000000028ECECECECECEC28F5000000000000000000000000000000000000000000000000000000000000000000000000000000000000000000000000000000000000000000000000000000000000000000000000000000000000000000000000
310
000000000000000000000000000000000000000000000000000000000000000000000000000000000000000000000000000000000000000000F528000028C3C3C3C300000028000000000000000000000028282828282828F5000000000000000000F52800000028C3C3C30000000000000000000000000000002828282828
310
282800F50000000000000000F52800002800C3C3C30000000028000000000000000000002828282828282828F500000000000000000000000000000000000000000000000000000000000000000000000000000000000000000000000000000000000000000000000000000000000000000000000000000000000000000000
310
0000000000000000000000000000000000000000000000000000000000000000000000000000000000000000000000000000000000000000000000F528ECECECECC3C32828282828282828282828282828282828282828282828F5000000000000000000F528ECECECECECC3C3282828282828282828282828282828282828
310
2828282800F50000000000000000F528ECECECECECEC282828282828282828282828282828282828282828282828F50000000000000000000000000000000000000000000000000000000000000000000000000000000000000000000000000000000000000000000000000000000000000000000000000000000000000000
310
00000000000000000000000000000000000000000000000000000000000000000000000000000000000000000000000000000000000000000000000000F528ECECECECECEC2828282828282828282828282828282828282828282828F5000000000000000000F528ECECECECECEC2828282828282828282828282828282828
310
28282828282800F50000000000000000F528ECECECECECEC282828282828282828282828282828282828282828282828F5000000000000000000000000000000000000000000000000000000000000000000000000000000000000000000000000000000000000000000000000000000000000000000000000000000000000
310
000000000000000000000000000000000000000000000000000000000000000000000000000000000000000000000000000000000000000000000000000000F5F5F5F5F5F5F5F5F5F5F5F5F5F5F5F5F5F5F5F5F5F5F5F5F5F5F5F5F5F5F5F5000000000000000000F5F5F5F5F5F5F5F5F5F5F5F5F5F5F5F5F5F5F5F5F5F5F5
310
F5F5F5F5F5F5F5F5F5F50000000000000000F5F5F5F5F5F5F5F5F5F5F5F5F5F5F5F5F5F5F5F5F5F5F5F5F5F5F5F5F5F5F5F5F500000000000000000000000000000000000000000000000000000000000000000000000000000000000000000000000000000000000000000000000000000000000000000000000000000000
310
0000000000000000000000000000000000000000000000000000000000000000000000000000000000000000000000000000000000000000000000000000000000F5282828282828282828282828282828282828282828282828282828ECECECF5000000000000000000F52828282828282828282828282828282828282828
310
2828282828EC28ECECEC00F50000000000000000F528282828282828282828282828282828282828282828282828EC28ECECEC28F50000000000000000000000000000000000000000000000000000000000000000000000000000000000000000000000000000000000000000000000000000000000000000000000000000
310
00000000000000000000000000000000000000000000000000000000000000000000000000000000000000000000000000000000000000000000000000000000000000F5280000000000000000000000000000000000000000000028282828ECECECF5000000000000000000F5280000000000000000000000000000000000
310
00000000002828EC28ECECEC00F50000000000000000F528000000000000000000000000000000000000000000002828EC282828ECECF5000000000000000000000000000000000000000000000000000000000000000000000000000000000000000000000000000000000000000000000000000000000000000000000000
310
000000000000000000000000000000000000000000000000000000000000000000000000000000000000000000000000000000000000000000000000000000000000000000F5280000000000000000000000000000000000000000000028ECEC2828ECECF5000000000000000000F528000000000000000000000000000000
310
0000000000000028ECEC0028ECEC00F50000000000000000F5280000000000000000000000000000000000000000000028ECECEC2828ECECF500000000000000000000000000000000000000000000000000000000000000000000000000000000000000000000000000000000000000000000000000000000000000000000
310
0000000000000000000000000000000000000000000000000000000000000000000000000000000000000000000000000000000000000000000000000000000000000000000000F52800C300000FC300C3C3C30F00C3C3C300C30FC3C300002828282828ECECF5000000000000000000F528000F00000F0F00C3C3C30F00C3
310
C3C3000FC3C3C300002828ECECECECEC00F50000000000000000F52800000000000F00C3C3C30F00C3C3C3000FC3C3C300002828ECECEC28ECECF50000000000000000000000000000000000000000000000000000000000000000000000000000000000000000000000000000000000000000000000000000000000000000
310
00000000000000000000000000000000000000000000000000000000000000000000000000000000000000000000000000000000000000000000000000000000000000000000000000F52800C3C300F5C3C3C3C3C30FBEBEC3C300C3F5C3C3000028282828282828F5000000000000000000F52800C3C3000FC3C3C3C3C30F
310
BEC3C3C3000FC3C3C30000ECECECECEC282800F50000000000000000F5280000000000C3C3C3C3C30F00C3C3C3000FC3C3C300002828ECECEC282828F5000000000000000000000000000000000000000000000000000000000000000000000000000000000000000000000000000000000000000000000000000000000000
310
000000000000000000000000000000000000000000000000000000000000000000000000000000000000000000000000000000000000000000000000000000000000000000000000000000F52800C3C300F5C3C30000C3F5BEC3C3C300C3F50000C3C328282828282828F5000000000000000000F52800C3C3000FC3C30000
310
0F0FBEC3C3C3000F0F0000C3C3ECECECECECEC2800F50000000000000000F5280000000000C3C300000F0FBEC300C3000F0F0000C3C3ECECECECECEC0028F500000000000000000000000000000000000000000000000000000000000000000000000000000000000000000000000000000000000000000000000000000000
310
0000000000000000000000000000000000000000000000000000000000000000000000000000000000000000000000000000000000000000000000000000000000000000000000000000000000F52800BEC300C3C3C3BEBEC3BEBEBEC3C3BEC3BEBEBEC3C328000000000028F5000000000000000000F52800DCC300C3C3C3
310
C3BEF5F5BEC3C3C3BEF5F5BEC3C3C32800000000002800F50000000000000000F52800000000C3C3C300BEF5F5BEC3C3C3BEBEF5BEC3C3C32800000000000028F50000000000000000000000000000000000000000000000000000000000000000000000000000000000000000000000000000000000000000000000000000
310
00000000000000000000000000000000000000000000000000000000000000000000000000000000000000000000000000000000000000000000000000000000000000000000000000000000000000F52800C3C3C3C3C3C3C3C3C3C3C3C30000C3C3C3C3C3000028000000000028F5000000000000000000F52800C3C3C3C3
310
C3C300C3C3C3C3C300C3C3C3C3C3C300002800000000002800F50000000000000000F52800000000C3C3C3C3C3C3C3C3C30000C3C3C3C3C3C3002800000000000028F5000000000000000000000000000000000000000000000000000000000000000000000000000000000000000000000000000000000000000000000000
310
000000000000000000000000000000000000000000000000000000000000000000000000000000000000000000000000000000000000000000000000000000000000000000000000000000000000000000F528ECECECECECECECBEBEBEBEBEBE00C3BEBEBEBEC3000028000000000028F5000000000000000000F528ECECEC
310
ECECECECC3BEC3F5BEBE0000BEF5C3BEBEC3002800000000002800F50000000000000000F528000000ECECECEC00BEF5C3BEBEC300BEF5C3BEBEC3002800000000000028F500000000000000000000000000000000000000000000000000000000000000000000000000000000000000000000000000000000000000000000
310
0000000000000000000000000000000000000000000000000000000000000000000000000000000000000000000000000000000000000000000000000000000000000000000000000000000000000000000000F52828282828282828282828282828282828282828BE282828000000000028F5000000000000000000F528EC
310
ECECECECEC282828C328282828282828C328BE28282800000000002800F50000000000000000F528ECECECECECEC28282828C3282828282828C328BEBE28ECECECEC00000028F50000000000000000000000000000000000000000000000000000000000000000000000000000000000000000000000000000000000000000
310
00000000000000000000000000000000000000000000000000000000000000000000000000000000000000000000000000000000000000000000000000000000000000000000000000000000000000000000000000F52828282828282828282828282828282828282828282828ECECECEC000028F5000000000000000000F5
310
28ECECECECECEC28282828282828282828282828282828ECECECEC00002800F50000000000000000F528ECECECECECEC28282828282828282828282828282828ECECECEC00000028F5000000000000000000000000000000000000000000000000000000000000000000000000000000000000000000000000000000000000
310
000000000000000000000000000000000000000000000000000000000000000000000000000000000000000000000000000000000000000000000000000000000000000000000000000000000000000000000000000000F52800000000000000000000000000000000000000000000ECECECECEC0028F50000000000000000
310
00F52800000000000000000000000000000000000000000000ECECECECEC002800F50000000000000000F52800000000000000000000000000000000000000000000ECECECEC00000028F500000000000000000000000000000000000000000000000000000000000000000000000000000000000000000000000000000000
310
0000000000000000000000000000000000000000000000000000000000000000000000000000000000000000000000000000000000000000000000000000000000000000000000000000000000000000000000000000000000F52800000000000000000000000000000000000000000000ECECECECEC0028F5000000000000
310
000000F52800000000000000000000000000000000000000000000ECECECECEC002800F50000000000000000F52800000000000000000000000000000000000000000000ECECECEC00000028F50000000000000000000000000000000000000000000000000000000000000000000000000000000000000000000000000000
310
00000000000000000000000000000000000000000000000000000000000000000000000000000000000000000000000000000000000000000000000000000000000000000000000000000000000000000000000000000000000000F52800C3000000C3000000C30000C3C3C300C30000000000ECECECEC000028F500000000
310
0000000000F52800C3000000C300C3C3C3000000C3C30000C300000000ECECECEC00002800F50000000000000000F5280000000000C300C3C3C3C30000C3C30000C300000000ECECECEC00000028F5000000000000000000000000000000000000000000000000000000000000000000000000000000000000000000000000
310
000000000000000000000000000000000000000000000000000000000000000000000000000000000000000000000000000000000000000000000000000000000000000000000000000000000000000000000000000000000000000000F528000FC3000F0FC3C3C30F00BEBEC3C300C30FC3C30000ECECECEC000028F50000
310
00000000000000F52800C3C3000FC3C3C3C3C30FBEC3C3C3000FC3C3C30000ECECECEC00002800F50000000000000000F5280000000000C3C3C3C3C30F00C3C3C30000C3C3C30000ECECEC0000000028F500000000000000000000000000000000000000000000000000000000000000000000000000000000000000000000
310
0000000000000000000000000000000000000000000000000000000000000000000000000000000000000000000000000000000000000000000000000000000000000000000000000000000000000000000000000000000000000000000000F528000FC3000F0FC300000F00BEC3C3C300C30F00000000ECECECECECEC28F5
310
000000000000000000F52800C3C3000FC3C300000F0FBEC3C3C3000F0F00000000ECECECECECEC2800F50000000000000000F5280000000000C3C300000F0F00C300C300000F00000000ECECECECECEC2828F50000000000000000000000000000000000000000000000000000000000000000000000000000000000000000
310
00000000000000000000000000000000000000000000000000000000000000000000000000000000000000000000000000000000000000000000000000000000000000000000000000000000000000000000000000000000000000000000000000F52800C3C300C3C3C3BEBEC3BEBEBE00C3BEC3BEBEBEC3C328ECECECECEC
310
28F5000000000000000000F52800C3C300C3C3C3C3BEBEBEBEC3C3C3BEBEBEBEC3C3C328ECECECECEC2800F50000000000000000F52800000000C3C3C300BEBEBEBEC300C3BEBEBEBEC3C3C328ECECECECEC0028F5000000000000000000000000000000000000000000000000000000000000000000000000000000000000
310
000000000000000000000000000000000000000000000000000000000000000000000000000000000000000000000000000000000000000000000000000000000000000000000000000000000000000000000000000000000000000000000000000000F52800C3C3C3BEC3C3BEBEC3BEBEC3C3C3BEC3BEBEBE000028ECECEC
310
ECECECF5000000000000000000F52800C3C3C3C3C3C300C3C3C3C3C3C3C3C3C3C3C3C3000028ECECECECECEC00F50000000000000000F52800000000C3C3C3C3C3C3C3C3C3C3C3C3C3C3C3C3C3002828282828282828F500000000000000000000000000000000000000000000000000000000000000000000000000000000
310
0000000000000000000000000000000000000000000000000000000000000000000000000000000000000000000000000000000000000000000000000000000000000000000000000000000000000000000000000000000000000000000000000000000000F528ECECECECECECECBEC3C3C3C3C300C3BEBEBEBEC3000028EC
310
ECECECECECF5000000000000000000F528ECECC3C3ECECC3C3C3C3BEC3C30000C3C3C3C3C3C30028ECECECECECEC00F50000000000000000F528000000ECECC3EC00C3C3C3C3C3C300C3C3C3C3BEC3002828282828282828F50000000000000000000000000000000000000000000000000000000000000000000000000000
310
00000000000000000000000000000000000000000000000000000000000000000000000000000000000000000000000000000000000000000000000000000000000000000000000000000000000000000000000000000000000000000000000000000000000000F528282828282828282828282828282828BEBEBEBEBE2828
310
28282828282828F5000000000000000000F528ECECECECECECEC28BEBEBEBEBE2828BEBEC3BEBE28282828282828282800F50000000000000000F5282828282828282828BEBEBEBEBE2828BEBEC3BEBEBE282828282828282828F5000000000000000000000000000000000000000000000000000000000000000000000000
310
000000000000000000000000000000000000000000000000000000000000000000000000000000000000000000000000000000000000000000000000000000000000000000000000000000000000000000000000000000000000000000000000000000000000000000F5282828282828282828282828282828282828282828
310
282828282828282828F5000000000000000000F528ECECECECECEC282828282828282828282828282828282828282828282800F50000000000000000F528ECECECECECEC282828282828282828282828282828282828282828282828F500000000000000000000000000000000000000000000000000000000000000000000
310
0000000000000000000000000000000000000000000000000000000000000000000000000000000000000000000000000000000000000000000000000000000000000000000000000000000000000000000000000000000000000000000000000000000000000000000000F5F5F5F5F5F5F5F5F5F5F5F5F5F5F5F5F5F5F5F5
310
F5F5F5F5F5F5F5F5F5F5F5F5000000000000000000F5F5F5F5F5F5F5F5F5F5F5F5F5F5F5F5F5F5F5F5F5F5F5F5F5F5F5F5F5F5F5F5F50000000000000000F5F5F5F5F5F5F5F5F5F5F5F5F5F5F5F5F5F5F5F5F5F5F5F5F5F5F5F5F5F5F5F5F50000000000000000000000000000000000000000000000000000000000000000
310
00000000000000000000000000000000000000000000000000000000000000000000000000000000000000000000000000000000000000000000000000000000000000000000000000000000000000000000000000000000000000000000000000000000000000000000000000F52828282828282828282828282828282828
310
28282828282828282828282828F5000000000000000000F528282828282828282828282828282828282828282828282828282828282800F50000000000000000F528282828282828282828282828282828282828282828282828282828282828F5000000000000000000000000000000000000000000000000000000000000
310
000000000000000000000000000000000000000000000000000000000000000000000000000000000000000000000000000000000000000000000000000000000000000000000000000000000000000000000000000000000000000000000000000000000000000000000000000000F5280000000000000000000000000000
310
000000000000000028282828ECECECF5000000000000000000F528000000000000000000000000000000000000000000002828EC28ECECEC00F50000000000000000F528000000000000000000000000000000000000000000002828EC28ECECEC28F500000000000000000000000000000000000000000000000000000000
310
0000000000000000000000000000000000000000000000000000000000000000000000000000000000000000000000000000000000000000000000000000000000000000000000000000000000000000000000000000000000000000000000000000000000000000000000000000000000F528000000000000000000000000
310
0000000000000000000028ECEC2828ECECF5000000000000000000F5280000000000000000000000000000000000000000000028ECEC0028ECEC00F50000000000000000F5280000000000000000000000000000000000000000000028ECECEC28282828F50000000000000000000000000000000000000000000000000000
310
00000000000000000000000000000000000000000000000000000000000000000000000000000000000000000000000000000000000000000000000000000000000000000000000000000000000000000000000000000000000000000000000000000000000000000000000000000000000000F52800C300000FC3000000C3
310
0F00C3C3C300C30F000000002828282828ECECF5000000000000000000F52800C30F000FC30000000F0F0000C3C3000F0F000000002828282828ECEC00F50000000000000000F528000000000FC30000000F0F00C3C3C3000F0F000000002828282828282828F5000000000000000000000000000000000000000000000000
310
000000000000000000000000000000000000000000000000000000000000000000000000000000000000000000000000000000000000000000000000000000000000000000000000000000000000000000000000000000000000000000000000000000000000000000000000000000000000000000F52800C3C300F5C3C3C3
310
C3C3F5BEC3C3C300C3F5C3C3000028282828282828F5000000000000000000F52800F5F500F5F5C3C3C30FF5BEBEC3C3000FF5C3C300002828ECECEC282800F50000000000000000F52800000000F5F5C3C3C3C30FBEC3C3C3000FC3C3C300002828ECECEC282828F500000000000000000000000000000000000000000000
310
0000000000000000000000000000000000000000000000000000000000000000000000000000000000000000000000000000000000000000000000000000000000000000000000000000000000000000000000000000000000000000000000000000000000000000000000000000000000000000000000F52800C3C300F5C3
310
C30000C30FBEC3C3C300C30F0000000028282828282828F5000000000000000000F52800F5F500F5F5C300000F0FBEBEC3C3000F0F00000000ECECECECECEC2800F50000000000000000F52800000000F5C3C30000F5F5BEBEC3C3000F0F00000000ECECECECECEC0028F50000000000000000000000000000000000000000
310
00000000000000000000000000000000000000000000000000000000000000000000000000000000000000000000000000000000000000000000000000000000000000000000000000000000000000000000000000000000000000000000000000000000000000000000000000000000000000000000000000F52800BEC300
310
C3C3C3BEBEC3BEBEC3C3C3BEC3BEBEC3C3C328000000000028F5000000000000000000F52800F5BE00BEF5C3C3BEF5F5BEBEC3C3BEF5F5BEBEC3C32800000000002800F50000000000000000F52800000000C3C3C3C3BEF5F5BEBEC3C3BEF5F5BEBEC3C32800000000000028F5000000000000000000000000000000000000
310
000000000000000000000000000000000000000000000000000000000000000000000000000000000000000000000000000000000000000000000000000000000000000000000000000000000000000000000000000000000000000000000000000000000000000000000000000000000000000000000000000000F52800BE
310
C3C3C3C3C3C3C3C3C3C3C3C3C3C3C3C3C3C3000028000000000028F5000000000000000000F52800F5BEC3BEF5C300BEF5BEBEC3C3C3BEF5F5BEBE00002800000000002800F50000000000000000F52800000000C3C3C300BEF5BEBEC3C3C3BEF5F5BEBE00002800000000000028F500000000000000000000000000000000
310
0000000000000000000000000000000000000000000000000000000000000000000000000000000000000000000000000000000000000000000000000000000000000000000000000000000000000000000000000000000000000000000000000000000000000000000000000000000000000000000000000000000000F528
310
ECECECECECECECBEC3C3C3C3C300C3C3C3F5C3C3000028000000000028F5000000000000000000F528ECECECECECECECC3BEF5F5BEBE0000BEF5F5BEBEC3002800000000002800F50000000000000000F528000000ECECECECC3C3C3F5C3BE0000C3C3F5C3BEC3002800000000000028F50000000000000000000000000000
310
00000000000000000000000000000000000000000000000000000000000000000000000000000000000000000000000000000000000000000000000000000000000000000000000000000000000000000000000000000000000000000000000000000000000000000000000000000000000000000000000000000000000000
310
F528282828282828282828F5F528282828BEF5F5BEBE282828000000000028F5000000000000000000F5282828282828282828BEF5F5BEBE2828BEF5F5BEBE28282800000000002800F50000000000000000F5282828282828282828BEF5F5BEBE2828BEF5F5BEBE28282800000000000028F5000000000000000000000000
310
00000000000000000000000000000000000000000000000000000000000000000000000000000000000000000000000000000000000000000000000000000000000000000000000000000000000000000000000000000000000000000000000000000000000000000000000000000000000000000000000000000000000000
310
0000F528ECECECECECEC28282828282828282828282828282828ECECEC00000028F5000000000000000000F528ECECECECECEC28282828282828282828282828282828ECECEC0000002800F50000000000000000F528ECECECECECEC28282828282828282828282828282828ECECECEC00000028F500000000000000000000
310
00000000000000000000000000000000000000000000000000000000000000000000000000000000000000000000000000000000000000000000000000000000000000000000000000000000000000000000000000000000000000000000000000000000000000000000000000000000000000000000000000000000000000
310
00000000F52800000000000000000000000000000000000000000000ECECECECEC0028F5000000000000000000F52800000000000000000000000000000000000000000000ECECECECEC002800F50000000000000000F52800000000000000000000000000000000000000000000ECECECEC00000028F50000000000000000
310
00000000000000000000000000000000000000000000000000000000000000000000000000000000000000000000000000000000000000000000000000000000000000000000000000000000000000000000000000000000000000000000000000000000000000000000000000000000000000000000000000000000000000
310
000000000000F52800000000000000000000000000000000000000000000ECECECEC000028F5000000000000000000F52800000000000000000000000000000000000000000000ECECECEC00002800F50000000000000000F52800000000000000000000000000000000000000000000ECECECEC00000028F5000000000000
310
00000000000000000000000000000000000000000000000000000000000000000000000000000000000000000000000000000000000000000000000000000000000000000000000000000000000000000000000000000000000000000000000000000000000000000000000000000000000000000000000000000000000000
310
0000000000000000F52800000000000000000000000000000000000000000000ECECECECEC0028F5000000000000000000F52800000000000000000000000000000000000000000000ECECECECEC002800F50000000000000000F52800000000000000000000000000000000000000000000ECECECEC00000028F500000000
310
00000000000000000000000000000000000000000000000000000000000000000000000000000000000000000000000000000000000000000000000000000000000000000000000000000000000000000000000000000000000000000000000000000000000000000000000000000000000000000000000000000000000000
310
00000000000000000000F52800C300000FC300C3C30F0FBEBEC3C3000F0FC3C30000ECECECEC000028F5000000000000000000F528000F0F000F0F00C3C3C30FBEC3C3C3000FC3C3C30000ECECECEC00002800F50000000000000000F528000000000FC300C3C3C30F00C3C3C3000FC3C3C30000ECECECEC00000028F50000
310
00000000000000000000000000000000000000000000000000000000000000000000000000000000000000000000000000000000000000000000000000000000000000000000000000000000000000000000000000000000000000000000000000000000000000000000000000000000000000000000000000000000000000
310
000000000000000000000000F52800C3C3000FC3C300000F0FBEC3C3C3000F0F00000000EC282828282828F5000000000000000000F528000FC3000F0FC300000F0FBEC3C3C3000F0F00000000ECEC282828282800F50000000000000000F528000000000FC3C300000F0F00C300C3000F0F00000000ECEC282828282828F5
310
00000000000000000000000000000000000000000000000000000000000000000000000000000000000000000000000000000000000000000000000000000000000000000000000000000000000000000000000000000000000000000000000000000000000000000000000000000000000000000000000000000000000000
310
0000000000000000000000000000F52800BEC300BEC3C3BEBEF50FBEBEC3C3BE0F0FBEBEC3C328ECECECECEC28F5000000000000000000F528000FC3000F0FC300BEF5F5BEC3C3C3BEF5F5BEBEC3C328ECECECECECEC00F50000000000000000F528000000000FC3C300BE0F0FBEC300C3BE0F0FBEBEC3C32828ECECECECEC
310
28F50000000000000000000000000000000000000000000000000000000000000000000000000000000000000000000000000000000000000000000000000000000000000000000000000000000000000000000000000000000000000000000000000000000000000000000000000000000000000000000000000000000000
310
00000000000000000000000000000000F528000FC300C3C3C3BEBEF5BEBEC3C3C3BEF5F5BEBEC30028ECECEC282828F5000000000000000000F52800C3C300C3C3C3C3BEF5F5BEC3C3C3BEF5F5C3C3C3002828ECEC28282800F50000000000000000F52800000000C3C3C300BEF5F5BEC3C3C3BEBEF5BEC3C3002828282828
310
282828F5000000000000000000000000000000000000000000000000000000000000000000000000000000000000000000000000000000000000000000000000000000000000000000000000000000000000000000000000000000000000000000000000000000000000000000000000000000000000000000000000000000
310
000000000000000000000000000000000000F528ECECECECECECECBEBEF5F5BEBE0000BEF5F5BEBE000028ECECECECECECF5000000000000000000F528ECC3C3C3ECECC300C3C3F5C3C30000C3C3F5C3C3000028ECECECECECEC00F50000000000000000F528000000ECECC3C3C3C3C3F5C3C30000C3C3F5C3C3C3002828EC
310
ECECECEC28F500000000000000000000000000000000000000000000000000000000000000000000000000000000000000000000000000000000000000000000000000000000000000000000000000000000000000000000000000000000000000000000000000000000000000000000000000000000000000000000000000
310
0000000000000000000000000000000000000000F528ECECECECECECECBEBEF5F5BEBE00C3BEF5F5BEC3000028282828282828F5000000000000000000F528ECECECECECECECC3BEF5F5BEBE0000BEF5F5BEBEC3002828282828282800F50000000000000000F528000000ECECECEC00BEF5F5BEBEC300BEBEF5BEBEBE0028
310
28282828282828F50000000000000000000000000000000000000000000000000000000000000000000000000000000000000000000000000000000000000000000000000000000000000000000000000000000000000000000000000000000000000000000000000000000000000000000000000000000000000000000000
310
00000000000000000000000000000000000000000000F528ECECECECECEC28282828282828282828282828BE282828282828282828F5000000000000000000F528ECECECECECEC28282828282828282828282828BE28282828282828282800F50000000000000000F528ECECECECECEC28282828282828282828282828BEBE
310
282828282828282828F5000000000000000000000000000000000000000000000000000000000000000000000000000000000000000000000000000000000000000000000000000000000000000000000000000000000000000000000000000000000000000000000000000000000000000000000000000000000000000000
310
000000000000000000000000000000000000000000000000F5F5F5F5F5F5F5F5F5F5F5F5F5F5F5F5F5F5F5F5F5F5F5F5F5F5F5F5F5F5F5F5000000000000000000F5F5F5F5F5F5F5F5F5F5F5F5F5F5F5F5F5F5F5F5F5F5F5F5F5F5F5F5F5F5F5F5F50000000000000000F5F5F5F5F5F5F5F5F5F5F5F5F5F5F5F5F5F5F5F5F5
310
F5F5F5F5F5F5F5F5F5F5F5F500000000000000000000000000000000000000000000000000000000000000000000000000000000000000000000000000000000000000000000000000000000000000000000000000000000000000000000000000000000000000000000000000000000000000000000000000000000000000
310
00000000000000000000000000000000000000000000000000000000000000000000000000000000000000000000000000000000000000000000000000000000000000000000000000000000000000000000000000000000000000000000000000000000000000000000000000000000000000000000000000000000000000
310
000000000000000000000000000000000000000000000000000000000000000000000000000000000000000000000000000000000000000000000000000000000000
  0
XRECORD
  5
14541
102
{ACAD_REACTORS
330
14540
102
}
330
14540
100
AcDbXrecord
280
     1
102
SHADEPLOT
 70
     0
102
SHADEPLOTRESLEVEL
 70
     2
102
SHADEPLOTCUSTOMDPI
 70
   300
  0
XRECORD
  5
14543
102
{ACAD_REACTORS
330
3DB1
102
}
330
3DB1
100
AcDbXrecord
280
     1
102
MATERIAL
148
0.0
149
0.0
149
0.0
 93
        0
 94
      127
282
     0
 72
     0
 77
     0
171
     0
175
     0
179
     0
273
     0
  0
XRECORD
  5
3DB3
102
{ACAD_REACTORS
330
3DB1
102
}
330
3DB1
100
AcDbXrecord
280
     1
270
     1
271
     1
  0
XRECORD
  5
3DB2
102
{ACAD_REACTORS
330
3DB1
102
}
330
3DB1
100
AcDbXrecord
280
     1
270
     1
271
     1
  0
XRECORD
  5
3DB6
102
{ACAD_REACTORS
330
3DB1
102
}
330
3DB1
100
AcDbXrecord
280
     1
270
     1
271
     1
  0
XRECORD
  5
3DB5
102
{ACAD_REACTORS
330
3DB1
102
}
330
3DB1
100
AcDbXrecord
280
     1
270
     1
271
     1
  0
XRECORD
  5
3DB7
102
{ACAD_REACTORS
330
3DB1
102
}
330
3DB1
100
AcDbXrecord
280
     1
270
     1
271
     1
  0
XRECORD
  5
3DB4
102
{ACAD_REACTORS
330
3DB1
102
}
330
3DB1
100
AcDbXrecord
280
     1
270
     1
271
     1
  0
XRECORD
  5
14542
102
{ACAD_REACTORS
330
3DA9
102
}
330
3DA9
100
AcDbXrecord
280
     1
102
MATERIAL
148
0.0
149
0.0
149
0.0
 93
        0
 94
      127
282
     0
 72
     0
 77
     0
171
     0
175
     0
179
     0
273
     0
  0
XRECORD
  5
3DAB
102
{ACAD_REACTORS
330
3DA9
102
}
330
3DA9
100
AcDbXrecord
280
     1
270
     1
271
     1
  0
XRECORD
  5
3DAA
102
{ACAD_REACTORS
330
3DA9
102
}
330
3DA9
100
AcDbXrecord
280
     1
270
     1
271
     1
  0
XRECORD
  5
3DAE
102
{ACAD_REACTORS
330
3DA9
102
}
330
3DA9
100
AcDbXrecord
280
     1
270
     1
271
     1
  0
XRECORD
  5
3DAD
102
{ACAD_REACTORS
330
3DA9
102
}
330
3DA9
100
AcDbXrecord
280
     1
270
     1
271
     1
  0
XRECORD
  5
3DAF
102
{ACAD_REACTORS
330
3DA9
102
}
330
3DA9
100
AcDbXrecord
280
     1
270
     1
271
     1
  0
XRECORD
  5
3DAC
102
{ACAD_REACTORS
330
3DA9
102
}
330
3DA9
100
AcDbXrecord
280
     1
270
     1
271
     1
  0
XRECORD
  5
14544
102
{ACAD_REACTORS
330
3DB9
102
}
330
3DB9
100
AcDbXrecord
280
     1
102
MATERIAL
148
0.0
149
0.0
149
0.0
 93
        0
 94
      127
282
     0
 72
     0
 77
     0
171
     0
175
     0
179
     0
273
     0
  0
XRECORD
  5
3DBB
102
{ACAD_REACTORS
330
3DB9
102
}
330
3DB9
100
AcDbXrecord
280
     1
270
     1
271
     1
  0
XRECORD
  5
3DBA
102
{ACAD_REACTORS
330
3DB9
102
}
330
3DB9
100
AcDbXrecord
280
     1
270
     1
271
     1
  0
XRECORD
  5
3DBE
102
{ACAD_REACTORS
330
3DB9
102
}
330
3DB9
100
AcDbXrecord
280
     1
270
     1
271
     1
  0
XRECORD
  5
3DBD
102
{ACAD_REACTORS
330
3DB9
102
}
330
3DB9
100
AcDbXrecord
280
     1
270
     1
271
     1
  0
XRECORD
  5
3DBF
102
{ACAD_REACTORS
330
3DB9
102
}
330
3DB9
100
AcDbXrecord
280
     1
270
     1
271
     1
  0
XRECORD
  5
3DBC
102
{ACAD_REACTORS
330
3DB9
102
}
330
3DB9
100
AcDbXrecord
280
     1
270
     1
271
     1
  0
XRECORD
  5
1453B
102
{ACAD_REACTORS
330
1453A
102
}
330
1453A
100
AcDbXrecord
280
     1
102
ACAD_ROUNDTRIP_2012_MLEADER_STYLE
298
     1
  0
CELLSTYLEMAP
  5
14539
102
{ACAD_REACTORS
330
14538
102
}
330
14538
100
AcDbCellStyleMap
 90
        3
300
CELLSTYLE
  1
TABLEFORMAT_BEGIN
 90
        5
170
     1
 91
        0
 92
    32768
 62
   257
 93
        1
300
CONTENTFORMAT
  1
CONTENTFORMAT_BEGIN
 90
        0
 91
        0
 92
        4
 93
        0
300

 40
0.0
140
1.0
 94
        5
 62
     0
340
7
144
0.25
309
CONTENTFORMAT_END
171
     0
 94
        6
 95
        1
302
GRIDFORMAT
  1
GRIDFORMAT_BEGIN
 90
        0
 91
        1
 62
     0
 92
       -2
340
0
 93
        0
 40
0.045
309
GRIDFORMAT_END
 95
        2
302
GRIDFORMAT
  1
GRIDFORMAT_BEGIN
 90
        0
 91
        1
 62
     0
 92
       -2
340
0
 93
        0
 40
0.045
309
GRIDFORMAT_END
 95
        4
302
GRIDFORMAT
  1
GRIDFORMAT_BEGIN
 90
        0
 91
        1
 62
     0
 92
       -2
340
0
 93
        0
 40
0.045
309
GRIDFORMAT_END
 95
        8
302
GRIDFORMAT
  1
GRIDFORMAT_BEGIN
 90
        0
 91
        1
 62
     0
 92
       -2
340
0
 93
        0
 40
0.045
309
GRIDFORMAT_END
 95
       16
302
GRIDFORMAT
  1
GRIDFORMAT_BEGIN
 90
        0
 91
        1
 62
     0
 92
       -2
340
0
 93
        0
 40
0.045
309
GRIDFORMAT_END
 95
       32
302
GRIDFORMAT
  1
GRIDFORMAT_BEGIN
 90
        0
 91
        1
 62
     0
 92
       -2
340
0
 93
        0
 40
0.045
309
GRIDFORMAT_END
309
TABLEFORMAT_END
  1
CELLSTYLE_BEGIN
 90
        1
 91
        1
300
_TITLE
309
CELLSTYLE_END
300
CELLSTYLE
  1
TABLEFORMAT_BEGIN
 90
        5
170
     1
 91
        0
 92
        0
 62
   257
 93
        1
300
CONTENTFORMAT
  1
CONTENTFORMAT_BEGIN
 90
        0
 91
        0
 92
        4
 93
        0
300

 40
0.0
140
1.0
 94
        5
 62
     0
340
7
144
0.18
309
CONTENTFORMAT_END
171
     0
 94
        6
 95
        1
302
GRIDFORMAT
  1
GRIDFORMAT_BEGIN
 90
        0
 91
        1
 62
     0
 92
       -2
340
0
 93
        0
 40
0.045
309
GRIDFORMAT_END
 95
        2
302
GRIDFORMAT
  1
GRIDFORMAT_BEGIN
 90
        0
 91
        1
 62
     0
 92
       -2
340
0
 93
        0
 40
0.045
309
GRIDFORMAT_END
 95
        4
302
GRIDFORMAT
  1
GRIDFORMAT_BEGIN
 90
        0
 91
        1
 62
     0
 92
       -2
340
0
 93
        0
 40
0.045
309
GRIDFORMAT_END
 95
        8
302
GRIDFORMAT
  1
GRIDFORMAT_BEGIN
 90
        0
 91
        1
 62
     0
 92
       -2
340
0
 93
        0
 40
0.045
309
GRIDFORMAT_END
 95
       16
302
GRIDFORMAT
  1
GRIDFORMAT_BEGIN
 90
        0
 91
        1
 62
     0
 92
       -2
340
0
 93
        0
 40
0.045
309
GRIDFORMAT_END
 95
       32
302
GRIDFORMAT
  1
GRIDFORMAT_BEGIN
 90
        0
 91
        1
 62
     0
 92
       -2
340
0
 93
        0
 40
0.045
309
GRIDFORMAT_END
309
TABLEFORMAT_END
  1
CELLSTYLE_BEGIN
 90
        2
 91
        1
300
_HEADER
309
CELLSTYLE_END
300
CELLSTYLE
  1
TABLEFORMAT_BEGIN
 90
        5
170
     1
 91
        0
 92
        0
 62
   257
 93
        1
300
CONTENTFORMAT
  1
CONTENTFORMAT_BEGIN
 90
        0
 91
        0
 92
        4
 93
        0
300

 40
0.0
140
1.0
 94
        2
 62
     0
340
7
144
0.18
309
CONTENTFORMAT_END
171
     0
 94
        6
 95
        1
302
GRIDFORMAT
  1
GRIDFORMAT_BEGIN
 90
        0
 91
        1
 62
     0
 92
       -2
340
0
 93
        0
 40
0.045
309
GRIDFORMAT_END
 95
        2
302
GRIDFORMAT
  1
GRIDFORMAT_BEGIN
 90
        0
 91
        1
 62
     0
 92
       -2
340
0
 93
        0
 40
0.045
309
GRIDFORMAT_END
 95
        4
302
GRIDFORMAT
  1
GRIDFORMAT_BEGIN
 90
        0
 91
        1
 62
     0
 92
       -2
340
0
 93
        0
 40
0.045
309
GRIDFORMAT_END
 95
        8
302
GRIDFORMAT
  1
GRIDFORMAT_BEGIN
 90
        0
 91
        1
 62
     0
 92
       -2
340
0
 93
        0
 40
0.045
309
GRIDFORMAT_END
 95
       16
302
GRIDFORMAT
  1
GRIDFORMAT_BEGIN
 90
        0
 91
        1
 62
     0
 92
       -2
340
0
 93
        0
 40
0.045
309
GRIDFORMAT_END
 95
       32
302
GRIDFORMAT
  1
GRIDFORMAT_BEGIN
 90
        0
 91
        1
 62
     0
 92
       -2
340
0
 93
        0
 40
0.045
309
GRIDFORMAT_END
309
TABLEFORMAT_END
  1
CELLSTYLE_BEGIN
 90
        3
 91
        2
300
_DATA
309
CELLSTYLE_END
  0
XRECORD
  5
1453E
102
{ACAD_REACTORS
330
14538
102
}
330
14538
100
AcDbXrecord
280
     1
102
ACAD_ROUNDTRIP_PRE2007_TABLESTYLE
 90
        4
 91
        0
  1

 92
        4
 93
        0
  2

 94
        4
 95
        0
  3

  0
XRECORD
  5
14550
102
{ACAD_REACTORS
330
1454F
102
}
330
1454F
100
AcDbXrecord
280
     1
102
RTVSPropertyOp0
 70
     1
102
RTVSPropertyOp1
 70
     1
102
RTVSPropertyOp2
 70
     1
102
RTVSPropertyOp3
 70
     1
102
RTVSPropertyOp4
 70
     1
102
RTVSPropertyOp5
 70
     1
102
RTVSPropertyOp6
 70
     1
102
RTVSPropertyOp7
 70
     1
102
RTVSPropertyOp8
 70
     1
102
RTVSPropertyOp9
 70
     1
102
RTVSPropertyOp10
 70
     1
102
RTVSPropertyOp11
 70
     1
102
RTVSPropertyOp12
 70
     1
102
RTVSPropertyOp13
 70
     1
102
RTVSPropertyOp14
 70
     1
102
RTVSPropertyOp15
 70
     1
102
RTVSPropertyOp16
 70
     1
102
RTVSPropertyOp17
 70
     1
102
RTVSPropertyOp18
 70
     1
102
RTVSPropertyOp19
 70
     1
102
RTVSPropertyOp20
 70
     1
102
RTVSPropertyOp21
 70
     1
102
RTVSPropertyOp22
 70
     1
102
RTVSPropertyOp23
 70
     1
102
RTVSPropertyOp24
 70
     1
102
RTVSPropertyOp25
 70
     1
102
RTVSPropertyOp26
 70
     1
102
RTVSPropertyOp27
 70
     1
102
RTVSPropertyOp28
 70
     1
102
RTVSPropertyOp29
 70
     1
102
RTVSPropertyOp30
 70
     1
102
RTVSPropertyOp31
 70
     1
102
RTVSPropertyOp32
 70
     1
  0
XRECORD
  5
1454E
102
{ACAD_REACTORS
330
1454D
102
}
330
1454D
100
AcDbXrecord
280
     1
102
RTVSPropertyOp0
 70
     1
102
RTVSPropertyOp1
 70
     1
102
RTVSPropertyOp2
 70
     1
102
RTVSPropertyOp3
 70
     1
102
RTVSPropertyOp4
 70
     1
102
RTVSPropertyOp5
 70
     1
102
RTVSPropertyOp6
 70
     1
102
RTVSPropertyOp7
 70
     1
102
RTVSPropertyOp8
 70
     1
102
RTVSPropertyOp9
 70
     1
102
RTVSPropertyOp10
 70
     1
102
RTVSPropertyOp11
 70
     1
102
RTVSPropertyOp12
 70
     1
102
RTVSPropertyOp13
 70
     1
102
RTVSPropertyOp14
 70
     1
102
RTVSPropertyOp15
 70
     1
102
RTVSPropertyOp16
 70
     1
102
RTVSPropertyOp17
 70
     1
102
RTVSPropertyOp18
 70
     1
102
RTVSPropertyOp19
 70
     1
102
RTVSPropertyOp20
 70
     1
102
RTVSPropertyOp21
 70
     1
102
RTVSPropertyOp22
 70
     1
102
RTVSPropertyOp23
 70
     1
102
RTVSPropertyOp24
 70
     1
102
RTVSPropertyOp25
 70
     1
102
RTVSPropertyOp26
 70
     1
102
RTVSPropertyOp27
 70
     1
102
RTVSPropertyOp28
 70
     1
102
RTVSPropertyOp29
 70
     1
102
RTVSPropertyOp30
 70
     1
102
RTVSPropertyOp31
 70
     1
102
RTVSPropertyOp32
 70
     1
  0
XRECORD
  5
1455C
102
{ACAD_REACTORS
330
1455B
102
}
330
1455B
100
AcDbXrecord
280
     1
102
RTVSPropertyOp0
 70
     1
102
RTVSPropertyOp1
 70
     1
102
RTVSPropertyOp2
 70
     1
102
RTVSPropertyOp3
 70
     1
102
RTVSPropertyOp4
 70
     1
102
RTVSPropertyOp5
 70
     1
102
RTVSPropertyOp6
 70
     1
102
RTVSPropertyOp7
 70
     1
102
RTVSPropertyOp8
 70
     1
102
RTVSPropertyOp9
 70
     1
102
RTVSPropertyOp10
 70
     1
102
RTVSPropertyOp11
 70
     1
102
RTVSPropertyOp12
 70
     1
102
RTVSPropertyOp13
 70
     1
102
RTVSPropertyOp14
 70
     1
102
RTVSPropertyOp15
 70
     1
102
RTVSPropertyOp16
 70
     1
102
RTVSPropertyOp17
 70
     1
102
RTVSPropertyOp18
 70
     1
102
RTVSPropertyOp19
 70
     1
102
RTVSPropertyOp20
 70
     1
102
RTVSPropertyOp21
 70
     1
102
RTVSPropertyOp22
 70
     1
102
RTVSPropertyOp23
 70
     1
102
RTVSPropertyOp24
 70
     1
102
RTVSPropertyOp25
 70
     1
102
RTVSPropertyOp26
 70
     1
102
RTVSPropertyOp27
 70
     1
102
RTVSPropertyOp28
 70
     1
102
RTVSPropertyOp29
 70
     1
102
RTVSPropertyOp30
 70
     1
102
RTVSPropertyOp31
 70
     1
102
RTVSPropertyOp32
 70
     1
  0
XRECORD
  5
14564
102
{ACAD_REACTORS
330
14563
102
}
330
14563
100
AcDbXrecord
280
     1
102
RTVSPropertyOp0
 70
     1
102
RTVSPropertyOp1
 70
     1
102
RTVSPropertyOp2
 70
     1
102
RTVSPropertyOp3
 70
     1
102
RTVSPropertyOp4
 70
     1
102
RTVSPropertyOp5
 70
     1
102
RTVSPropertyOp6
 70
     1
102
RTVSPropertyOp7
 70
     1
102
RTVSPropertyOp8
 70
     1
102
RTVSPropertyOp9
 70
     1
102
RTVSPropertyOp10
 70
     1
102
RTVSPropertyOp11
 70
     1
102
RTVSPropertyOp12
 70
     1
102
RTVSPropertyOp13
 70
     1
102
RTVSPropertyOp14
 70
     1
102
RTVSPropertyOp15
 70
     1
102
RTVSPropertyOp16
 70
     1
102
RTVSPropertyOp17
 70
     1
102
RTVSPropertyOp18
 70
     1
102
RTVSPropertyOp19
 70
     1
102
RTVSPropertyOp20
 70
     1
102
RTVSPropertyOp21
 70
     1
102
RTVSPropertyOp22
 70
     1
102
RTVSPropertyOp23
 70
     1
102
RTVSPropertyOp24
 70
     1
102
RTVSPropertyOp25
 70
     1
102
RTVSPropertyOp26
 70
     1
102
RTVSPropertyOp27
 70
     1
102
RTVSPropertyOp28
 70
     1
102
RTVSPropertyOp29
 70
     1
102
RTVSPropertyOp30
 70
     1
102
RTVSPropertyOp31
 70
     1
102
RTVSPropertyOp32
 70
     1
  0
XRECORD
  5
14556
102
{ACAD_REACTORS
330
14555
102
}
330
14555
100
AcDbXrecord
280
     1
102
RTVSPropertyOp0
 70
     1
102
RTVSPropertyOp1
 70
     1
102
RTVSPropertyOp2
 70
     1
102
RTVSPropertyOp3
 70
     1
102
RTVSPropertyOp4
 70
     1
102
RTVSPropertyOp5
 70
     1
102
RTVSPropertyOp6
 70
     1
102
RTVSPropertyOp7
 70
     1
102
RTVSPropertyOp8
 70
     1
102
RTVSPropertyOp9
 70
     1
102
RTVSPropertyOp10
 70
     1
102
RTVSPropertyOp11
 70
     1
102
RTVSPropertyOp12
 70
     1
102
RTVSPropertyOp13
 70
     1
102
RTVSPropertyOp14
 70
     1
102
RTVSPropertyOp15
 70
     1
102
RTVSPropertyOp16
 70
     1
102
RTVSPropertyOp17
 70
     1
102
RTVSPropertyOp18
 70
     1
102
RTVSPropertyOp19
 70
     1
102
RTVSPropertyOp20
 70
     1
102
RTVSPropertyOp21
 70
     1
102
RTVSPropertyOp22
 70
     1
102
RTVSPropertyOp23
 70
     1
102
RTVSPropertyOp24
 70
     1
102
RTVSPropertyOp25
 70
     1
102
RTVSPropertyOp26
 70
     1
102
RTVSPropertyOp27
 70
     1
102
RTVSPropertyOp28
 70
     1
102
RTVSPropertyOp29
 70
     1
102
RTVSPropertyOp30
 70
     1
102
RTVSPropertyOp31
 70
     1
102
RTVSPropertyOp32
 70
     1
  0
XRECORD
  5
1455A
102
{ACAD_REACTORS
330
14559
102
}
330
14559
100
AcDbXrecord
280
     1
102
RTVSPropertyOp0
 70
     1
102
RTVSPropertyOp1
 70
     1
102
RTVSPropertyOp2
 70
     1
102
RTVSPropertyOp3
 70
     1
102
RTVSPropertyOp4
 70
     1
102
RTVSPropertyOp5
 70
     1
102
RTVSPropertyOp6
 70
     1
102
RTVSPropertyOp7
 70
     1
102
RTVSPropertyOp8
 70
     1
102
RTVSPropertyOp9
 70
     1
102
RTVSPropertyOp10
 70
     1
102
RTVSPropertyOp11
 70
     1
102
RTVSPropertyOp12
 70
     1
102
RTVSPropertyOp13
 70
     1
102
RTVSPropertyOp14
 70
     1
102
RTVSPropertyOp15
 70
     1
102
RTVSPropertyOp16
 70
     1
102
RTVSPropertyOp17
 70
     1
102
RTVSPropertyOp18
 70
     1
102
RTVSPropertyOp19
 70
     1
102
RTVSPropertyOp20
 70
     1
102
RTVSPropertyOp21
 70
     1
102
RTVSPropertyOp22
 70
     1
102
RTVSPropertyOp23
 70
     1
102
RTVSPropertyOp24
 70
     1
102
RTVSPropertyOp25
 70
     1
102
RTVSPropertyOp26
 70
     1
102
RTVSPropertyOp27
 70
     1
102
RTVSPropertyOp28
 70
     1
102
RTVSPropertyOp29
 70
     1
102
RTVSPropertyOp30
 70
     1
102
RTVSPropertyOp31
 70
     1
102
RTVSPropertyOp32
 70
     1
  0
XRECORD
  5
14574
102
{ACAD_REACTORS
330
14573
102
}
330
14573
100
AcDbXrecord
280
     1
102
RTVSPropertyOp0
 70
     0
102
RTVSPropertyOp1
 70
     0
102
RTVSPropertyOp2
 70
     0
102
RTVSPropertyOp3
 70
     0
102
RTVSPropertyOp4
 70
     0
102
RTVSPropertyOp5
 70
     0
102
RTVSPropertyOp6
 70
     0
102
RTVSPropertyOp7
 70
     0
102
RTVSPropertyOp8
 70
     0
102
RTVSPropertyOp9
 70
     0
102
RTVSPropertyOp10
 70
     0
102
RTVSPropertyOp11
 70
     0
102
RTVSPropertyOp12
 70
     0
102
RTVSPropertyOp13
 70
     0
102
RTVSPropertyOp14
 70
     2
102
RTVSPropertyOp15
 70
     0
102
RTVSPropertyOp16
 70
     0
102
RTVSPropertyOp17
 70
     0
102
RTVSPropertyOp18
 70
     0
102
RTVSPropertyOp19
 70
     0
102
RTVSPropertyOp20
 70
     0
102
RTVSPropertyOp21
 70
     0
102
RTVSPropertyOp22
 70
     0
102
RTVSPropertyOp23
 70
     0
102
RTVSPropertyOp24
 70
     0
102
RTVSPropertyOp25
 70
     0
102
RTVSPropertyOp26
 70
     0
102
RTVSPropertyOp27
 70
     0
102
RTVSPropertyOp28
 70
     1
102
RTVSPropertyOp29
 70
     1
102
RTVSPropertyOp30
 70
     1
102
RTVSPropertyOp31
 70
     1
102
RTVSPropertyOp32
 70
     1
  0
XRECORD
  5
14562
102
{ACAD_REACTORS
330
14561
102
}
330
14561
100
AcDbXrecord
280
     1
102
RTVSPropertyOp0
 70
     1
102
RTVSPropertyOp1
 70
     1
102
RTVSPropertyOp2
 70
     1
102
RTVSPropertyOp3
 70
     1
102
RTVSPropertyOp4
 70
     1
102
RTVSPropertyOp5
 70
     1
102
RTVSPropertyOp6
 70
     1
102
RTVSPropertyOp7
 70
     1
102
RTVSPropertyOp8
 70
     1
102
RTVSPropertyOp9
 70
     1
102
RTVSPropertyOp10
 70
     1
102
RTVSPropertyOp11
 70
     1
102
RTVSPropertyOp12
 70
     1
102
RTVSPropertyOp13
 70
     1
102
RTVSPropertyOp14
 70
     1
102
RTVSPropertyOp15
 70
     1
102
RTVSPropertyOp16
 70
     1
102
RTVSPropertyOp17
 70
     1
102
RTVSPropertyOp18
 70
     1
102
RTVSPropertyOp19
 70
     1
102
RTVSPropertyOp20
 70
     1
102
RTVSPropertyOp21
 70
     1
102
RTVSPropertyOp22
 70
     1
102
RTVSPropertyOp23
 70
     1
102
RTVSPropertyOp24
 70
     1
102
RTVSPropertyOp25
 70
     1
102
RTVSPropertyOp26
 70
     1
102
RTVSPropertyOp27
 70
     1
102
RTVSPropertyOp28
 70
     1
102
RTVSPropertyOp29
 70
     1
102
RTVSPropertyOp30
 70
     1
102
RTVSPropertyOp31
 70
     1
102
RTVSPropertyOp32
 70
     1
  0
XRECORD
  5
14546
102
{ACAD_REACTORS
330
14545
102
}
330
14545
100
AcDbXrecord
280
     1
102
RTVSPropertyOp0
 70
     1
102
RTVSPropertyOp1
 70
     1
102
RTVSPropertyOp2
 70
     1
102
RTVSPropertyOp3
 70
     1
102
RTVSPropertyOp4
 70
     1
102
RTVSPropertyOp5
 70
     1
102
RTVSPropertyOp6
 70
     1
102
RTVSPropertyOp7
 70
     1
102
RTVSPropertyOp8
 70
     1
102
RTVSPropertyOp9
 70
     1
102
RTVSPropertyOp10
 70
     1
102
RTVSPropertyOp11
 70
     1
102
RTVSPropertyOp12
 70
     1
102
RTVSPropertyOp13
 70
     1
102
RTVSPropertyOp14
 70
     1
102
RTVSPropertyOp15
 70
     1
102
RTVSPropertyOp16
 70
     1
102
RTVSPropertyOp17
 70
     1
102
RTVSPropertyOp18
 70
     1
102
RTVSPropertyOp19
 70
     1
102
RTVSPropertyOp20
 70
     1
102
RTVSPropertyOp21
 70
     1
102
RTVSPropertyOp22
 70
     1
102
RTVSPropertyOp23
 70
     1
102
RTVSPropertyOp24
 70
     1
102
RTVSPropertyOp25
 70
     1
102
RTVSPropertyOp26
 70
     1
102
RTVSPropertyOp27
 70
     1
102
RTVSPropertyOp28
 70
     1
102
RTVSPropertyOp29
 70
     1
102
RTVSPropertyOp30
 70
     1
102
RTVSPropertyOp31
 70
     1
102
RTVSPropertyOp32
 70
     1
  0
XRECORD
  5
14548
102
{ACAD_REACTORS
330
14547
102
}
330
14547
100
AcDbXrecord
280
     1
102
RTVSPropertyOp0
 70
     1
102
RTVSPropertyOp1
 70
     1
102
RTVSPropertyOp2
 70
     1
102
RTVSPropertyOp3
 70
     1
102
RTVSPropertyOp4
 70
     1
102
RTVSPropertyOp5
 70
     1
102
RTVSPropertyOp6
 70
     1
102
RTVSPropertyOp7
 70
     1
102
RTVSPropertyOp8
 70
     1
102
RTVSPropertyOp9
 70
     1
102
RTVSPropertyOp10
 70
     1
102
RTVSPropertyOp11
 70
     1
102
RTVSPropertyOp12
 70
     1
102
RTVSPropertyOp13
 70
     1
102
RTVSPropertyOp14
 70
     1
102
RTVSPropertyOp15
 70
     1
102
RTVSPropertyOp16
 70
     1
102
RTVSPropertyOp17
 70
     1
102
RTVSPropertyOp18
 70
     1
102
RTVSPropertyOp19
 70
     1
102
RTVSPropertyOp20
 70
     1
102
RTVSPropertyOp21
 70
     1
102
RTVSPropertyOp22
 70
     1
102
RTVSPropertyOp23
 70
     1
102
RTVSPropertyOp24
 70
     1
102
RTVSPropertyOp25
 70
     1
102
RTVSPropertyOp26
 70
     1
102
RTVSPropertyOp27
 70
     1
102
RTVSPropertyOp28
 70
     1
102
RTVSPropertyOp29
 70
     1
102
RTVSPropertyOp30
 70
     1
102
RTVSPropertyOp31
 70
     1
102
RTVSPropertyOp32
 70
     1
  0
XRECORD
  5
1454A
102
{ACAD_REACTORS
330
14549
102
}
330
14549
100
AcDbXrecord
280
     1
102
RTVSPropertyOp0
 70
     1
102
RTVSPropertyOp1
 70
     1
102
RTVSPropertyOp2
 70
     1
102
RTVSPropertyOp3
 70
     1
102
RTVSPropertyOp4
 70
     1
102
RTVSPropertyOp5
 70
     1
102
RTVSPropertyOp6
 70
     1
102
RTVSPropertyOp7
 70
     1
102
RTVSPropertyOp8
 70
     1
102
RTVSPropertyOp9
 70
     1
102
RTVSPropertyOp10
 70
     1
102
RTVSPropertyOp11
 70
     1
102
RTVSPropertyOp12
 70
     1
102
RTVSPropertyOp13
 70
     1
102
RTVSPropertyOp14
 70
     1
102
RTVSPropertyOp15
 70
     1
102
RTVSPropertyOp16
 70
     1
102
RTVSPropertyOp17
 70
     1
102
RTVSPropertyOp18
 70
     1
102
RTVSPropertyOp19
 70
     1
102
RTVSPropertyOp20
 70
     1
102
RTVSPropertyOp21
 70
     1
102
RTVSPropertyOp22
 70
     1
102
RTVSPropertyOp23
 70
     1
102
RTVSPropertyOp24
 70
     1
102
RTVSPropertyOp25
 70
     1
102
RTVSPropertyOp26
 70
     1
102
RTVSPropertyOp27
 70
     1
102
RTVSPropertyOp28
 70
     1
102
RTVSPropertyOp29
 70
     1
102
RTVSPropertyOp30
 70
     1
102
RTVSPropertyOp31
 70
     1
102
RTVSPropertyOp32
 70
     1
  0
XRECORD
  5
1454C
102
{ACAD_REACTORS
330
1454B
102
}
330
1454B
100
AcDbXrecord
280
     1
102
RTVSPropertyOp0
 70
     1
102
RTVSPropertyOp1
 70
     1
102
RTVSPropertyOp2
 70
     1
102
RTVSPropertyOp3
 70
     1
102
RTVSPropertyOp4
 70
     1
102
RTVSPropertyOp5
 70
     1
102
RTVSPropertyOp6
 70
     1
102
RTVSPropertyOp7
 70
     1
102
RTVSPropertyOp8
 70
     1
102
RTVSPropertyOp9
 70
     1
102
RTVSPropertyOp10
 70
     1
102
RTVSPropertyOp11
 70
     1
102
RTVSPropertyOp12
 70
     1
102
RTVSPropertyOp13
 70
     1
102
RTVSPropertyOp14
 70
     1
102
RTVSPropertyOp15
 70
     1
102
RTVSPropertyOp16
 70
     1
102
RTVSPropertyOp17
 70
     1
102
RTVSPropertyOp18
 70
     1
102
RTVSPropertyOp19
 70
     1
102
RTVSPropertyOp20
 70
     1
102
RTVSPropertyOp21
 70
     1
102
RTVSPropertyOp22
 70
     1
102
RTVSPropertyOp23
 70
     1
102
RTVSPropertyOp24
 70
     1
102
RTVSPropertyOp25
 70
     1
102
RTVSPropertyOp26
 70
     1
102
RTVSPropertyOp27
 70
     1
102
RTVSPropertyOp28
 70
     1
102
RTVSPropertyOp29
 70
     1
102
RTVSPropertyOp30
 70
     1
102
RTVSPropertyOp31
 70
     1
102
RTVSPropertyOp32
 70
     1
  0
XRECORD
  5
14554
102
{ACAD_REACTORS
330
14553
102
}
330
14553
100
AcDbXrecord
280
     1
102
RTVSPropertyOp0
 70
     1
102
RTVSPropertyOp1
 70
     1
102
RTVSPropertyOp2
 70
     1
102
RTVSPropertyOp3
 70
     1
102
RTVSPropertyOp4
 70
     1
102
RTVSPropertyOp5
 70
     1
102
RTVSPropertyOp6
 70
     1
102
RTVSPropertyOp7
 70
     1
102
RTVSPropertyOp8
 70
     1
102
RTVSPropertyOp9
 70
     1
102
RTVSPropertyOp10
 70
     1
102
RTVSPropertyOp11
 70
     1
102
RTVSPropertyOp12
 70
     1
102
RTVSPropertyOp13
 70
     1
102
RTVSPropertyOp14
 70
     1
102
RTVSPropertyOp15
 70
     1
102
RTVSPropertyOp16
 70
     1
102
RTVSPropertyOp17
 70
     1
102
RTVSPropertyOp18
 70
     1
102
RTVSPropertyOp19
 70
     1
102
RTVSPropertyOp20
 70
     1
102
RTVSPropertyOp21
 70
     1
102
RTVSPropertyOp22
 70
     1
102
RTVSPropertyOp23
 70
     1
102
RTVSPropertyOp24
 70
     1
102
RTVSPropertyOp25
 70
     1
102
RTVSPropertyOp26
 70
     1
102
RTVSPropertyOp27
 70
     1
102
RTVSPropertyOp28
 70
     1
102
RTVSPropertyOp29
 70
     1
102
RTVSPropertyOp30
 70
     1
102
RTVSPropertyOp31
 70
     1
102
RTVSPropertyOp32
 70
     1
  0
XRECORD
  5
14570
102
{ACAD_REACTORS
330
1456F
102
}
330
1456F
100
AcDbXrecord
280
     1
102
RTVSPropertyOp0
 70
     0
102
RTVSPropertyOp1
 70
     0
102
RTVSPropertyOp2
 70
     0
102
RTVSPropertyOp3
 70
     0
102
RTVSPropertyOp4
 70
     0
102
RTVSPropertyOp5
 70
     0
102
RTVSPropertyOp6
 70
     0
102
RTVSPropertyOp7
 70
     0
102
RTVSPropertyOp8
 70
     0
102
RTVSPropertyOp9
 70
     0
102
RTVSPropertyOp10
 70
     0
102
RTVSPropertyOp11
 70
     0
102
RTVSPropertyOp12
 70
     0
102
RTVSPropertyOp13
 70
     0
102
RTVSPropertyOp14
 70
     2
102
RTVSPropertyOp15
 70
     0
102
RTVSPropertyOp16
 70
     0
102
RTVSPropertyOp17
 70
     0
102
RTVSPropertyOp18
 70
     0
102
RTVSPropertyOp19
 70
     0
102
RTVSPropertyOp20
 70
     0
102
RTVSPropertyOp21
 70
     0
102
RTVSPropertyOp22
 70
     0
102
RTVSPropertyOp23
 70
     0
102
RTVSPropertyOp24
 70
     0
102
RTVSPropertyOp25
 70
     0
102
RTVSPropertyOp26
 70
     0
102
RTVSPropertyOp27
 70
     0
102
RTVSPropertyOp28
 70
     1
102
RTVSPropertyOp29
 70
     1
102
RTVSPropertyOp30
 70
     1
102
RTVSPropertyOp31
 70
     1
102
RTVSPropertyOp32
 70
     1
  0
XRECORD
  5
14560
102
{ACAD_REACTORS
330
1455F
102
}
330
1455F
100
AcDbXrecord
280
     1
102
RTVSPropertyOp0
 70
     1
102
RTVSPropertyOp1
 70
     1
102
RTVSPropertyOp2
 70
     1
102
RTVSPropertyOp3
 70
     1
102
RTVSPropertyOp4
 70
     1
102
RTVSPropertyOp5
 70
     1
102
RTVSPropertyOp6
 70
     1
102
RTVSPropertyOp7
 70
     1
102
RTVSPropertyOp8
 70
     1
102
RTVSPropertyOp9
 70
     1
102
RTVSPropertyOp10
 70
     1
102
RTVSPropertyOp11
 70
     1
102
RTVSPropertyOp12
 70
     1
102
RTVSPropertyOp13
 70
     1
102
RTVSPropertyOp14
 70
     1
102
RTVSPropertyOp15
 70
     1
102
RTVSPropertyOp16
 70
     1
102
RTVSPropertyOp17
 70
     1
102
RTVSPropertyOp18
 70
     1
102
RTVSPropertyOp19
 70
     1
102
RTVSPropertyOp20
 70
     1
102
RTVSPropertyOp21
 70
     1
102
RTVSPropertyOp22
 70
     1
102
RTVSPropertyOp23
 70
     1
102
RTVSPropertyOp24
 70
     1
102
RTVSPropertyOp25
 70
     1
102
RTVSPropertyOp26
 70
     1
102
RTVSPropertyOp27
 70
     1
102
RTVSPropertyOp28
 70
     1
102
RTVSPropertyOp29
 70
     1
102
RTVSPropertyOp30
 70
     1
102
RTVSPropertyOp31
 70
     1
102
RTVSPropertyOp32
 70
     1
  0
XRECORD
  5
14572
102
{ACAD_REACTORS
330
14571
102
}
330
14571
100
AcDbXrecord
280
     1
102
RTVSPropertyOp0
 70
     0
102
RTVSPropertyOp1
 70
     0
102
RTVSPropertyOp2
 70
     0
102
RTVSPropertyOp3
 70
     0
102
RTVSPropertyOp4
 70
     0
102
RTVSPropertyOp5
 70
     0
102
RTVSPropertyOp6
 70
     0
102
RTVSPropertyOp7
 70
     0
102
RTVSPropertyOp8
 70
     0
102
RTVSPropertyOp9
 70
     0
102
RTVSPropertyOp10
 70
     0
102
RTVSPropertyOp11
 70
     0
102
RTVSPropertyOp12
 70
     0
102
RTVSPropertyOp13
 70
     0
102
RTVSPropertyOp14
 70
     2
102
RTVSPropertyOp15
 70
     0
102
RTVSPropertyOp16
 70
     0
102
RTVSPropertyOp17
 70
     0
102
RTVSPropertyOp18
 70
     0
102
RTVSPropertyOp19
 70
     0
102
RTVSPropertyOp20
 70
     0
102
RTVSPropertyOp21
 70
     0
102
RTVSPropertyOp22
 70
     0
102
RTVSPropertyOp23
 70
     0
102
RTVSPropertyOp24
 70
     0
102
RTVSPropertyOp25
 70
     0
102
RTVSPropertyOp26
 70
     0
102
RTVSPropertyOp27
 70
     0
102
RTVSPropertyOp28
 70
     1
102
RTVSPropertyOp29
 70
     1
102
RTVSPropertyOp30
 70
     1
102
RTVSPropertyOp31
 70
     1
102
RTVSPropertyOp32
 70
     1
  0
XRECORD
  5
14558
102
{ACAD_REACTORS
330
14557
102
}
330
14557
100
AcDbXrecord
280
     1
102
RTVSPropertyOp0
 70
     1
102
RTVSPropertyOp1
 70
     1
102
RTVSPropertyOp2
 70
     1
102
RTVSPropertyOp3
 70
     1
102
RTVSPropertyOp4
 70
     1
102
RTVSPropertyOp5
 70
     1
102
RTVSPropertyOp6
 70
     1
102
RTVSPropertyOp7
 70
     1
102
RTVSPropertyOp8
 70
     1
102
RTVSPropertyOp9
 70
     1
102
RTVSPropertyOp10
 70
     1
102
RTVSPropertyOp11
 70
     1
102
RTVSPropertyOp12
 70
     1
102
RTVSPropertyOp13
 70
     1
102
RTVSPropertyOp14
 70
     1
102
RTVSPropertyOp15
 70
     1
102
RTVSPropertyOp16
 70
     1
102
RTVSPropertyOp17
 70
     1
102
RTVSPropertyOp18
 70
     1
102
RTVSPropertyOp19
 70
     1
102
RTVSPropertyOp20
 70
     1
102
RTVSPropertyOp21
 70
     1
102
RTVSPropertyOp22
 70
     1
102
RTVSPropertyOp23
 70
     1
102
RTVSPropertyOp24
 70
     1
102
RTVSPropertyOp25
 70
     1
102
RTVSPropertyOp26
 70
     1
102
RTVSPropertyOp27
 70
     1
102
RTVSPropertyOp28
 70
     1
102
RTVSPropertyOp29
 70
     1
102
RTVSPropertyOp30
 70
     1
102
RTVSPropertyOp31
 70
     1
102
RTVSPropertyOp32
 70
     1
  0
XRECORD
  5
1456E
102
{ACAD_REACTORS
330
1456D
102
}
330
1456D
100
AcDbXrecord
280
     1
102
RTVSPropertyOp0
 70
     1
102
RTVSPropertyOp1
 70
     1
102
RTVSPropertyOp2
 70
     1
102
RTVSPropertyOp3
 70
     1
102
RTVSPropertyOp4
 70
     1
102
RTVSPropertyOp5
 70
     1
102
RTVSPropertyOp6
 70
     1
102
RTVSPropertyOp7
 70
     1
102
RTVSPropertyOp8
 70
     1
102
RTVSPropertyOp9
 70
     1
102
RTVSPropertyOp10
 70
     1
102
RTVSPropertyOp11
 70
     1
102
RTVSPropertyOp12
 70
     1
102
RTVSPropertyOp13
 70
     1
102
RTVSPropertyOp14
 70
     1
102
RTVSPropertyOp15
 70
     1
102
RTVSPropertyOp16
 70
     1
102
RTVSPropertyOp17
 70
     1
102
RTVSPropertyOp18
 70
     1
102
RTVSPropertyOp19
 70
     1
102
RTVSPropertyOp20
 70
     1
102
RTVSPropertyOp21
 70
     1
102
RTVSPropertyOp22
 70
     1
102
RTVSPropertyOp23
 70
     1
102
RTVSPropertyOp24
 70
     1
102
RTVSPropertyOp25
 70
     1
102
RTVSPropertyOp26
 70
     1
102
RTVSPropertyOp27
 70
     1
102
RTVSPropertyOp28
 70
     1
102
RTVSPropertyOp29
 70
     1
102
RTVSPropertyOp30
 70
     1
102
RTVSPropertyOp31
 70
     1
102
RTVSPropertyOp32
 70
     1
  0
XRECORD
  5
1456C
102
{ACAD_REACTORS
330
1456B
102
}
330
1456B
100
AcDbXrecord
280
     1
102
RTVSPropertyOp0
 70
     1
102
RTVSPropertyOp1
 70
     1
102
RTVSPropertyOp2
 70
     1
102
RTVSPropertyOp3
 70
     1
102
RTVSPropertyOp4
 70
     1
102
RTVSPropertyOp5
 70
     1
102
RTVSPropertyOp6
 70
     1
102
RTVSPropertyOp7
 70
     1
102
RTVSPropertyOp8
 70
     1
102
RTVSPropertyOp9
 70
     1
102
RTVSPropertyOp10
 70
     1
102
RTVSPropertyOp11
 70
     1
102
RTVSPropertyOp12
 70
     1
102
RTVSPropertyOp13
 70
     1
102
RTVSPropertyOp14
 70
     1
102
RTVSPropertyOp15
 70
     1
102
RTVSPropertyOp16
 70
     1
102
RTVSPropertyOp17
 70
     1
102
RTVSPropertyOp18
 70
     1
102
RTVSPropertyOp19
 70
     1
102
RTVSPropertyOp20
 70
     1
102
RTVSPropertyOp21
 70
     1
102
RTVSPropertyOp22
 70
     1
102
RTVSPropertyOp23
 70
     1
102
RTVSPropertyOp24
 70
     1
102
RTVSPropertyOp25
 70
     1
102
RTVSPropertyOp26
 70
     1
102
RTVSPropertyOp27
 70
     1
102
RTVSPropertyOp28
 70
     1
102
RTVSPropertyOp29
 70
     1
102
RTVSPropertyOp30
 70
     1
102
RTVSPropertyOp31
 70
     1
102
RTVSPropertyOp32
 70
     1
  0
XRECORD
  5
14566
102
{ACAD_REACTORS
330
14565
102
}
330
14565
100
AcDbXrecord
280
     1
102
RTVSPropertyOp0
 70
     1
102
RTVSPropertyOp1
 70
     1
102
RTVSPropertyOp2
 70
     1
102
RTVSPropertyOp3
 70
     1
102
RTVSPropertyOp4
 70
     1
102
RTVSPropertyOp5
 70
     1
102
RTVSPropertyOp6
 70
     1
102
RTVSPropertyOp7
 70
     1
102
RTVSPropertyOp8
 70
     1
102
RTVSPropertyOp9
 70
     1
102
RTVSPropertyOp10
 70
     1
102
RTVSPropertyOp11
 70
     1
102
RTVSPropertyOp12
 70
     1
102
RTVSPropertyOp13
 70
     1
102
RTVSPropertyOp14
 70
     1
102
RTVSPropertyOp15
 70
     1
102
RTVSPropertyOp16
 70
     1
102
RTVSPropertyOp17
 70
     1
102
RTVSPropertyOp18
 70
     1
102
RTVSPropertyOp19
 70
     1
102
RTVSPropertyOp20
 70
     1
102
RTVSPropertyOp21
 70
     1
102
RTVSPropertyOp22
 70
     1
102
RTVSPropertyOp23
 70
     1
102
RTVSPropertyOp24
 70
     1
102
RTVSPropertyOp25
 70
     1
102
RTVSPropertyOp26
 70
     1
102
RTVSPropertyOp27
 70
     1
102
RTVSPropertyOp28
 70
     1
102
RTVSPropertyOp29
 70
     1
102
RTVSPropertyOp30
 70
     1
102
RTVSPropertyOp31
 70
     1
102
RTVSPropertyOp32
 70
     1
  0
XRECORD
  5
14568
102
{ACAD_REACTORS
330
14567
102
}
330
14567
100
AcDbXrecord
280
     1
102
RTVSPropertyOp0
 70
     1
102
RTVSPropertyOp1
 70
     1
102
RTVSPropertyOp2
 70
     1
102
RTVSPropertyOp3
 70
     1
102
RTVSPropertyOp4
 70
     1
102
RTVSPropertyOp5
 70
     1
102
RTVSPropertyOp6
 70
     1
102
RTVSPropertyOp7
 70
     1
102
RTVSPropertyOp8
 70
     1
102
RTVSPropertyOp9
 70
     1
102
RTVSPropertyOp10
 70
     1
102
RTVSPropertyOp11
 70
     1
102
RTVSPropertyOp12
 70
     1
102
RTVSPropertyOp13
 70
     1
102
RTVSPropertyOp14
 70
     1
102
RTVSPropertyOp15
 70
     1
102
RTVSPropertyOp16
 70
     1
102
RTVSPropertyOp17
 70
     1
102
RTVSPropertyOp18
 70
     1
102
RTVSPropertyOp19
 70
     1
102
RTVSPropertyOp20
 70
     1
102
RTVSPropertyOp21
 70
     1
102
RTVSPropertyOp22
 70
     1
102
RTVSPropertyOp23
 70
     1
102
RTVSPropertyOp24
 70
     1
102
RTVSPropertyOp25
 70
     1
102
RTVSPropertyOp26
 70
     1
102
RTVSPropertyOp27
 70
     1
102
RTVSPropertyOp28
 70
     1
102
RTVSPropertyOp29
 70
     1
102
RTVSPropertyOp30
 70
     1
102
RTVSPropertyOp31
 70
     1
102
RTVSPropertyOp32
 70
     1
  0
XRECORD
  5
1455E
102
{ACAD_REACTORS
330
1455D
102
}
330
1455D
100
AcDbXrecord
280
     1
102
RTVSPropertyOp0
 70
     1
102
RTVSPropertyOp1
 70
     1
102
RTVSPropertyOp2
 70
     1
102
RTVSPropertyOp3
 70
     1
102
RTVSPropertyOp4
 70
     1
102
RTVSPropertyOp5
 70
     1
102
RTVSPropertyOp6
 70
     1
102
RTVSPropertyOp7
 70
     1
102
RTVSPropertyOp8
 70
     1
102
RTVSPropertyOp9
 70
     1
102
RTVSPropertyOp10
 70
     1
102
RTVSPropertyOp11
 70
     1
102
RTVSPropertyOp12
 70
     1
102
RTVSPropertyOp13
 70
     1
102
RTVSPropertyOp14
 70
     1
102
RTVSPropertyOp15
 70
     1
102
RTVSPropertyOp16
 70
     1
102
RTVSPropertyOp17
 70
     1
102
RTVSPropertyOp18
 70
     1
102
RTVSPropertyOp19
 70
     1
102
RTVSPropertyOp20
 70
     1
102
RTVSPropertyOp21
 70
     1
102
RTVSPropertyOp22
 70
     1
102
RTVSPropertyOp23
 70
     1
102
RTVSPropertyOp24
 70
     1
102
RTVSPropertyOp25
 70
     1
102
RTVSPropertyOp26
 70
     1
102
RTVSPropertyOp27
 70
     1
102
RTVSPropertyOp28
 70
     1
102
RTVSPropertyOp29
 70
     1
102
RTVSPropertyOp30
 70
     1
102
RTVSPropertyOp31
 70
     1
102
RTVSPropertyOp32
 70
     1
  0
XRECORD
  5
14552
102
{ACAD_REACTORS
330
14551
102
}
330
14551
100
AcDbXrecord
280
     1
102
RTVSPropertyOp0
 70
     1
102
RTVSPropertyOp1
 70
     1
102
RTVSPropertyOp2
 70
     1
102
RTVSPropertyOp3
 70
     1
102
RTVSPropertyOp4
 70
     1
102
RTVSPropertyOp5
 70
     1
102
RTVSPropertyOp6
 70
     1
102
RTVSPropertyOp7
 70
     1
102
RTVSPropertyOp8
 70
     1
102
RTVSPropertyOp9
 70
     1
102
RTVSPropertyOp10
 70
     1
102
RTVSPropertyOp11
 70
     1
102
RTVSPropertyOp12
 70
     1
102
RTVSPropertyOp13
 70
     1
102
RTVSPropertyOp14
 70
     1
102
RTVSPropertyOp15
 70
     1
102
RTVSPropertyOp16
 70
     1
102
RTVSPropertyOp17
 70
     1
102
RTVSPropertyOp18
 70
     1
102
RTVSPropertyOp19
 70
     1
102
RTVSPropertyOp20
 70
     1
102
RTVSPropertyOp21
 70
     1
102
RTVSPropertyOp22
 70
     1
102
RTVSPropertyOp23
 70
     1
102
RTVSPropertyOp24
 70
     1
102
RTVSPropertyOp25
 70
     1
102
RTVSPropertyOp26
 70
     1
102
RTVSPropertyOp27
 70
     1
102
RTVSPropertyOp28
 70
     1
102
RTVSPropertyOp29
 70
     1
102
RTVSPropertyOp30
 70
     1
102
RTVSPropertyOp31
 70
     1
102
RTVSPropertyOp32
 70
     1
  0
XRECORD
  5
1456A
102
{ACAD_REACTORS
330
14569
102
}
330
14569
100
AcDbXrecord
280
     1
102
RTVSPropertyOp0
 70
     1
102
RTVSPropertyOp1
 70
     1
102
RTVSPropertyOp2
 70
     1
102
RTVSPropertyOp3
 70
     1
102
RTVSPropertyOp4
 70
     1
102
RTVSPropertyOp5
 70
     1
102
RTVSPropertyOp6
 70
     1
102
RTVSPropertyOp7
 70
     1
102
RTVSPropertyOp8
 70
     1
102
RTVSPropertyOp9
 70
     1
102
RTVSPropertyOp10
 70
     1
102
RTVSPropertyOp11
 70
     1
102
RTVSPropertyOp12
 70
     1
102
RTVSPropertyOp13
 70
     1
102
RTVSPropertyOp14
 70
     1
102
RTVSPropertyOp15
 70
     1
102
RTVSPropertyOp16
 70
     1
102
RTVSPropertyOp17
 70
     1
102
RTVSPropertyOp18
 70
     1
102
RTVSPropertyOp19
 70
     1
102
RTVSPropertyOp20
 70
     1
102
RTVSPropertyOp21
 70
     1
102
RTVSPropertyOp22
 70
     1
102
RTVSPropertyOp23
 70
     1
102
RTVSPropertyOp24
 70
     1
102
RTVSPropertyOp25
 70
     1
102
RTVSPropertyOp26
 70
     1
102
RTVSPropertyOp27
 70
     1
102
RTVSPropertyOp28
 70
     1
102
RTVSPropertyOp29
 70
     1
102
RTVSPropertyOp30
 70
     1
102
RTVSPropertyOp31
 70
     1
102
RTVSPropertyOp32
 70
     1
  0
ENDSEC
  0
EOF
