  0
SECTION
  2
HEADER
  9
$ACADVER
  1
AC1015
  9
$ACADMAINTVER
 70
    20
  9
$DWGCODEPAGE
  3
ANSI_932
  9
$INSBASE
 10
0.0
 20
0.0
 30
0.0
  9
$EXTMIN
 10
-0.22692002974145
 20
-0.090202771472832
 30
-0.0000000000000053
  9
$EXTMAX
 10
1680.052541039491
 20
1188.282888617504
 30
0.0000000000000099
  9
$LIMMIN
 10
0.0
 20
0.0
  9
$LIMMAX
 10
1680.0
 20
1188.0
  9
$ORTHOMODE
 70
     0
  9
$REGENMODE
 70
     1
  9
$FILLMODE
 70
     1
  9
$QTEXTMODE
 70
     0
  9
$MIRRTEXT
 70
     1
  9
$LTSCALE
 40
33.6
  9
$ATTMODE
 70
     1
  9
$TEXTSIZE
 40
0.2
  9
$TRACEWID
 40
0.05
  9
$TEXTSTYLE
  7
STANDARD
  9
$CLAYER
  8
LEVEL001
  9
$CELTYPE
  6
CONTINUOUS
  9
$CECOLOR
 62
   256
  9
$CELTSCALE
 40
1.0
  9
$DISPSILH
 70
     0
  9
$DIMSCALE
 40
1.0
  9
$DIMASZ
 40
0.18
  9
$DIMEXO
 40
0.0625
  9
$DIMDLI
 40
0.38
  9
$DIMRND
 40
0.0
  9
$DIMDLE
 40
0.0
  9
$DIMEXE
 40
0.18
  9
$DIMTP
 40
0.0
  9
$DIMTM
 40
0.0
  9
$DIMTXT
 40
0.18
  9
$DIMCEN
 40
0.09
  9
$DIMTSZ
 40
0.0
  9
$DIMTOL
 70
     0
  9
$DIMLIM
 70
     0
  9
$DIMTIH
 70
     1
  9
$DIMTOH
 70
     1
  9
$DIMSE1
 70
     0
  9
$DIMSE2
 70
     0
  9
$DIMTAD
 70
     0
  9
$DIMZIN
 70
     0
  9
$DIMBLK
  1

  9
$DIMASO
 70
     1
  9
$DIMSHO
 70
     1
  9
$DIMPOST
  1

  9
$DIMAPOST
  1

  9
$DIMALT
 70
     0
  9
$DIMALTD
 70
     2
  9
$DIMALTF
 40
25.4
  9
$DIMLFAC
 40
1.0
  9
$DIMTOFL
 70
     0
  9
$DIMTVP
 40
0.0
  9
$DIMTIX
 70
     0
  9
$DIMSOXD
 70
     0
  9
$DIMSAH
 70
     0
  9
$DIMBLK1
  1

  9
$DIMBLK2
  1

  9
$DIMSTYLE
  2
STANDARD
  9
$DIMCLRD
 70
     0
  9
$DIMCLRE
 70
     0
  9
$DIMCLRT
 70
     0
  9
$DIMTFAC
 40
1.0
  9
$DIMGAP
 40
0.09
  9
$DIMJUST
 70
     0
  9
$DIMSD1
 70
     0
  9
$DIMSD2
 70
     0
  9
$DIMTOLJ
 70
     1
  9
$DIMTZIN
 70
     0
  9
$DIMALTZ
 70
     0
  9
$DIMALTTZ
 70
     0
  9
$DIMUPT
 70
     0
  9
$DIMDEC
 70
     4
  9
$DIMTDEC
 70
     4
  9
$DIMALTU
 70
     2
  9
$DIMALTTD
 70
     2
  9
$DIMTXSTY
  7
STANDARD
  9
$DIMAUNIT
 70
     0
  9
$DIMADEC
 70
     0
  9
$DIMALTRND
 40
0.0
  9
$DIMAZIN
 70
     0
  9
$DIMDSEP
 70
    46
  9
$DIMATFIT
 70
     3
  9
$DIMFRAC
 70
     0
  9
$DIMLDRBLK
  1

  9
$DIMLUNIT
 70
     2
  9
$DIMLWD
 70
    -2
  9
$DIMLWE
 70
    -2
  9
$DIMTMOVE
 70
     0
  9
$LUNITS
 70
     2
  9
$LUPREC
 70
     4
  9
$SKETCHINC
 40
0.1
  9
$FILLETRAD
 40
0.0
  9
$AUNITS
 70
     0
  9
$AUPREC
 70
     0
  9
$MENU
  1
.
  9
$ELEVATION
 40
0.0
  9
$PELEVATION
 40
0.0
  9
$THICKNESS
 40
0.0
  9
$LIMCHECK
 70
     0
  9
$CHAMFERA
 40
0.0
  9
$CHAMFERB
 40
0.0
  9
$CHAMFERC
 40
0.0
  9
$CHAMFERD
 40
0.0
  9
$SKPOLY
 70
     0
  9
$TDCREATE
 40
2451212.682759178
  9
$TDUCREATE
 40
2451212.307759178
  9
$TDUPDATE
 40
2458321.571184688
  9
$TDUUPDATE
 40
2458321.196184687
  9
$TDINDWG
 40
0.3960927199
  9
$TDUSRTIMER
 40
0.3960927199
  9
$USRTIMER
 70
     1
  9
$ANGBASE
 50
0.0
  9
$ANGDIR
 70
     0
  9
$PDMODE
 70
     0
  9
$PDSIZE
 40
0.0
  9
$PLINEWID
 40
0.0
  9
$SPLFRAME
 70
     0
  9
$SPLINETYPE
 70
     6
  9
$SPLINESEGS
 70
     8
  9
$HANDSEED
  5
145D7
  9
$SURFTAB1
 70
     6
  9
$SURFTAB2
 70
     6
  9
$SURFTYPE
 70
     6
  9
$SURFU
 70
     6
  9
$SURFV
 70
     6
  9
$UCSBASE
  2

  9
$UCSNAME
  2

  9
$UCSORG
 10
0.0
 20
0.0
 30
0.0
  9
$UCSXDIR
 10
1.0
 20
0.0
 30
0.0
  9
$UCSYDIR
 10
0.0
 20
1.0
 30
0.0
  9
$UCSORTHOREF
  2

  9
$UCSORTHOVIEW
 70
     0
  9
$UCSORGTOP
 10
0.0
 20
0.0
 30
0.0
  9
$UCSORGBOTTOM
 10
0.0
 20
0.0
 30
0.0
  9
$UCSORGLEFT
 10
0.0
 20
0.0
 30
0.0
  9
$UCSORGRIGHT
 10
0.0
 20
0.0
 30
0.0
  9
$UCSORGFRONT
 10
0.0
 20
0.0
 30
0.0
  9
$UCSORGBACK
 10
0.0
 20
0.0
 30
0.0
  9
$PUCSBASE
  2

  9
$PUCSNAME
  2

  9
$PUCSORG
 10
0.0
 20
0.0
 30
0.0
  9
$PUCSXDIR
 10
1.0
 20
0.0
 30
0.0
  9
$PUCSYDIR
 10
0.0
 20
1.0
 30
0.0
  9
$PUCSORTHOREF
  2

  9
$PUCSORTHOVIEW
 70
     0
  9
$PUCSORGTOP
 10
0.0
 20
0.0
 30
0.0
  9
$PUCSORGBOTTOM
 10
0.0
 20
0.0
 30
0.0
  9
$PUCSORGLEFT
 10
0.0
 20
0.0
 30
0.0
  9
$PUCSORGRIGHT
 10
0.0
 20
0.0
 30
0.0
  9
$PUCSORGFRONT
 10
0.0
 20
0.0
 30
0.0
  9
$PUCSORGBACK
 10
0.0
 20
0.0
 30
0.0
  9
$USERI1
 70
     0
  9
$USERI2
 70
     0
  9
$USERI3
 70
     0
  9
$USERI4
 70
     0
  9
$USERI5
 70
     0
  9
$USERR1
 40
0.0
  9
$USERR2
 40
0.0
  9
$USERR3
 40
0.0
  9
$USERR4
 40
0.0
  9
$USERR5
 40
0.0
  9
$WORLDVIEW
 70
     1
  9
$SHADEDGE
 70
     3
  9
$SHADEDIF
 70
    70
  9
$TILEMODE
 70
     1
  9
$MAXACTVP
 70
    16
  9
$PINSBASE
 10
0.0
 20
0.0
 30
0.0
  9
$PLIMCHECK
 70
     0
  9
$PEXTMIN
 10
1.000000000000000E+20
 20
1.000000000000000E+20
 30
1.000000000000000E+20
  9
$PEXTMAX
 10
-1.000000000000000E+20
 20
-1.000000000000000E+20
 30
-1.000000000000000E+20
  9
$PLIMMIN
 10
0.0
 20
0.0
  9
$PLIMMAX
 10
12.0
 20
9.0
  9
$UNITMODE
 70
     0
  9
$VISRETAIN
 70
     1
  9
$PLINEGEN
 70
     0
  9
$PSLTSCALE
 70
     1
  9
$TREEDEPTH
 70
  3020
  9
$CMLSTYLE
  2
STANDARD
  9
$CMLJUST
 70
     0
  9
$CMLSCALE
 40
1.0
  9
$PROXYGRAPHICS
 70
     1
  9
$MEASUREMENT
 70
     0
  9
$CELWEIGHT
370
    -1
  9
$ENDCAPS
280
     0
  9
$JOINSTYLE
280
     0
  9
$LWDISPLAY
290
     0
  9
$INSUNITS
 70
     0
  9
$HYPERLINKBASE
  1

  9
$STYLESHEET
  1

  9
$XEDIT
290
     1
  9
$CEPSNTYPE
380
     0
  9
$PSTYLEMODE
290
     0
  9
$FINGERPRINTGUID
  2
{CEB546B5-3475-4345-9716-9E0C52716ACD}
  9
$VERSIONGUID
  2
{A7DD8C60-EA35-4B0C-805D-BD4C5BEFB2A9}
  9
$EXTNAMES
290
     1
  9
$PSVPSCALE
 40
0.0
  9
$OLESTARTUP
290
     0
  0
ENDSEC
  0
SECTION
  2
CLASSES
  0
CLASS
  1
ACDBDICTIONARYWDFLT
  2
AcDbDictionaryWithDefault
  3
ObjectDBX Classes
 90
        0
280
     0
281
     0
  0
CLASS
  1
TABLESTYLE
  2
AcDbTableStyle
  3
ObjectDBX Classes
 90
     4095
280
     0
281
     0
  0
CLASS
  1
SORTENTSTABLE
  2
AcDbSortentsTable
  3
ObjectDBX Classes
 90
        0
280
     0
281
     0
  0
CLASS
  1
DICTIONARYVAR
  2
AcDbDictionaryVar
  3
ObjectDBX Classes
 90
        0
280
     0
281
     0
  0
CLASS
  1
ACDBPLACEHOLDER
  2
AcDbPlaceHolder
  3
ObjectDBX Classes
 90
        0
280
     0
281
     0
  0
CLASS
  1
LAYOUT
  2
AcDbLayout
  3
ObjectDBX Classes
 90
        0
280
     0
281
     0
  0
CLASS
  1
MATERIAL
  2
AcDbMaterial
  3
ObjectDBX Classes
 90
     1153
280
     0
281
     0
  0
CLASS
  1
VISUALSTYLE
  2
AcDbVisualStyle
  3
ObjectDBX Classes
 90
     4095
280
     0
281
     0
  0
CLASS
  1
SCALE
  2
AcDbScale
  3
ObjectDBX Classes
 90
     1153
280
     0
281
     0
  0
CLASS
  1
MLEADERSTYLE
  2
AcDbMLeaderStyle
  3
ACDB_MLEADERSTYLE_CLASS
 90
     4095
280
     0
281
     0
  0
CLASS
  1
CELLSTYLEMAP
  2
AcDbCellStyleMap
  3
ObjectDBX Classes
 90
     1152
280
     0
281
     0
  0
ENDSEC
  0
SECTION
  2
TABLES
  0
TABLE
  2
VPORT
  5
1
330
0
100
AcDbSymbolTable
 70
     1
  0
VPORT
  5
3DA1
330
1
100
AcDbSymbolTableRecord
100
AcDbViewportTableRecord
  2
*Active
 70
     0
 10
0.0
 20
0.0
 11
1.0
 21
1.0
 12
839.9128105048749
 22
594.0963429230159
 13
0.0
 23
0.0
 14
1.0
 24
1.0
 15
0.0
 25
0.0
 16
0.0
 26
0.0
 36
1.0
 17
0.0
 27
0.0
 37
0.0
 40
1199.566558497822
 41
1.882075471698113
 42
50.0
 43
0.0
 44
0.0
 50
0.0
 51
0.0
 71
     0
 72
   100
 73
     1
 74
     1
 75
     0
 76
     0
 77
     0
 78
     0
281
     0
 65
     1
110
0.0
120
0.0
130
0.0
111
1.0
121
0.0
131
0.0
112
0.0
122
1.0
132
0.0
 79
     0
146
0.0
1001
ACAD_NAV_VCDISPLAY
1070
     3
  0
ENDTAB
  0
TABLE
  2
LTYPE
  5
69
330
0
100
AcDbSymbolTable
 70
     4
  0
LTYPE
  5
1D
330
69
100
AcDbSymbolTableRecord
100
AcDbLinetypeTableRecord
  2
BYBLOCK
 70
     0
  3

 72
    65
 73
     0
 40
0.0
  0
LTYPE
  5
1E
330
69
100
AcDbSymbolTableRecord
100
AcDbLinetypeTableRecord
  2
BYLAYER
 70
     0
  3

 72
    65
 73
     0
 40
0.0
  0
LTYPE
  5
1F
330
69
100
AcDbSymbolTableRecord
100
AcDbLinetypeTableRecord
  2
CONTINUOUS
 70
     0
  3
Solid line
 72
    65
 73
     0
 40
0.0
  0
LTYPE
  5
26
330
69
100
AcDbSymbolTableRecord
100
AcDbLinetypeTableRecord
  2
DASHDOT
 70
     0
  3
__ . __ . __ . __ . __ . __ . __ . __ . __ . __
 72
    65
 73
     4
 40
1.0
 49
0.5
 74
     0
 49
-0.25
 74
     0
 49
0.0
 74
     0
 49
-0.25
 74
     0
  0
LTYPE
  5
2F
330
69
100
AcDbSymbolTableRecord
100
AcDbLinetypeTableRecord
  2
DOT
 70
     0
  3
. . . . . . . . . . . . . . . . . . . . . . . .
 72
    65
 73
     2
 40
0.25
 49
0.0
 74
     0
 49
-0.25
 74
     0
  0
LTYPE
  5
32
330
69
100
AcDbSymbolTableRecord
100
AcDbLinetypeTableRecord
  2
HIDDEN
 70
     0
  3
__ __ __ __ __ __ __ __ __ __ __ __ __ __ __ __
 72
    65
 73
     2
 40
0.375
 49
0.25
 74
     0
 49
-0.125
 74
     0
  0
ENDTAB
  0
TABLE
  2
LAYER
  5
68
102
{ACAD_XDICTIONARY
360
4CA3
102
}
330
0
100
AcDbSymbolTable
 70
    11
  0
LAYER
  5
38
102
{ACAD_XDICTIONARY
360
473F
102
}
330
68
100
AcDbSymbolTableRecord
100
AcDbLayerTableRecord
  2
0
 70
     0
 62
     7
  6
CONTINUOUS
370
    -3
390
37ED
  0
LAYER
  5
39
102
{ACAD_XDICTIONARY
360
4741
102
}
330
68
100
AcDbSymbolTableRecord
100
AcDbLayerTableRecord
  2
LEVEL001
 70
     0
 62
     7
  6
CONTINUOUS
370
    -3
390
37ED
  0
LAYER
  5
474B
102
{ACAD_XDICTIONARY
360
474C
102
}
330
68
100
AcDbSymbolTableRecord
100
AcDbLayerTableRecord
  2
LEVEL002
 70
     0
 62
     7
  6
CONTINUOUS
370
    -3
390
37ED
  0
LAYER
  5
474D
102
{ACAD_XDICTIONARY
360
474E
102
}
330
68
100
AcDbSymbolTableRecord
100
AcDbLayerTableRecord
  2
LEVEL003
 70
     0
 62
     7
  6
CONTINUOUS
370
    -3
390
37ED
  0
LAYER
  5
474F
102
{ACAD_XDICTIONARY
360
4750
102
}
330
68
100
AcDbSymbolTableRecord
100
AcDbLayerTableRecord
  2
LEVEL004
 70
     0
 62
     7
  6
CONTINUOUS
370
    -3
390
37ED
  0
LAYER
  5
4751
102
{ACAD_XDICTIONARY
360
4752
102
}
330
68
100
AcDbSymbolTableRecord
100
AcDbLayerTableRecord
  2
LEVEL007
 70
     0
 62
     7
  6
CONTINUOUS
370
    -3
390
37ED
  0
LAYER
  5
4753
330
68
100
AcDbSymbolTableRecord
100
AcDbLayerTableRecord
  2
1
 70
     0
 62
     7
  6
CONTINUOUS
370
    -3
390
37ED
1001
AcAecLayerStandard
1000

1000

  0
LAYER
  5
A90E
330
68
100
AcDbSymbolTableRecord
100
AcDbLayerTableRecord
  2
LEVEL008
 70
     0
 62
     7
  6
CONTINUOUS
370
    -3
390
37ED
  0
LAYER
  5
A90F
330
68
100
AcDbSymbolTableRecord
100
AcDbLayerTableRecord
  2
LEVEL010
 70
     0
 62
     7
  6
CONTINUOUS
370
    -3
390
37ED
  0
LAYER
  5
A910
330
68
100
AcDbSymbolTableRecord
100
AcDbLayerTableRecord
  2
LEVEL011
 70
     0
 62
     7
  6
CONTINUOUS
370
    -3
390
37ED
  0
LAYER
  5
A911
330
68
100
AcDbSymbolTableRecord
100
AcDbLayerTableRecord
  2
LEVEL012
 70
     0
 62
     7
  6
CONTINUOUS
370
    -3
390
37ED
  0
ENDTAB
  0
TABLE
  2
STYLE
  5
6
330
0
100
AcDbSymbolTable
 70
     1
  0
STYLE
  5
7
330
6
100
AcDbSymbolTableRecord
100
AcDbTextStyleTableRecord
  2
STANDARD
 70
     0
 40
0.0
 41
0.8
 50
0.0
 71
     0
 42
0.2
  3
TXT.shx
  4
BIGFONT.shx
  0
ENDTAB
  0
TABLE
  2
VIEW
  5
2
330
0
100
AcDbSymbolTable
 70
     0
  0
ENDTAB
  0
TABLE
  2
UCS
  5
3
330
0
100
AcDbSymbolTable
 70
     0
  0
ENDTAB
  0
TABLE
  2
APPID
  5
4
330
0
100
AcDbSymbolTable
 70
     8
  0
APPID
  5
5
330
4
100
AcDbSymbolTableRecord
100
AcDbRegAppTableRecord
  2
ACAD
 70
     0
  0
APPID
  5
385F
330
4
100
AcDbSymbolTableRecord
100
AcDbRegAppTableRecord
  2
ACAD_PSEXT
 70
     0
  0
APPID
  5
3DF1
330
4
100
AcDbSymbolTableRecord
100
AcDbRegAppTableRecord
  2
ACAD_NAV_VCDISPLAY
 70
     0
  0
APPID
  5
3ECF
330
4
100
AcDbSymbolTableRecord
100
AcDbRegAppTableRecord
  2
GradientColor1ACI
 70
     0
  0
APPID
  5
3ED0
330
4
100
AcDbSymbolTableRecord
100
AcDbRegAppTableRecord
  2
GradientColor2ACI
 70
     0
  0
APPID
  5
3ED2
330
4
100
AcDbSymbolTableRecord
100
AcDbRegAppTableRecord
  2
ACAD_EXEMPT_FROM_CAD_STANDARDS
 70
     0
  0
APPID
  5
4754
330
4
100
AcDbSymbolTableRecord
100
AcDbRegAppTableRecord
  2
AcAecLayerStandard
 70
     0
  0
APPID
  5
145D6
330
4
100
AcDbSymbolTableRecord
100
AcDbRegAppTableRecord
  2
ACAD_MLEADERVER
 70
     0
  0
ENDTAB
  0
TABLE
  2
DIMSTYLE
  5
67
330
0
100
AcDbSymbolTable
 70
     1
100
AcDbDimStyleTable
 71
     1
340
3C
  0
DIMSTYLE
105
3C
330
67
100
AcDbSymbolTableRecord
100
AcDbDimStyleTableRecord
  2
STANDARD
 70
     0
340
7
  0
ENDTAB
  0
TABLE
  2
BLOCK_RECORD
  5
9
330
0
100
AcDbSymbolTable
 70
     0
  0
BLOCK_RECORD
  5
A
102
{ACAD_XDICTIONARY
360
37FA
102
}
330
9
100
AcDbSymbolTableRecord
100
AcDbBlockTableRecord
  2
*MODEL_SPACE
340
37F4
  0
BLOCK_RECORD
  5
B
330
9
100
AcDbSymbolTableRecord
100
AcDbBlockTableRecord
  2
*PAPER_SPACE
340
37F5
  0
ENDTAB
  0
ENDSEC
  0
SECTION
  2
BLOCKS
  0
BLOCK
  5
41
330
A
100
AcDbEntity
  8
0
100
AcDbBlockBegin
  2
*MODEL_SPACE
 70
     0
 10
0.0
 20
0.0
 30
0.0
  3
*MODEL_SPACE
  1

  0
ENDBLK
  5
54
330
A
100
AcDbEntity
  8
0
100
AcDbBlockEnd
  0
BLOCK
  5
42
330
B
100
AcDbEntity
 67
     1
  8
0
100
AcDbBlockBegin
  2
*PAPER_SPACE
 70
     0
 10
0.0
 20
0.0
 30
0.0
  3
*PAPER_SPACE
  1

  0
ENDBLK
  5
55
330
B
100
AcDbEntity
 67
     1
  8
0
100
AcDbBlockEnd
  0
ENDSEC
  0
SECTION
  2
ENTITIES
  0
TEXT
  5
2C33
330
A
100
AcDbEntity
  8
LEVEL001
 62
     8
100
AcDbText
 10
1268.8000000001
 20
1936.1666666667
 30
0.0
 40
8.0
  1

 41
0.5
100
AcDbText
  0
TEXT
  5
2C3A
330
A
100
AcDbEntity
  8
LEVEL001
 62
     8
100
AcDbText
 10
1268.8000000001
 20
1861.5
 30
0.0
 40
8.0
  1

 41
0.5
100
AcDbText
  0
TEXT
  5
2C42
330
A
100
AcDbEntity
  8
LEVEL001
 62
     8
100
AcDbText
 10
1268.8000000001
 20
1776.1666666667
 30
0.0
 40
8.0
  1

 41
0.5
100
AcDbText
  0
TEXT
  5
2C4B
330
A
100
AcDbEntity
  8
LEVEL001
 62
     8
100
AcDbText
 10
1268.8000000001
 20
1680.1666666667
 30
0.0
 40
8.0
  1

 41
0.5
100
AcDbText
  0
TEXT
  5
2C52
330
A
100
AcDbEntity
  8
LEVEL001
 62
     8
100
AcDbText
 10
1268.8000000001
 20
1605.5
 30
0.0
 40
8.0
  1

 41
0.5
100
AcDbText
  0
TEXT
  5
2C5A
330
A
100
AcDbEntity
  8
LEVEL001
 62
     8
100
AcDbText
 10
1268.8000000001
 20
1520.1666666667
 30
0.0
 40
8.0
  1

 41
0.5
100
AcDbText
  0
TEXT
  5
2C5B
330
A
100
AcDbEntity
  8
LEVEL001
 62
     8
100
AcDbText
 10
1268.8000000001
 20
1509.5
 30
0.0
 40
8.0
  1

 41
0.5
100
AcDbText
  0
TEXT
  5
2C5C
330
A
100
AcDbEntity
  8
LEVEL001
 62
     8
100
AcDbText
 10
1268.8000000001
 20
1498.8333333333
 30
0.0
 40
8.0
  1
 
 41
0.5
100
AcDbText
  0
TEXT
  5
2C69
330
A
100
AcDbEntity
  8
LEVEL001
 62
     8
100
AcDbText
 10
1268.8000000001
 20
748.16666666668
 30
0.0
 40
8.0
  1

 41
0.5
100
AcDbText
  0
TEXT
  5
2C70
330
A
100
AcDbEntity
  8
LEVEL001
 62
     8
100
AcDbText
 10
1268.8000000001
 20
673.5000000000099
 30
0.0
 40
8.0
  1

 41
0.5
100
AcDbText
  0
TEXT
  5
2C78
330
A
100
AcDbEntity
  8
LEVEL001
 62
     8
100
AcDbText
 10
1268.8000000001
 20
588.16666666668
 30
0.0
 40
8.0
  1

 41
0.5
100
AcDbText
  0
TEXT
  5
2C81
330
A
100
AcDbEntity
  8
LEVEL001
 62
     8
100
AcDbText
 10
1268.8000000001
 20
492.16666666668
 30
0.0
 40
8.0
  1

 41
0.5
100
AcDbText
  0
TEXT
  5
2C88
330
A
100
AcDbEntity
  8
LEVEL001
 62
     8
100
AcDbText
 10
1268.8000000001
 20
417.50000000001
 30
0.0
 40
8.0
  1

 41
0.5
100
AcDbText
  0
TEXT
  5
2C90
330
A
100
AcDbEntity
  8
LEVEL001
 62
     8
100
AcDbText
 10
1268.8000000001
 20
332.16666666668
 30
0.0
 40
8.0
  1

 41
0.5
100
AcDbText
  0
TEXT
  5
2C91
330
A
100
AcDbEntity
  8
LEVEL001
 62
     8
100
AcDbText
 10
1268.8000000001
 20
321.50000000001
 30
0.0
 40
8.0
  1

 41
0.5
100
AcDbText
  0
TEXT
  5
2C92
330
A
100
AcDbEntity
  8
LEVEL001
 62
     8
100
AcDbText
 10
1268.8000000001
 20
310.83333333334
 30
0.0
 40
8.0
  1
 
 41
0.5
100
AcDbText
  0
TEXT
  5
2C9F
330
A
100
AcDbEntity
  8
LEVEL001
 62
     8
100
AcDbText
 10
1268.8000000001
 20
3124.1666666667
 30
0.0
 40
8.0
  1

 41
0.5
100
AcDbText
  0
TEXT
  5
2CA6
330
A
100
AcDbEntity
  8
LEVEL001
 62
     8
100
AcDbText
 10
1268.8000000001
 20
3049.5
 30
0.0
 40
8.0
  1

 41
0.5
100
AcDbText
  0
TEXT
  5
2CAE
330
A
100
AcDbEntity
  8
LEVEL001
 62
     8
100
AcDbText
 10
1268.8000000001
 20
2964.166666666701
 30
0.0
 40
8.0
  1

 41
0.5
100
AcDbText
  0
TEXT
  5
2CB7
330
A
100
AcDbEntity
  8
LEVEL001
 62
     8
100
AcDbText
 10
1268.8000000001
 20
2868.1666666667
 30
0.0
 40
8.0
  1

 41
0.5
100
AcDbText
  0
TEXT
  5
2CBE
330
A
100
AcDbEntity
  8
LEVEL001
 62
     8
100
AcDbText
 10
1268.8000000001
 20
2793.5
 30
0.0
 40
8.0
  1

 41
0.5
100
AcDbText
  0
TEXT
  5
2CC6
330
A
100
AcDbEntity
  8
LEVEL001
 62
     8
100
AcDbText
 10
1268.8000000001
 20
2708.1666666667
 30
0.0
 40
8.0
  1

 41
0.5
100
AcDbText
  0
TEXT
  5
2CC7
330
A
100
AcDbEntity
  8
LEVEL001
 62
     8
100
AcDbText
 10
1268.8000000001
 20
2697.5
 30
0.0
 40
8.0
  1

 41
0.5
100
AcDbText
  0
TEXT
  5
2CC8
330
A
100
AcDbEntity
  8
LEVEL001
 62
     8
100
AcDbText
 10
1268.8000000001
 20
2686.8333333333
 30
0.0
 40
8.0
  1
 
 41
0.5
100
AcDbText
  0
TEXT
  5
2CD5
330
A
100
AcDbEntity
  8
LEVEL001
 62
     8
100
AcDbText
 10
1268.8000000001
 20
4312.1666666667
 30
0.0
 40
8.0
  1

 41
0.5
100
AcDbText
  0
TEXT
  5
2CDC
330
A
100
AcDbEntity
  8
LEVEL001
 62
     8
100
AcDbText
 10
1268.8000000001
 20
4237.499999999999
 30
0.0
 40
8.0
  1

 41
0.5
100
AcDbText
  0
TEXT
  5
2CE4
330
A
100
AcDbEntity
  8
LEVEL001
 62
     8
100
AcDbText
 10
1268.8000000001
 20
4152.166666666699
 30
0.0
 40
8.0
  1

 41
0.5
100
AcDbText
  0
TEXT
  5
2CED
330
A
100
AcDbEntity
  8
LEVEL001
 62
     8
100
AcDbText
 10
1268.8000000001
 20
4056.1666666667
 30
0.0
 40
8.0
  1

 41
0.5
100
AcDbText
  0
TEXT
  5
2CF4
330
A
100
AcDbEntity
  8
LEVEL001
 62
     8
100
AcDbText
 10
1268.8000000001
 20
3981.5
 30
0.0
 40
8.0
  1

 41
0.5
100
AcDbText
  0
TEXT
  5
2CFC
330
A
100
AcDbEntity
  8
LEVEL001
 62
     8
100
AcDbText
 10
1268.8000000001
 20
3896.1666666667
 30
0.0
 40
8.0
  1

 41
0.5
100
AcDbText
  0
TEXT
  5
2CFD
330
A
100
AcDbEntity
  8
LEVEL001
 62
     8
100
AcDbText
 10
1268.8000000001
 20
3885.5
 30
0.0
 40
8.0
  1

 41
0.5
100
AcDbText
  0
TEXT
  5
2CFE
330
A
100
AcDbEntity
  8
LEVEL001
 62
     8
100
AcDbText
 10
1268.8000000001
 20
3874.8333333333
 30
0.0
 40
8.0
  1
 
 41
0.5
100
AcDbText
  0
TEXT
  5
2D10
330
A
100
AcDbEntity
  8
LEVEL001
 62
     8
100
AcDbText
 10
1268.8000000001
 20
7876.1666666667
 30
0.0
 40
8.0
  1

 41
0.5
100
AcDbText
  0
TEXT
  5
2D17
330
A
100
AcDbEntity
  8
LEVEL001
 62
     8
100
AcDbText
 10
1268.8000000001
 20
7801.5
 30
0.0
 40
8.0
  1

 41
0.5
100
AcDbText
  0
TEXT
  5
2D1F
330
A
100
AcDbEntity
  8
LEVEL001
 62
     8
100
AcDbText
 10
1268.8000000001
 20
7716.1666666667
 30
0.0
 40
8.0
  1

 41
0.5
100
AcDbText
  0
TEXT
  5
2D28
330
A
100
AcDbEntity
  8
LEVEL001
 62
     8
100
AcDbText
 10
1268.8000000001
 20
7620.166666666699
 30
0.0
 40
8.0
  1

 41
0.5
100
AcDbText
  0
TEXT
  5
2D2F
330
A
100
AcDbEntity
  8
LEVEL001
 62
     8
100
AcDbText
 10
1268.8000000001
 20
7545.5
 30
0.0
 40
8.0
  1

 41
0.5
100
AcDbText
  0
TEXT
  5
2D37
330
A
100
AcDbEntity
  8
LEVEL001
 62
     8
100
AcDbText
 10
1268.8000000001
 20
7460.1666666667
 30
0.0
 40
8.0
  1

 41
0.5
100
AcDbText
  0
TEXT
  5
2D38
330
A
100
AcDbEntity
  8
LEVEL001
 62
     8
100
AcDbText
 10
1268.8000000001
 20
7449.5
 30
0.0
 40
8.0
  1

 41
0.5
100
AcDbText
  0
TEXT
  5
2D39
330
A
100
AcDbEntity
  8
LEVEL001
 62
     8
100
AcDbText
 10
1268.8000000001
 20
7438.833333333301
 30
0.0
 40
8.0
  1
 
 41
0.5
100
AcDbText
  0
TEXT
  5
2D49
330
A
100
AcDbEntity
  8
LEVEL001
 62
     8
100
AcDbText
 10
1268.8000000001
 20
5500.1666666667
 30
0.0
 40
8.0
  1

 41
0.5
100
AcDbText
  0
TEXT
  5
2D50
330
A
100
AcDbEntity
  8
LEVEL001
 62
     8
100
AcDbText
 10
1268.8000000001
 20
5425.5
 30
0.0
 40
8.0
  1

 41
0.5
100
AcDbText
  0
TEXT
  5
2D60
330
A
100
AcDbEntity
  8
LEVEL001
 62
     8
100
AcDbText
 10
1268.8000000001
 20
6688.1666666667
 30
0.0
 40
8.0
  1

 41
0.5
100
AcDbText
  0
TEXT
  5
2D67
330
A
100
AcDbEntity
  8
LEVEL001
 62
     8
100
AcDbText
 10
1268.8000000001
 20
6613.500000000001
 30
0.0
 40
8.0
  1

 41
0.5
100
AcDbText
  0
TEXT
  5
2D6F
330
A
100
AcDbEntity
  8
LEVEL001
 62
     8
100
AcDbText
 10
1268.8000000001
 20
6528.166666666699
 30
0.0
 40
8.0
  1

 41
0.5
100
AcDbText
  0
TEXT
  5
2D70
330
A
100
AcDbEntity
  8
LEVEL001
 62
     8
100
AcDbText
 10
1268.8000000001
 20
6517.5
 30
0.0
 40
8.0
  1

 41
0.5
100
AcDbText
  0
TEXT
  5
2D71
330
A
100
AcDbEntity
  8
LEVEL001
 62
     8
100
AcDbText
 10
1268.8000000001
 20
6506.8333333333
 30
0.0
 40
8.0
  1
 
 41
0.5
100
AcDbText
  0
LWPOLYLINE
  5
13671
330
A
100
AcDbEntity
  8
LEVEL001
  6
Continuous
 62
     3
370
    40
100
AcDbPolyline
 90
        5
 70
     0
 43
0.0
 10
62.00000000010914
 20
48.0
 10
1618.0000000001
 20
48.0
 10
1618.0000000001
 20
1140.0
 10
62.00000000010914
 20
1140.0
 10
62.00000000010914
 20
48.0
  0
LWPOLYLINE
  5
13672
330
A
100
AcDbEntity
  8
0
  6
DOT
100
AcDbPolyline
 90
        5
 70
     0
 43
0.0
 10
0.0
 20
0.0
 10
1680.0
 20
0.0
 10
1680.0
 20
1188.0
 10
0.0
 20
1188.0
 10
0.0
 20
0.0
  0
TEXT
  5
13673
330
A
100
AcDbEntity
  8
LEVEL001
 62
     3
100
AcDbText
 10
1273.2800000001
 20
267.0
 30
0.0
 40
12.0
  1
図面名称：
 41
0.8
 72
     1
 11
1299.2000000001
 21
273.0
 31
0.0
100
AcDbText
 73
     2
  0
TEXT
  5
13674
330
A
100
AcDbEntity
  8
LEVEL001
 62
     3
100
AcDbText
 10
1273.1200000001
 20
187.0
 30
0.0
 40
12.0
  1
縮尺：
 41
0.8
 72
     1
 11
1287.2000000001
 21
193.0
 31
0.0
100
AcDbText
 73
     2
  0
TEXT
  5
13675
330
A
100
AcDbEntity
  8
LEVEL001
 62
     3
100
AcDbText
 10
1273.8400000001
 20
108.8861409145001
 30
0.0
 40
12.0
  1
用紙サイズ：
 41
0.8
 72
     1
 11
1305.2000000001
 21
114.8861409145002
 31
0.0
100
AcDbText
 73
     2
  0
TEXT
  5
13676
330
A
100
AcDbEntity
  8
LEVEL001
 62
     3
100
AcDbText
 10
1475.306666666766
 20
189.0666666667002
 30
0.0
 40
11.2
  1
作成日付：
 41
0.8
 72
     1
 11
1499.2000000001
 21
194.6666666667001
 31
0.0
100
AcDbText
 73
     2
  0
TEXT
  5
13677
330
A
100
AcDbEntity
  8
LEVEL001
 62
     3
100
AcDbText
 10
1475.306666666766
 20
162.4
 30
0.0
 40
11.2
  1
変更日付：
 41
0.8
 72
     1
 11
1499.2000000001
 21
168.0
 31
0.0
100
AcDbText
 73
     2
  0
TEXT
  5
13678
330
A
100
AcDbEntity
  8
LEVEL001
 62
     3
100
AcDbText
 10
1473.5200000001
 20
107.0
 30
0.0
 40
12.0
  1
ファイル名：
 41
0.8
 72
     1
 11
1505.2000000001
 21
113.0
 31
0.0
100
AcDbText
 73
     2
  0
LINE
  5
13679
330
A
100
AcDbEntity
  8
LEVEL001
  6
Continuous
 62
     3
100
AcDbLine
 10
1468.0000000001
 20
208.0
 30
0.0
 11
1468.0000000001
 21
48.0
 31
0.0
  0
LINE
  5
1367A
330
A
100
AcDbEntity
  8
LEVEL001
  6
Continuous
 62
     3
370
    40
100
AcDbLine
 10
1268.0000000001
 20
1140.0
 30
0.0
 11
1268.0000000001
 21
48.0
 31
0.0
  0
LINE
  5
1367B
330
A
100
AcDbEntity
  8
LEVEL001
  6
Continuous
 62
     3
100
AcDbLine
 10
1268.0000000001
 20
288.0
 30
0.0
 11
1618.0000000001
 21
288.0
 31
0.0
  0
LINE
  5
1367C
330
A
100
AcDbEntity
  8
LEVEL001
  6
Continuous
 62
     3
100
AcDbLine
 10
1268.0000000001
 20
208.0
 30
0.0
 11
1618.0000000001
 21
208.0
 31
0.0
  0
LINE
  5
1367D
330
A
100
AcDbEntity
  8
LEVEL001
  6
Continuous
 62
     3
100
AcDbLine
 10
1268.0000000001
 20
128.0
 30
0.0
 11
1618.0000000001
 21
128.0
 31
0.0
  0
LINE
  5
1367E
330
A
100
AcDbEntity
  8
LEVEL001
  6
Continuous
 62
     3
100
AcDbLine
 10
1468.0000000001
 20
181.3333333332998
 30
0.0
 11
1618.0000000001
 21
181.3333333332998
 31
0.0
  0
LINE
  5
1367F
330
A
100
AcDbEntity
  8
LEVEL001
  6
Continuous
 62
     3
100
AcDbLine
 10
1468.0000000001
 20
154.6666666667001
 30
0.0
 11
1618.0000000001
 21
154.6666666667001
 31
0.0
  0
LINE
  5
13680
330
A
100
AcDbEntity
  8
LEVEL001
  6
Continuous
 62
     3
370
    40
100
AcDbLine
 10
62.00000000010914
 20
1100.0
 30
0.0
 11
1268.0000000001
 21
1100.0
 31
0.0
  0
TEXT
  5
13681
330
A
100
AcDbEntity
  8
LEVEL001
 62
     3
100
AcDbText
 10
1273.3600000001
 20
1006.0
 30
0.0
 40
12.0
  1
商品名：
 41
0.8
 72
     1
 11
1293.2000000001
 21
1012.0
 31
0.0
100
AcDbText
 73
     2
  0
TEXT
  5
13682
330
A
100
AcDbEntity
  8
LEVEL001
 62
     3
100
AcDbText
 10
1273.1200000001
 20
926.0
 30
0.0
 40
12.0
  1
形式：
 41
0.8
 72
     1
 11
1287.2000000001
 21
932.0
 31
0.0
100
AcDbText
 73
     2
  0
TEXT
  5
13683
330
A
100
AcDbEntity
  8
LEVEL001
 62
     3
100
AcDbText
 10
1273.1200000001
 20
846.0
 30
0.0
 40
12.0
  1
仕様：
 41
0.8
 72
     1
 11
1287.2000000001
 21
852.0
 31
0.0
100
AcDbText
 73
     2
  0
LINE
  5
13684
330
A
100
AcDbEntity
  8
LEVEL001
  6
Continuous
 62
     3
100
AcDbLine
 10
1268.0000000001
 20
1027.0
 30
0.0
 11
1618.0000000001
 21
1027.0
 31
0.0
  0
LINE
  5
13685
330
A
100
AcDbEntity
  8
LEVEL001
  6
Continuous
 62
     3
100
AcDbLine
 10
1268.0000000001
 20
947.0
 30
0.0
 11
1618.0000000001
 21
947.0
 31
0.0
  0
LINE
  5
13686
330
A
100
AcDbEntity
  8
LEVEL001
  6
Continuous
 62
     3
100
AcDbLine
 10
1268.0000000001
 20
867.0
 30
0.0
 11
1618.0000000001
 21
867.0
 31
0.0
  0
TEXT
  5
13687
330
A
100
AcDbEntity
  8
LEVEL001
 62
     8
100
AcDbText
 10
1381.0000000001
 20
240.5
 30
0.0
 40
15.0
  1
平面図･断面図･姿図
 41
0.8
 72
     1
 11
1443.0000000001
 21
248.0
 31
0.0
100
AcDbText
 73
     2
  0
TEXT
  5
13688
330
A
100
AcDbEntity
  8
LEVEL001
 62
     8
100
AcDbText
 10
1333.6000000001
 20
160.5
 30
0.0
 40
15.0
  1
Ｓ＝１：４　
 41
0.8
 72
     1
 11
1368.0000000001
 21
168.0
 31
0.0
100
AcDbText
 73
     2
  0
TEXT
  5
13689
330
A
100
AcDbEntity
  8
LEVEL001
 62
     8
100
AcDbText
 10
1355.6000000001
 20
80.5
 30
0.0
 40
15.0
  1
Ａ３
 41
0.8
 72
     1
 11
1368.0000000001
 21
88.0
 31
0.0
100
AcDbText
 73
     2
  0
TEXT
  5
13710
330
A
100
AcDbEntity
  8
LEVEL001
 62
     8
100
AcDbText
 10
1323.9600000001
 20
978.0
 30
0.0
 40
18.0
  1
パルライン楕円型ハンドレール
 41
0.8
 72
     1
 11
1443.0000000001
 21
987.0
 31
0.0
100
AcDbText
 73
     2
  0
TEXT
  5
13712
330
A
100
AcDbEntity
  8
LEVEL001
 62
     8
100
AcDbText
 10
1350.413333333433
 20
900.0
 30
0.0
 40
14.0
  1
壁付ブラケット－Ｗ２Ｆタイプ
 41
0.8
 72
     1
 11
1443.0000000001
 21
907.0
 31
0.0
100
AcDbText
 73
     2
  0
TEXT
  5
13719
330
A
100
AcDbEntity
  8
LEVEL001
 62
     8
100
AcDbText
 10
93.20000000010896
 20
1114.0
 30
0.0
 40
12.0
  1
壁付ブラケット－Ｗ２Ｆ(笠木－楕円型仕様)
 41
0.8
 11
93.20000000010896
 21
1120.0
 31
0.0
100
AcDbText
 73
     2
  0
TEXT
  5
13750
330
A
100
AcDbEntity
  8
LEVEL001
 62
     8
100
AcDbText
 10
1268.8000000001
 20
833.5
 30
0.0
 40
8.0
  1
(楕円型)
 41
0.8
100
AcDbText
  0
TEXT
  5
13751
330
A
100
AcDbEntity
  8
LEVEL001
 62
     8
100
AcDbText
 10
1268.8000000001
 20
822.8333333332997
 30
0.0
 40
8.0
  1
・屋内用
 41
0.8
100
AcDbText
  0
TEXT
  5
13752
330
A
100
AcDbEntity
  8
LEVEL001
 62
     8
100
AcDbText
 10
1268.8000000001
 20
812.1666666667001
 30
0.0
 40
8.0
  1
 標準色　
 41
0.8
100
AcDbText
  0
TEXT
  5
13753
330
A
100
AcDbEntity
  8
LEVEL001
 62
     8
100
AcDbText
 10
1268.8000000001
 20
801.5
 30
0.0
 40
8.0
  1
　笠木(ＧＳＫ６Ｃ)･･･特殊樹脂　　　　
 41
0.8
100
AcDbText
  0
TEXT
  5
13754
330
A
100
AcDbEntity
  8
LEVEL001
 62
     8
100
AcDbText
 10
1268.8000000001
 20
790.8333333332998
 30
0.0
 40
8.0
  1
　笠木受(ＳＫ６Ａ)･･･アルミ
 41
0.8
100
AcDbText
  0
TEXT
  5
13755
330
A
100
AcDbEntity
  8
LEVEL001
 62
     8
100
AcDbText
 10
1268.8000000001
 20
780.1666666667001
 30
0.0
 40
8.0
  1
　アールエンドキャップ(ＲＣ４３)･･･ＡＳＡ
 41
0.8
100
AcDbText
  0
TEXT
  5
13756
330
A
100
AcDbEntity
  8
LEVEL001
 62
     8
100
AcDbText
 10
1268.8000000001
 20
769.5
 30
0.0
 40
8.0
  1
　　(エンドキャップ･･･ＡＳＡ)有
 41
0.8
100
AcDbText
  0
TEXT
  5
13757
330
A
100
AcDbEntity
  8
LEVEL001
 62
     8
100
AcDbText
 10
1268.8000000001
 20
748.1666666667002
 30
0.0
 40
8.0
  1
木目色　
 41
0.8
100
AcDbText
  0
TEXT
  5
13758
330
A
100
AcDbEntity
  8
LEVEL001
 62
     8
100
AcDbText
 10
1268.8000000001
 20
737.5
 30
0.0
 40
8.0
  1
　笠木(ＧＳＫ６Ｍ)･･･特殊樹脂(耐候性樹脂)　　　　　　
 41
0.8
100
AcDbText
  0
TEXT
  5
13759
330
A
100
AcDbEntity
  8
LEVEL001
 62
     8
100
AcDbText
 10
1268.8000000001
 20
726.8333333332998
 30
0.0
 40
8.0
  1
　笠木受(ＳＫ６Ａ)･･･アルミ
 41
0.8
100
AcDbText
  0
TEXT
  5
1375A
330
A
100
AcDbEntity
  8
LEVEL001
 62
     8
100
AcDbText
 10
1268.8000000001
 20
716.1666666667001
 30
0.0
 40
8.0
  1
　アールエンドキャップ(ＲＣ４３Ｍ)･･･ＡＳＡ
 41
0.8
100
AcDbText
  0
TEXT
  5
1375B
330
A
100
AcDbEntity
  8
LEVEL001
 62
     8
100
AcDbText
 10
1268.8000000001
 20
705.4999999999999
 30
0.0
 40
8.0
  1
　　(エンドキャップ･･･ＡＳＡ)有
 41
0.8
100
AcDbText
  0
TEXT
  5
1375C
330
A
100
AcDbEntity
  8
LEVEL001
 62
     8
100
AcDbText
 10
1268.8000000001
 20
684.1666666667001
 30
0.0
 40
8.0
  1
・屋外用
 41
0.8
100
AcDbText
  0
TEXT
  5
1375D
330
A
100
AcDbEntity
  8
LEVEL001
 62
     8
100
AcDbText
 10
1268.8000000001
 20
673.5
 30
0.0
 40
8.0
  1
 標準色
 41
0.8
100
AcDbText
  0
TEXT
  5
1375E
330
A
100
AcDbEntity
  8
LEVEL001
 62
     8
100
AcDbText
 10
1268.8000000001
 20
662.8333333332998
 30
0.0
 40
8.0
  1
　笠木(ＧＳＫ６Ｇ)･･･特殊樹脂(耐候性樹脂)　　　　　　
 41
0.8
100
AcDbText
  0
TEXT
  5
1375F
330
A
100
AcDbEntity
  8
LEVEL001
 62
     8
100
AcDbText
 10
1268.8000000001
 20
652.1666666667002
 30
0.0
 40
8.0
  1
　笠木受(ＳＫ６Ａ)･･･アルミ
 41
0.8
100
AcDbText
  0
TEXT
  5
13760
330
A
100
AcDbEntity
  8
LEVEL001
 62
     8
100
AcDbText
 10
1268.8000000001
 20
641.5
 30
0.0
 40
8.0
  1
　アールエンドキャップ(ＲＣ４３)･･･ＡＳＡ
 41
0.8
100
AcDbText
  0
TEXT
  5
13761
330
A
100
AcDbEntity
  8
LEVEL001
 62
     8
100
AcDbText
 10
1268.8000000001
 20
630.8333333332998
 30
0.0
 40
8.0
  1
　　(エンドキャップ･･･ＡＳＡ)有
 41
0.8
100
AcDbText
  0
TEXT
  5
13762
330
A
100
AcDbEntity
  8
LEVEL001
 62
     8
100
AcDbText
 10
1268.8000000001
 20
609.4999999999999
 30
0.0
 40
8.0
  1
仕上：標準３色
 41
0.8
100
AcDbText
  0
TEXT
  5
13763
330
A
100
AcDbEntity
  8
LEVEL001
 62
     8
100
AcDbText
 10
1268.8000000001
 20
598.8333333332998
 30
0.0
 40
8.0
  1
　　　Ｐ０３－グレイ　　　　（鼠）
 41
0.8
100
AcDbText
  0
TEXT
  5
13764
330
A
100
AcDbEntity
  8
LEVEL001
 62
     8
100
AcDbText
 10
1268.8000000001
 20
588.1666666667001
 30
0.0
 40
8.0
  1
　　　Ｐ０６－アイボリー　　（白茶）
 41
0.8
100
AcDbText
  0
TEXT
  5
13765
330
A
100
AcDbEntity
  8
LEVEL001
 62
     8
100
AcDbText
 10
1268.8000000001
 20
577.5
 30
0.0
 40
8.0
  1
　　　Ｐ１１－チョコレート　（濃茶）
 41
0.8
100
AcDbText
  0
TEXT
  5
13766
330
A
100
AcDbEntity
  8
LEVEL001
 62
     8
100
AcDbText
 10
1268.8000000001
 20
566.8333333332998
 30
0.0
 40
8.0
  1
　　　木目調(３色)
 41
0.8
100
AcDbText
  0
TEXT
  5
13767
330
A
100
AcDbEntity
  8
LEVEL001
 62
     8
100
AcDbText
 10
1268.8000000001
 20
556.1666666667001
 30
0.0
 40
8.0
  1
　　　Ｍ６６－ミディアムオーク
 41
0.8
100
AcDbText
  0
TEXT
  5
13768
330
A
100
AcDbEntity
  8
LEVEL001
 62
     8
100
AcDbText
 10
1268.8000000001
 20
545.5
 30
0.0
 40
8.0
  1
　　　Ｍ６４－ライトオーク(受注生産)
 41
0.8
100
AcDbText
  0
TEXT
  5
13769
330
A
100
AcDbEntity
  8
LEVEL001
 62
     8
100
AcDbText
 10
1268.8000000001
 20
534.8333333332998
 30
0.0
 40
8.0
  1
　　　Ｍ６２－パーチオーク(受注生産)　
 41
0.8
100
AcDbText
  0
LINE
  5
13B3B
330
A
100
AcDbEntity
  8
LEVEL001
  6
DASHDOT
 62
     6
370
    15
100
AcDbLine
 10
939.5117273400702
 20
571.0120852258
 30
0.0
 11
939.5117273400702
 21
331.6405631308999
 31
0.0
  0
LINE
  5
13B3C
330
A
100
AcDbEntity
  8
LEVEL001
  6
DASHDOT
 62
     6
370
    15
100
AcDbLine
 10
923.0605141156003
 20
373.4923554515999
 30
0.0
 11
955.9629405645301
 21
373.4923554515999
 31
0.0
  0
LINE
  5
13B3D
330
A
100
AcDbEntity
  8
LEVEL001
  6
DASHDOT
 62
     6
370
    15
100
AcDbLine
 10
923.0605141156003
 20
463.4923554515999
 30
0.0
 11
955.9629405645301
 21
463.4923554515999
 31
0.0
  0
LINE
  5
13B3E
330
A
100
AcDbEntity
  8
LEVEL001
  6
Continuous
 62
     7
100
AcDbLine
 10
952.0117273400702
 20
489.4923554515998
 30
0.0
 11
927.0117273400702
 21
489.4923554515998
 31
0.0
  0
LINE
  5
13B3F
330
A
100
AcDbEntity
  8
LEVEL001
  6
Continuous
 62
     7
100
AcDbLine
 10
952.0117273400702
 20
522.4923554515998
 30
0.0
 11
927.0117273400702
 21
522.4923554515998
 31
0.0
  0
LINE
  5
13B40
330
A
100
AcDbEntity
  8
LEVEL001
  6
Continuous
 62
     7
100
AcDbLine
 10
952.0117273400702
 20
530.4923554515998
 30
0.0
 11
952.0117273400702
 21
489.4923554515998
 31
0.0
  0
LINE
  5
13B41
330
A
100
AcDbEntity
  8
LEVEL001
  6
Continuous
 62
     7
100
AcDbLine
 10
927.0117273400702
 20
530.4923554515998
 30
0.0
 11
927.0117273400702
 21
489.4923554515998
 31
0.0
  0
LWPOLYLINE
  5
13B42
330
A
100
AcDbEntity
  8
LEVEL001
  6
Continuous
 62
     7
100
AcDbPolyline
 90
        3
 70
     0
 43
0.0
 10
927.0117273400702
 20
496.9923554515998
 10
924.2617273400702
 20
496.9923554515998
 10
924.2617273400702
 20
414.4923554515998
  0
LWPOLYLINE
  5
13B43
330
A
100
AcDbEntity
  8
LEVEL001
  6
Continuous
 62
     7
100
AcDbPolyline
 90
        3
 70
     0
 43
0.0
 10
952.0117273400702
 20
496.9923554515998
 10
954.7617273400701
 20
496.9923554515998
 10
954.7617273400701
 20
414.4923554515998
  0
LINE
  5
13B44
330
A
100
AcDbEntity
  8
LEVEL001
  6
Continuous
 62
     7
100
AcDbLine
 10
952.0117273400702
 20
339.4923554515999
 30
0.0
 11
927.0117273400702
 21
339.4923554515999
 31
0.0
  0
LINE
  5
13B45
330
A
100
AcDbEntity
  8
LEVEL001
  6
Continuous
 62
     7
100
AcDbLine
 10
952.0117273400702
 20
380.4923554515999
 30
0.0
 11
952.0117273400702
 21
339.4923554515999
 31
0.0
  0
LINE
  5
13B46
330
A
100
AcDbEntity
  8
LEVEL001
  6
Continuous
 62
     7
100
AcDbLine
 10
927.0117273400702
 20
380.4923554515999
 30
0.0
 11
927.0117273400702
 21
339.4923554515999
 31
0.0
  0
LWPOLYLINE
  5
13B47
330
A
100
AcDbEntity
  8
LEVEL001
  6
Continuous
 62
     7
100
AcDbPolyline
 90
        3
 70
     0
 43
0.0
 10
952.0117273400702
 20
339.4923554515999
 10
954.7617273400701
 20
339.4923554515999
 10
954.7617273400701
 20
379.9923554515999
  0
LWPOLYLINE
  5
13B48
330
A
100
AcDbEntity
  8
LEVEL001
  6
Continuous
 62
     7
100
AcDbPolyline
 90
        3
 70
     0
 43
0.0
 10
927.0117273400702
 20
339.4923554515999
 10
924.2617273400702
 20
339.4923554515999
 10
924.2617273400702
 20
379.9923554515999
  0
LINE
  5
13B49
330
A
100
AcDbEntity
  8
LEVEL001
  6
Continuous
 62
     7
100
AcDbLine
 10
952.0117273400702
 20
372.4923554515999
 30
0.0
 11
927.0117273400702
 21
372.4923554515999
 31
0.0
  0
LINE
  5
13B4A
330
A
100
AcDbEntity
  8
LEVEL001
  6
Continuous
 62
     7
100
AcDbLine
 10
927.0117273400702
 20
414.4923554515998
 30
0.0
 11
927.0117273400702
 21
489.4923554515998
 31
0.0
  0
LINE
  5
13B4B
330
A
100
AcDbEntity
  8
LEVEL001
  6
Continuous
 62
     7
100
AcDbLine
 10
952.0117273400702
 20
489.4923554515998
 30
0.0
 11
952.0117273400702
 21
414.4923554515998
 31
0.0
  0
LINE
  5
13B4C
330
A
100
AcDbEntity
  8
LEVEL001
  6
DASHDOT
 62
     6
370
    15
100
AcDbLine
 10
939.5117273400702
 20
878.0333563633998
 30
0.0
 11
939.5117273400702
 21
761.6601976072997
 31
0.0
  0
LINE
  5
13B4D
330
A
100
AcDbEntity
  8
LEVEL001
  6
Continuous
 62
     7
100
AcDbLine
 10
927.0117273400702
 20
861.7869105054001
 30
0.0
 11
952.0117273400702
 21
861.7869105054001
 31
0.0
  0
LWPOLYLINE
  5
13B4E
330
A
100
AcDbEntity
  8
LEVEL001
  6
Continuous
 62
     7
100
AcDbPolyline
 90
        6
 70
     0
 43
0.0
 10
927.0117273400702
 20
868.2869105054001
 10
924.2617273400702
 20
868.2869105054001
 10
924.2617273400702
 20
841.2869105054001
 10
954.7617273400701
 20
841.2869105054001
 10
954.7617273400701
 20
868.2869105054001
 10
952.0117273400702
 20
868.2869105054001
  0
LINE
  5
13B4F
330
A
100
AcDbEntity
  8
LEVEL001
  6
Continuous
 62
     7
100
AcDbLine
 10
927.0117273400702
 20
841.2869105054001
 30
0.0
 11
927.5117273400701
 21
861.7869105054001
 31
0.0
  0
LINE
  5
13B50
330
A
100
AcDbEntity
  8
LEVEL001
  6
Continuous
 62
     7
100
AcDbLine
 10
951.5117273400701
 20
861.7869105054001
 30
0.0
 11
952.0117273400702
 21
841.2869105054001
 31
0.0
  0
LINE
  5
13B51
330
A
100
AcDbEntity
  8
LEVEL001
  6
Continuous
 62
     7
100
AcDbLine
 10
927.0117273400702
 20
869.7869105054001
 30
0.0
 11
927.0117273400702
 21
861.7869105054001
 31
0.0
  0
LINE
  5
13B52
330
A
100
AcDbEntity
  8
LEVEL001
  6
Continuous
 62
     7
100
AcDbLine
 10
952.0117273400702
 20
869.7869105054001
 30
0.0
 11
952.0117273400702
 21
861.7869105054001
 31
0.0
  0
LINE
  5
13B53
330
A
100
AcDbEntity
  8
LEVEL001
  6
Continuous
 62
     7
100
AcDbLine
 10
952.0117273400702
 20
841.2869105054001
 30
0.0
 11
952.0117273400702
 21
826.7869105054
 31
0.0
  0
LINE
  5
13B54
330
A
100
AcDbEntity
  8
LEVEL001
  6
Continuous
 62
     7
100
AcDbLine
 10
927.0117273400702
 20
841.2869105054001
 30
0.0
 11
927.0117273400702
 21
826.7869105054
 31
0.0
  0
LINE
  5
13B55
330
A
100
AcDbEntity
  8
LEVEL001
  6
Continuous
 62
     1
100
AcDbLine
 10
1079.713768369
 20
559.3992097012001
 30
0.0
 11
1089.5117273401
 21
553.7423554516999
 31
0.0
  0
LINE
  5
13B56
330
A
100
AcDbEntity
  8
LEVEL001
  6
Continuous
 62
     1
100
AcDbLine
 10
1079.713768369
 20
559.3992097012001
 30
0.0
 11
1061.669226849299
 21
564.9923554516999
 31
0.0
  0
LWPOLYLINE
  5
13B57
330
A
100
AcDbEntity
  8
LEVEL001
  6
Continuous
 62
     1
100
AcDbPolyline
 90
        3
 70
     0
 43
0.0
 10
1030.6692268495
 20
564.9923554516999
 10
1061.669226849299
 20
564.9923554516999
 10
1071.4671858204
 20
559.3355012021998
  0
LWPOLYLINE
  5
13B58
330
A
100
AcDbEntity
  8
LEVEL001
  6
Continuous
 62
     1
100
AcDbPolyline
 90
        3
 70
     0
 43
0.0
 10
1071.4671858204
 20
559.3355012021998
 10
1089.5117273401
 20
553.7423554516999
 10
1089.5117273401
 20
546.9923554516999
  0
ARC
  5
13B59
330
A
100
AcDbEntity
  8
LEVEL001
  6
Continuous
 62
     1
100
AcDbCircle
 10
1086.5526233281
 20
546.9923554516999
 30
0.0
 40
30.71129141404
100
AcDbArc
 50
144.1190038414778
 51
215.8809961585222
  0
ARC
  5
13B5A
330
A
100
AcDbEntity
  8
LEVEL001
  6
Continuous
 62
     1
100
AcDbCircle
 10
1088.6699106811
 20
546.9923554516999
 30
0.0
 40
21.172788896334
100
AcDbArc
 50
144.3401411933291
 51
215.6598588066708
  0
LINE
  5
13B5B
330
A
100
AcDbEntity
  8
LEVEL001
  6
Continuous
 62
     1
100
AcDbLine
 10
1079.713768369
 20
534.5855012021997
 30
0.0
 11
1089.5117273401
 21
540.2423554516999
 31
0.0
  0
LWPOLYLINE
  5
13B5C
330
A
100
AcDbEntity
  8
LEVEL001
  6
Continuous
 62
     1
100
AcDbPolyline
 90
        3
 70
     0
 43
0.0
 10
1071.4671858204
 20
534.6492097012001
 10
1089.5117273401
 20
540.2423554516999
 10
1089.5117273401
 20
546.9923554516999
  0
LINE
  5
13B5D
330
A
100
AcDbEntity
  8
LEVEL001
  6
Continuous
 62
     1
100
AcDbLine
 10
1079.713768369
 20
534.5855012021997
 30
0.0
 11
1061.669226849299
 21
528.9923554516999
 31
0.0
  0
LWPOLYLINE
  5
13B5E
330
A
100
AcDbEntity
  8
LEVEL001
  6
Continuous
 62
     1
100
AcDbPolyline
 90
        3
 70
     0
 43
0.0
 10
1030.6692268495
 20
528.9923554516999
 10
1061.669226849299
 20
528.9923554516999
 10
1071.4671858204
 20
534.6492097012001
  0
LINE
  5
13B5F
330
A
100
AcDbEntity
  8
LEVEL001
  6
Continuous
 62
     1
100
AcDbLine
 10
1030.6692268495
 20
564.9923554516999
 30
0.0
 11
1029.6692268495
 21
563.9923554516999
 31
0.0
  0
LINE
  5
13B60
330
A
100
AcDbEntity
  8
LEVEL001
  6
Continuous
 62
     1
100
AcDbLine
 10
1030.6692268495
 20
564.9923554516999
 30
0.0
 11
1030.6692268495
 21
546.9923554516999
 31
0.0
  0
LINE
  5
13B61
330
A
100
AcDbEntity
  8
LEVEL001
  6
Continuous
 62
     1
100
AcDbLine
 10
1030.6692268495
 20
528.9923554516999
 30
0.0
 11
1030.6692268495
 21
546.9923554516999
 31
0.0
  0
LINE
  5
13B62
330
A
100
AcDbEntity
  8
LEVEL001
  6
Continuous
 62
     1
100
AcDbLine
 10
1030.6692268495
 20
528.9923554516999
 30
0.0
 11
1029.6692268495
 21
529.9923554517
 31
0.0
  0
LINE
  5
13B63
330
A
100
AcDbEntity
  8
LEVEL001
  6
Continuous
 62
     1
100
AcDbLine
 10
1029.6692268495
 20
563.9923554516999
 30
0.0
 11
1029.6692268495
 21
529.9923554517
 31
0.0
  0
LINE
  5
13B64
330
A
100
AcDbEntity
  8
LEVEL001
  6
Continuous
 62
     1
100
AcDbLine
 10
1079.713768369
 20
409.3992097012001
 30
0.0
 11
1089.5117273401
 21
403.7423554516999
 31
0.0
  0
LINE
  5
13B65
330
A
100
AcDbEntity
  8
LEVEL001
  6
Continuous
 62
     1
100
AcDbLine
 10
1079.713768369
 20
409.3992097012001
 30
0.0
 11
1061.669226849299
 21
414.9923554516999
 31
0.0
  0
LWPOLYLINE
  5
13B66
330
A
100
AcDbEntity
  8
LEVEL001
  6
Continuous
 62
     1
100
AcDbPolyline
 90
        3
 70
     0
 43
0.0
 10
1030.6692268495
 20
414.9923554516999
 10
1061.669226849299
 20
414.9923554516999
 10
1071.4671858204
 20
409.3355012021998
  0
LWPOLYLINE
  5
13B67
330
A
100
AcDbEntity
  8
LEVEL001
  6
Continuous
 62
     1
100
AcDbPolyline
 90
        3
 70
     0
 43
0.0
 10
1071.4671858204
 20
409.3355012021998
 10
1089.5117273401
 20
403.7423554516999
 10
1089.5117273401
 20
396.9923554516999
  0
ARC
  5
13B68
330
A
100
AcDbEntity
  8
LEVEL001
  6
Continuous
 62
     1
100
AcDbCircle
 10
1086.5526233281
 20
396.9923554516999
 30
0.0
 40
30.71129141404
100
AcDbArc
 50
144.1190038414778
 51
215.8809961585222
  0
ARC
  5
13B69
330
A
100
AcDbEntity
  8
LEVEL001
  6
Continuous
 62
     1
100
AcDbCircle
 10
1088.6699106811
 20
396.9923554516999
 30
0.0
 40
21.172788896334
100
AcDbArc
 50
144.340141193308
 51
215.6598588066708
  0
LINE
  5
13B6A
330
A
100
AcDbEntity
  8
LEVEL001
  6
Continuous
 62
     1
100
AcDbLine
 10
1079.713768369
 20
384.5855012021998
 30
0.0
 11
1089.5117273401
 21
390.2423554517
 31
0.0
  0
LWPOLYLINE
  5
13B6B
330
A
100
AcDbEntity
  8
LEVEL001
  6
Continuous
 62
     1
100
AcDbPolyline
 90
        3
 70
     0
 43
0.0
 10
1071.4671858204
 20
384.6492097012001
 10
1089.5117273401
 20
390.2423554517
 10
1089.5117273401
 20
396.9923554516999
  0
LINE
  5
13B6C
330
A
100
AcDbEntity
  8
LEVEL001
  6
Continuous
 62
     1
100
AcDbLine
 10
1079.713768369
 20
384.5855012021998
 30
0.0
 11
1061.669226849299
 21
378.9923554516999
 31
0.0
  0
LWPOLYLINE
  5
13B6D
330
A
100
AcDbEntity
  8
LEVEL001
  6
Continuous
 62
     1
100
AcDbPolyline
 90
        3
 70
     0
 43
0.0
 10
1030.6692268495
 20
378.9923554516999
 10
1061.669226849299
 20
378.9923554516999
 10
1071.4671858204
 20
384.6492097012001
  0
LINE
  5
13B6E
330
A
100
AcDbEntity
  8
LEVEL001
  6
Continuous
 62
     1
100
AcDbLine
 10
1030.6692268495
 20
414.9923554516999
 30
0.0
 11
1029.6692268495
 21
413.9923554516999
 31
0.0
  0
LINE
  5
13B6F
330
A
100
AcDbEntity
  8
LEVEL001
  6
Continuous
 62
     1
100
AcDbLine
 10
1030.6692268495
 20
414.9923554516999
 30
0.0
 11
1030.6692268495
 21
396.9923554516999
 31
0.0
  0
LINE
  5
13B70
330
A
100
AcDbEntity
  8
LEVEL001
  6
Continuous
 62
     1
100
AcDbLine
 10
1030.6692268495
 20
378.9923554516999
 30
0.0
 11
1030.6692268495
 21
396.9923554516999
 31
0.0
  0
LINE
  5
13B71
330
A
100
AcDbEntity
  8
LEVEL001
  6
Continuous
 62
     1
100
AcDbLine
 10
1030.6692268495
 20
378.9923554516999
 30
0.0
 11
1029.6692268495
 21
379.9923554517
 31
0.0
  0
LINE
  5
13B72
330
A
100
AcDbEntity
  8
LEVEL001
  6
Continuous
 62
     1
100
AcDbLine
 10
1029.6692268495
 20
413.9923554516999
 30
0.0
 11
1029.6692268495
 21
379.9923554517
 31
0.0
  0
LINE
  5
13B73
330
A
100
AcDbEntity
  8
LEVEL001
  6
Continuous
 62
     1
100
AcDbLine
 10
1030.6692268495
 20
831.5369105054001
 30
0.0
 11
1029.6692268495
 21
830.5369105054001
 31
0.0
  0
LINE
  5
13B74
330
A
100
AcDbEntity
  8
LEVEL001
  6
Continuous
 62
     1
100
AcDbLine
 10
1029.6692268495
 20
830.5369105054001
 30
0.0
 11
1029.6692268495
 21
830.0369105054
 31
0.0
  0
LINE
  5
13B75
330
A
100
AcDbEntity
  8
LEVEL001
  6
Continuous
 62
     1
100
AcDbLine
 10
1030.6692268495
 20
831.5369105054001
 30
0.0
 11
1030.6692268495
 21
830.0369105054
 31
0.0
  0
LINE
  5
13B76
330
A
100
AcDbEntity
  8
LEVEL001
  6
Continuous
 62
     1
100
AcDbLine
 10
1030.6692268495
 20
830.0369105054
 30
0.0
 11
1030.6692268495
 21
788.0369105054001
 31
0.0
  0
LINE
  5
13B77
330
A
100
AcDbEntity
  8
LEVEL001
  6
Continuous
 62
     1
100
AcDbLine
 10
1029.6692268495
 20
830.0369105054
 30
0.0
 11
1029.6692268495
 21
789.0369105054
 31
0.0
  0
LINE
  5
13B78
330
A
100
AcDbEntity
  8
LEVEL001
  6
Continuous
 62
     1
100
AcDbLine
 10
1029.6692268495
 20
789.0369105054
 30
0.0
 11
1030.6692268495
 21
788.0369105054001
 31
0.0
  0
LINE
  5
13B79
330
A
100
AcDbEntity
  8
LEVEL001
  6
Continuous
 62
     1
100
AcDbLine
 10
1089.5117273401
 20
861.0369105054001
 30
0.0
 11
1069.5737280261
 21
861.0369105054001
 31
0.0
  0
LWPOLYLINE
  5
13B7A
330
A
100
AcDbEntity
  8
LEVEL001
  6
Continuous
 62
     1
100
AcDbPolyline
 90
        4
 70
     0
 43
0.0
 10
1030.6692268495
 20
788.0369105054001
 10
1061.669226849299
 20
788.0369105054001
 10
1071.4671858204
 20
793.6937647548997
 10
1089.5117273401
 20
861.0369105054001
  0
LINE
  5
13B7B
330
A
100
AcDbEntity
  8
LEVEL001
  6
Continuous
 62
     1
100
AcDbLine
 10
1061.669226849299
 20
788.0369105054001
 30
0.0
 11
1081.2295178968
 21
861.0369105054001
 31
0.0
  0
LINE
  5
13B7C
330
A
100
AcDbEntity
  8
LEVEL001
  6
Continuous
 62
     1
100
AcDbLine
 10
1069.5737280261
 20
861.0369105054001
 30
0.0
 11
1063.0594187176
 21
836.7251771896999
 31
0.0
  0
ARC
  5
13B7D
330
A
100
AcDbEntity
  8
LEVEL001
  6
Continuous
 62
     1
100
AcDbCircle
 10
1056.2979379336
 20
838.5369105054001
 30
0.0
 40
7.0
100
AcDbArc
 50
269.9999999998437
 51
344.9999999999552
  0
LINE
  5
13B7E
330
A
100
AcDbEntity
  8
LEVEL001
  6
Continuous
 62
     1
100
AcDbLine
 10
1056.2979379336
 20
831.5369105054001
 30
0.0
 11
1030.6692268495
 21
831.5369105054001
 31
0.0
  0
LINE
  5
13B7F
330
A
100
AcDbEntity
  8
LEVEL001
  6
Continuous
 62
     1
100
AcDbLine
 10
1030.6692268495
 20
831.5369105054001
 30
0.0
 11
1029.6692268495
 21
830.5369105054001
 31
0.0
  0
LINE
  5
13B80
330
A
100
AcDbEntity
  8
LEVEL001
  6
Continuous
 62
     1
100
AcDbLine
 10
1030.6692268495
 20
831.5369105054001
 30
0.0
 11
1030.6692268495
 21
788.0369105054001
 31
0.0
  0
LINE
  5
13B81
330
A
100
AcDbEntity
  8
LEVEL001
  6
Continuous
 62
     1
100
AcDbLine
 10
1029.6692268495
 20
830.0369105054
 30
0.0
 11
1029.6692268495
 21
789.0369105054
 31
0.0
  0
LINE
  5
13B82
330
A
100
AcDbEntity
  8
LEVEL001
  6
Continuous
 62
     1
100
AcDbLine
 10
1029.6692268495
 20
789.0369105054
 30
0.0
 11
1030.6692268495
 21
788.0369105054001
 31
0.0
  0
LINE
  5
13B83
330
A
100
AcDbEntity
  8
LEVEL001
  6
Continuous
 62
     1
100
AcDbLine
 10
1029.6692268495
 20
810.5369105054
 30
0.0
 11
1029.6692268495
 21
810.0369105054001
 31
0.0
  0
LINE
  5
13B84
330
A
100
AcDbEntity
  8
LEVEL001
  6
Continuous
 62
     1
100
AcDbLine
 10
1030.6692268495
 20
811.5369105054
 30
0.0
 11
1030.6692268495
 21
810.0369105054001
 31
0.0
  0
LINE
  5
13B85
330
A
100
AcDbEntity
  8
LEVEL001
  6
Continuous
 62
     1
100
AcDbLine
 10
1030.6692268495
 20
810.0369105054001
 30
0.0
 11
1030.6692268495
 21
768.0369105054
 31
0.0
  0
LINE
  5
13B86
330
A
100
AcDbEntity
  8
LEVEL001
  6
Continuous
 62
     1
100
AcDbLine
 10
1029.6692268495
 20
810.0369105054001
 30
0.0
 11
1029.6692268495
 21
769.0369105054001
 31
0.0
  0
LINE
  5
13B87
330
A
100
AcDbEntity
  8
LEVEL001
  6
Continuous
 62
     1
100
AcDbLine
 10
1029.6692268495
 20
769.0369105054001
 30
0.0
 11
1030.6692268495
 21
768.0369105054
 31
0.0
  0
LWPOLYLINE
  5
13B88
330
A
100
AcDbEntity
  8
LEVEL001
  6
Continuous
 62
     1
100
AcDbPolyline
 90
        4
 70
     0
 43
0.0
 10
1030.6692268495
 20
768.0369105054
 10
1061.669226849299
 20
768.0369105054
 10
1071.4671858204
 20
773.6937647548998
 10
1089.5117273401
 20
841.0369105054
  0
LINE
  5
13B89
330
A
100
AcDbEntity
  8
LEVEL001
  6
Continuous
 62
     1
100
AcDbLine
 10
1030.6692268495
 20
811.5369105054
 30
0.0
 11
1030.6692268495
 21
768.0369105054
 31
0.0
  0
LINE
  5
13B8A
330
A
100
AcDbEntity
  8
LEVEL001
  6
Continuous
 62
     1
100
AcDbLine
 10
1029.6692268495
 20
810.0369105054001
 30
0.0
 11
1029.6692268495
 21
769.0369105054001
 31
0.0
  0
LINE
  5
13B8B
330
A
100
AcDbEntity
  8
LEVEL001
  6
Continuous
 62
     1
100
AcDbLine
 10
1029.6692268495
 20
769.0369105054001
 30
0.0
 11
1030.6692268495
 21
768.0369105054
 31
0.0
  0
LINE
  5
13B8C
330
A
100
AcDbEntity
  8
LEVEL001
  6
Continuous
 62
     1
100
AcDbLine
 10
1089.5117273401
 20
841.0369105054
 30
0.0
 11
1084.1527434914
 21
841.0369105054
 31
0.0
  0
LINE
  5
13B8D
330
A
100
AcDbEntity
  8
LEVEL001
  6
Continuous
 62
     1
100
AcDbLine
 10
1061.669226849299
 20
768.0369105054
 30
0.0
 11
1068.0089728115
 21
791.6971645433
 31
0.0
  0
LINE
  5
13B8E
330
A
100
AcDbEntity
  8
LEVEL001
  6
HIDDEN
 62
    15
370
    15
100
AcDbLine
 10
304.0607078194598
 20
443.4923554515998
 30
0.0
 11
304.0607078194598
 21
479.4923554515999
 31
0.0
  0
ARC
  5
13B8F
330
A
100
AcDbEntity
  8
LEVEL001
  6
HIDDEN
 62
    15
370
    15
100
AcDbCircle
 10
314.0607078194598
 20
479.4923554515999
 30
0.0
 40
10.0
100
AcDbArc
 50
89.99999999994789
 51
180.0
  0
LINE
  5
13B90
330
A
100
AcDbEntity
  8
LEVEL001
  6
HIDDEN
 62
    15
370
    15
100
AcDbLine
 10
314.0607078194598
 20
489.4923554515998
 30
0.0
 11
324.5607078194598
 21
489.4923554515998
 31
0.0
  0
LWPOLYLINE
  5
13B91
330
A
100
AcDbEntity
  8
LEVEL001
  6
HIDDEN
 62
    15
370
    15
100
AcDbPolyline
 90
        4
 70
     0
 43
0.0
 10
297.5607078194598
 20
450.2423554515998
 10
300.0607078194598
 20
450.2423554515998
 10
300.0607078194598
 20
446.7423554515999
 10
297.5607078194598
 20
446.7423554515999
  0
LWPOLYLINE
  5
13B92
330
A
100
AcDbEntity
  8
LEVEL001
  6
HIDDEN
 62
    15
370
    15
100
AcDbPolyline
 90
        4
 70
     0
 43
0.0
 10
297.5607078194598
 20
390.2423554515999
 10
300.0607078194598
 20
390.2423554515999
 10
300.0607078194598
 20
386.7423554515999
 10
297.5607078194598
 20
386.7423554515999
  0
LINE
  5
13B93
330
A
100
AcDbEntity
  8
LEVEL001
  6
HIDDEN
 62
    15
370
    15
100
AcDbLine
 10
324.5607078194598
 20
347.4923554515999
 30
0.0
 11
314.0607078194598
 21
347.4923554515999
 31
0.0
  0
ARC
  5
13B94
330
A
100
AcDbEntity
  8
LEVEL001
  6
HIDDEN
 62
    15
370
    15
100
AcDbCircle
 10
314.0607078194598
 20
357.4923554514999
 30
0.0
 40
10.0
100
AcDbArc
 50
179.9999999999739
 51
270.0
  0
LINE
  5
13B95
330
A
100
AcDbEntity
  8
LEVEL001
  6
DASHDOT
 62
     6
370
    15
100
AcDbLine
 10
251.8019200009803
 20
373.4923554515999
 30
0.0
 11
320.6499933880605
 21
373.4923554515999
 31
0.0
  0
LINE
  5
13B96
330
A
100
AcDbEntity
  8
LEVEL001
  6
DASHDOT
 62
     6
370
    15
100
AcDbLine
 10
251.8019200009803
 20
463.4923554515999
 30
0.0
 11
320.6499933880605
 21
463.4923554515999
 31
0.0
  0
LINE
  5
13B97
330
A
100
AcDbEntity
  8
LEVEL001
  6
DASHDOT
 62
     6
370
    15
100
AcDbLine
 10
356.0607078194598
 20
502.7436727871999
 30
0.0
 11
356.0607078194598
 21
567.4898712371
 31
0.0
  0
LINE
  5
13B98
330
A
100
AcDbEntity
  8
LEVEL001
  6
DASHDOT
 62
     6
370
    15
100
AcDbLine
 10
376.0607078194598
 20
416.7831547132
 30
0.0
 11
376.0607078194598
 21
345.7959108323998
 31
0.0
  0
LINE
  5
13B99
330
A
100
AcDbEntity
  8
LEVEL001
  6
HIDDEN
 62
    15
370
    15
100
AcDbLine
 10
304.0607078194598
 20
357.4923554515999
 30
0.0
 11
304.0607078194598
 21
443.4923554515998
 31
0.0
  0
LINE
  5
13B9A
330
A
100
AcDbEntity
  8
LEVEL001
  6
Continuous
 62
     7
100
AcDbLine
 10
380.4607078194603
 20
405.4923554515998
 30
0.0
 11
371.6607078194602
 21
405.4923554515998
 31
0.0
  0
ARC
  5
13B9B
330
A
100
AcDbEntity
  8
LEVEL001
  6
Continuous
 62
     7
100
AcDbCircle
 10
329.5754264452999
 20
503.4923554515999
 30
0.0
 40
14.0
100
AcDbArc
 50
269.9999999998958
 51
314.999999999871
  0
LINE
  5
13B9C
330
A
100
AcDbEntity
  8
LEVEL001
  6
Continuous
 62
     7
100
AcDbLine
 10
339.4749213818995
 20
493.5928605149001
 30
0.0
 11
355.9602027560704
 21
510.0781418891001
 31
0.0
  0
LINE
  5
13B9D
330
A
100
AcDbEntity
  8
LEVEL001
  6
Continuous
 62
     7
100
AcDbLine
 10
350.3033485065798
 20
515.7349961386999
 30
0.0
 11
333.8180671323498
 21
499.2497147643998
 31
0.0
  0
ARC
  5
13B9E
330
A
100
AcDbEntity
  8
LEVEL001
  6
Continuous
 62
     7
100
AcDbCircle
 10
329.5754264451998
 20
503.4923554515999
 30
0.0
 40
6.0
100
AcDbArc
 50
270.0000000003127
 51
315.0000000002211
  0
LINE
  5
13B9F
330
A
100
AcDbEntity
  8
LEVEL001
  6
Continuous
 62
     7
100
AcDbLine
 10
324.5607078194598
 20
497.4923554515998
 30
0.0
 11
329.5754264452298
 21
497.4923554515998
 31
0.0
  0
LINE
  5
13BA0
330
A
100
AcDbEntity
  8
LEVEL001
  6
Continuous
 62
     7
100
AcDbLine
 10
324.5607078194598
 20
489.4923554515998
 30
0.0
 11
329.5754264452798
 21
489.4923554515998
 31
0.0
  0
ARC
  5
13BA1
330
A
100
AcDbEntity
  8
LEVEL001
  6
Continuous
 62
     7
100
AcDbCircle
 10
349.5754264452699
 20
353.4923554514999
 30
0.0
 40
14.0
100
AcDbArc
 50
270.0000000000521
 51
315.0000000000921
  0
ARC
  5
13BA2
330
A
100
AcDbEntity
  8
LEVEL001
  6
Continuous
 62
     7
100
AcDbCircle
 10
349.5754264451998
 20
353.4923554515999
 30
0.0
 40
6.0
100
AcDbArc
 50
270.0000000003127
 51
315.0000000002395
  0
LINE
  5
13BA3
330
A
100
AcDbEntity
  8
LEVEL001
  6
Continuous
 62
     7
100
AcDbLine
 10
370.3033485065798
 20
365.7349961386999
 30
0.0
 11
353.8180671323498
 21
349.2497147643998
 31
0.0
  0
LINE
  5
13BA4
330
A
100
AcDbEntity
  8
LEVEL001
  6
Continuous
 62
     7
100
AcDbLine
 10
359.4749213818996
 20
343.5928605149002
 30
0.0
 11
375.9602027560704
 21
360.0781418891001
 31
0.0
  0
ARC
  5
13BA5
330
A
100
AcDbEntity
  8
LEVEL001
  6
Continuous
 62
     7
100
AcDbCircle
 10
366.0607078194598
 20
369.9776368257999
 30
0.0
 40
14.0
100
AcDbArc
 50
314.999999999871
 51
0.0
  0
ARC
  5
13BA6
330
A
100
AcDbEntity
  8
LEVEL001
  6
Continuous
 62
     7
100
AcDbCircle
 10
366.0607078194198
 20
369.9776368256999
 30
0.0
 40
6.0
100
AcDbArc
 50
315.0000000005895
 51
0.0
  0
ARC
  5
13BA7
330
A
100
AcDbEntity
  8
LEVEL001
  6
Continuous
 62
     7
100
AcDbCircle
 10
346.0607078194598
 20
519.9776368257999
 30
0.0
 40
14.0
100
AcDbArc
 50
314.9999999999263
 51
0.0
  0
ARC
  5
13BA8
330
A
100
AcDbEntity
  8
LEVEL001
  6
Continuous
 62
     7
100
AcDbCircle
 10
346.0607078193898
 20
519.9776368256998
 30
0.0
 40
6.0
100
AcDbArc
 50
315.0000000009764
 51
0.0
  0
LINE
  5
13BA9
330
A
100
AcDbEntity
  8
LEVEL001
  6
Continuous
 62
     7
100
AcDbLine
 10
360.36070781946
 20
555.4923554515998
 30
0.0
 11
351.5607078194598
 21
555.4923554515998
 31
0.0
  0
LINE
  5
13BAA
330
A
100
AcDbEntity
  8
LEVEL001
  6
Continuous
 62
     7
100
AcDbLine
 10
349.5754264452398
 20
347.4923554515999
 30
0.0
 11
324.5607078194598
 21
347.4923554515999
 31
0.0
  0
LINE
  5
13BAB
330
A
100
AcDbEntity
  8
LEVEL001
  6
Continuous
 62
     7
100
AcDbLine
 10
351.5607078194598
 20
538.9923554515998
 30
0.0
 11
352.0607078194598
 21
538.9923554515998
 31
0.0
  0
ARC
  5
13BAC
330
A
100
AcDbEntity
  8
LEVEL001
  6
Continuous
 62
     7
100
AcDbCircle
 10
352.0607078194598
 20
537.4923554516999
 30
0.0
 40
1.5
100
AcDbArc
 50
0.0
 51
90.0
  0
LINE
  5
13BAD
330
A
100
AcDbEntity
  8
LEVEL001
  6
Continuous
 62
     7
100
AcDbLine
 10
353.5607078194598
 20
537.4923554515999
 30
0.0
 11
353.5607078194598
 21
532.3048070012
 31
0.0
  0
ARC
  5
13BAE
330
A
100
AcDbEntity
  8
LEVEL001
  6
Continuous
 62
     7
100
AcDbCircle
 10
352.0607078194598
 20
532.4671793860998
 30
0.0
 40
1.5
100
AcDbArc
 50
279.5940682295741
 51
0.00000001628444
  0
ARC
  5
13BAF
330
A
100
AcDbEntity
  8
LEVEL001
  6
Continuous
 62
     7
100
AcDbCircle
 10
352.36070781946
 20
530.6923554520999
 30
0.0
 40
0.3
100
AcDbArc
 50
99.59406824304979
 51
180.0000000971855
  0
LINE
  5
13BB0
330
A
100
AcDbEntity
  8
LEVEL001
  6
Continuous
 62
     7
100
AcDbLine
 10
358.5607078194598
 20
537.4923554515999
 30
0.0
 11
358.5607078194598
 21
532.3048070012
 31
0.0
  0
LINE
  5
13BB1
330
A
100
AcDbEntity
  8
LEVEL001
  6
Continuous
 62
     7
100
AcDbLine
 10
360.5607078194598
 20
538.9923554515998
 30
0.0
 11
360.0607078194598
 21
538.9923554515998
 31
0.0
  0
ARC
  5
13BB2
330
A
100
AcDbEntity
  8
LEVEL001
  6
Continuous
 62
     7
100
AcDbCircle
 10
360.0607078194598
 20
537.4923554514999
 30
0.0
 40
1.5
100
AcDbArc
 50
90.0
 51
179.9999999973945
  0
ARC
  5
13BB3
330
A
100
AcDbEntity
  8
LEVEL001
  6
Continuous
 62
     7
100
AcDbCircle
 10
360.0607078194598
 20
532.4671793860998
 30
0.0
 40
1.5
100
AcDbArc
 50
179.9999999838197
 51
260.4059317704259
  0
ARC
  5
13BB4
330
A
100
AcDbEntity
  8
LEVEL001
  6
Continuous
 62
     7
100
AcDbCircle
 10
359.7607078194597
 20
530.6923554533
 30
0.0
 40
0.3
100
AcDbArc
 50
0.0
 51
80.40593171678436
  0
LINE
  5
13BB5
330
A
100
AcDbEntity
  8
LEVEL001
  6
Continuous
 62
     7
100
AcDbLine
 10
373.5607078194598
 20
387.4923554515999
 30
0.0
 11
373.5607078194598
 21
382.3048070012001
 31
0.0
  0
ARC
  5
13BB6
330
A
100
AcDbEntity
  8
LEVEL001
  6
Continuous
 62
     7
100
AcDbCircle
 10
372.0607078194598
 20
387.4923554513998
 30
0.0
 40
1.5
100
AcDbArc
 50
0.0
 51
90.0
  0
LINE
  5
13BB7
330
A
100
AcDbEntity
  8
LEVEL001
  6
Continuous
 62
     7
100
AcDbLine
 10
371.5607078194598
 20
388.9923554515999
 30
0.0
 11
372.0607078194598
 21
388.9923554515999
 31
0.0
  0
ARC
  5
13BB8
330
A
100
AcDbEntity
  8
LEVEL001
  6
Continuous
 62
     7
100
AcDbCircle
 10
372.0607078194598
 20
382.4671793866
 30
0.0
 40
1.5
100
AcDbArc
 50
279.5940682264044
 51
0.0
  0
ARC
  5
13BB9
330
A
100
AcDbEntity
  8
LEVEL001
  6
Continuous
 62
     7
100
AcDbCircle
 10
372.36070781946
 20
380.6923554499999
 30
0.0
 40
0.3
100
AcDbArc
 50
99.59406817746602
 51
179.9999997036753
  0
ARC
  5
13BBA
330
A
100
AcDbEntity
  8
LEVEL001
  6
Continuous
 62
     7
100
AcDbCircle
 10
380.0607078194598
 20
387.4923554512002
 30
0.0
 40
1.5
100
AcDbArc
 50
90.0
 51
179.9999999855394
  0
LINE
  5
13BBB
330
A
100
AcDbEntity
  8
LEVEL001
  6
Continuous
 62
     7
100
AcDbLine
 10
380.5607078194598
 20
388.9923554515999
 30
0.0
 11
380.0607078194598
 21
388.9923554515999
 31
0.0
  0
LINE
  5
13BBC
330
A
100
AcDbEntity
  8
LEVEL001
  6
Continuous
 62
     7
100
AcDbLine
 10
378.5607078194598
 20
387.4923554515999
 30
0.0
 11
378.5607078194598
 21
382.3048070012001
 31
0.0
  0
ARC
  5
13BBD
330
A
100
AcDbEntity
  8
LEVEL001
  6
Continuous
 62
     7
100
AcDbCircle
 10
380.0607078194598
 20
382.4671793866
 30
0.0
 40
1.5
100
AcDbArc
 50
180.0000000027879
 51
260.4059317735956
  0
ARC
  5
13BBE
330
A
100
AcDbEntity
  8
LEVEL001
  6
Continuous
 62
     7
100
AcDbCircle
 10
379.7607078194596
 20
380.6923554513001
 30
0.0
 40
0.3
100
AcDbArc
 50
0.0000000552368204
 51
80.40593178237248
  0
LWPOLYLINE
  5
13BBF
330
A
100
AcDbEntity
  8
LEVEL001
  6
Continuous
 62
     7
100
AcDbPolyline
 90
        4
 70
     0
 43
0.0
 10
351.5607078194598
 20
538.9923554515998
 10
351.5607078194598
 20
555.4923554515998
 10
360.5607078194598
 20
555.4923554515998
 10
360.5607078194598
 20
538.9923554515998
  0
LINE
  5
13BC0
330
A
100
AcDbEntity
  8
LEVEL001
  6
Continuous
 62
     7
100
AcDbLine
 10
352.0607078194598
 20
530.6923554516002
 30
0.0
 11
352.0607078194598
 21
519.9776368257999
 31
0.0
  0
LWPOLYLINE
  5
13BC1
330
A
100
AcDbEntity
  8
LEVEL001
  6
Continuous
 62
     7
100
AcDbPolyline
 90
        4
 70
     0
 43
0.0
 10
360.5607078194598
 20
538.9923554515998
 10
360.5607078194598
 20
555.4923554515998
 10
351.5607078194598
 20
555.4923554515998
 10
351.5607078194498
 20
538.9923554515998
  0
LINE
  5
13BC2
330
A
100
AcDbEntity
  8
LEVEL001
  6
Continuous
 62
     7
100
AcDbLine
 10
360.0607078194598
 20
519.9776368256998
 30
0.0
 11
360.0607078194598
 21
530.6923554515001
 31
0.0
  0
LINE
  5
13BC3
330
A
100
AcDbEntity
  8
LEVEL001
  6
Continuous
 62
     7
100
AcDbLine
 10
372.0607078194598
 20
380.6923554516002
 30
0.0
 11
372.0607078194598
 21
369.9776368257999
 31
0.0
  0
LINE
  5
13BC4
330
A
100
AcDbEntity
  8
LEVEL001
  6
Continuous
 62
     7
100
AcDbLine
 10
380.0607078194598
 20
369.9776368256999
 30
0.0
 11
380.0607078194598
 21
380.6923554516002
 31
0.0
  0
LWPOLYLINE
  5
13BC5
330
A
100
AcDbEntity
  8
LEVEL001
  6
Continuous
 62
     7
100
AcDbPolyline
 90
        4
 70
     0
 43
0.0
 10
380.5607078194598
 20
388.9923554515999
 10
380.5607078194598
 20
405.4923554515998
 10
371.5607078194598
 20
405.4923554515998
 10
371.5607078194498
 20
388.9923554515999
  0
LINE
  5
13BC6
330
A
100
AcDbEntity
  8
LEVEL001
  6
Continuous
 62
     5
100
AcDbLine
 10
324.5607078194598
 20
497.4923554515998
 30
0.0
 11
324.5607078194598
 21
339.4923554515999
 31
0.0
  0
LINE
  5
13BC7
330
A
100
AcDbEntity
  8
LEVEL001
  6
Continuous
 62
     5
100
AcDbLine
 10
324.5607078194598
 20
497.4923554515998
 30
0.0
 11
296.0607078194598
 21
497.4923554515998
 31
0.0
  0
LINE
  5
13BC8
330
A
100
AcDbEntity
  8
LEVEL001
  6
Continuous
 62
     5
100
AcDbLine
 10
297.5607078194598
 20
339.4923554515999
 30
0.0
 11
297.5607078194598
 21
497.4923554515998
 31
0.0
  0
LINE
  5
13BC9
330
A
100
AcDbEntity
  8
LEVEL001
  6
Continuous
 62
     5
100
AcDbLine
 10
296.0607078194598
 20
386.7423554515999
 30
0.0
 11
296.0607078194598
 21
339.4923554515999
 31
0.0
  0
LINE
  5
13BCA
330
A
100
AcDbEntity
  8
LEVEL001
  6
Continuous
 62
     5
100
AcDbLine
 10
296.0607078194598
 20
446.7423554515999
 30
0.0
 11
296.0607078194598
 21
390.2423554515999
 31
0.0
  0
LINE
  5
13BCB
330
A
100
AcDbEntity
  8
LEVEL001
  6
Continuous
 62
     5
100
AcDbLine
 10
296.0607078194598
 20
386.7423554515999
 30
0.0
 11
297.5607078194598
 21
386.7423554515999
 31
0.0
  0
LINE
  5
13BCC
330
A
100
AcDbEntity
  8
LEVEL001
  6
Continuous
 62
     5
100
AcDbLine
 10
296.0607078194598
 20
390.2423554515999
 30
0.0
 11
297.5607078194598
 21
390.2423554515999
 31
0.0
  0
LINE
  5
13BCD
330
A
100
AcDbEntity
  8
LEVEL001
  6
Continuous
 62
     5
100
AcDbLine
 10
296.0607078194598
 20
450.2423554515998
 30
0.0
 11
297.5607078194598
 21
450.2423554515998
 31
0.0
  0
LINE
  5
13BCE
330
A
100
AcDbEntity
  8
LEVEL001
  6
Continuous
 62
     5
100
AcDbLine
 10
296.0607078194598
 20
446.7423554515999
 30
0.0
 11
297.5607078194598
 21
446.7423554515999
 31
0.0
  0
LINE
  5
13BCF
330
A
100
AcDbEntity
  8
LEVEL001
  6
Continuous
 62
     5
100
AcDbLine
 10
296.0607078194598
 20
339.4923554515999
 30
0.0
 11
324.5607078194598
 21
339.4923554515999
 31
0.0
  0
LINE
  5
13BD0
330
A
100
AcDbEntity
  8
LEVEL001
  6
Continuous
 62
     7
100
AcDbLine
 10
324.5607078194598
 20
339.4923554515999
 30
0.0
 11
349.5754264452799
 21
339.4923554515999
 31
0.0
  0
LINE
  5
13BD1
330
A
100
AcDbEntity
  8
LEVEL001
  6
HIDDEN
 62
     2
370
    15
100
AcDbLine
 10
295.36070781946
 20
467.8923554516
 30
0.0
 11
304.1607078194602
 21
467.8923554516
 31
0.0
  0
LINE
  5
13BD2
330
A
100
AcDbEntity
  8
LEVEL001
  6
HIDDEN
 62
     2
370
    15
100
AcDbLine
 10
295.36070781946
 20
466.8923554515999
 30
0.0
 11
304.1607078194602
 21
466.8923554515999
 31
0.0
  0
LINE
  5
13BD3
330
A
100
AcDbEntity
  8
LEVEL001
  6
HIDDEN
 62
     2
370
    15
100
AcDbLine
 10
295.36070781946
 20
460.8923554516
 30
0.0
 11
304.1607078194602
 21
460.8923554516
 31
0.0
  0
LINE
  5
13BD4
330
A
100
AcDbEntity
  8
LEVEL001
  6
HIDDEN
 62
     2
370
    15
100
AcDbLine
 10
295.36070781946
 20
459.8923554516
 30
0.0
 11
304.1607078194602
 21
459.8923554516
 31
0.0
  0
LINE
  5
13BD5
330
A
100
AcDbEntity
  8
LEVEL001
  6
HIDDEN
 62
     2
370
    15
100
AcDbLine
 10
310.78335755022
 20
471.3923554515999
 30
0.0
 11
305.36070781946
 21
471.3923554515999
 31
0.0
  0
LINE
  5
13BD6
330
A
100
AcDbEntity
  8
LEVEL001
  6
HIDDEN
 62
     2
370
    15
100
AcDbLine
 10
305.36070781946
 20
471.3923554515999
 30
0.0
 11
305.36070781946
 21
456.3923554516
 31
0.0
  0
ARC
  5
13BD7
330
A
100
AcDbEntity
  8
LEVEL001
  6
HIDDEN
 62
     2
370
    15
100
AcDbCircle
 10
298.9115792868297
 20
463.8923554516
 30
0.0
 40
12.449128532617
100
AcDbArc
 50
342.4821530353201
 51
17.51784696439091
  0
ARC
  5
13BD8
330
A
100
AcDbEntity
  8
LEVEL001
  6
HIDDEN
 62
     2
370
    15
100
AcDbCircle
 10
308.0229015758105
 20
469.5159670766997
 30
0.0
 40
3.337806243639
100
AcDbArc
 50
325.7945420596337
 51
34.20545794008451
  0
LINE
  5
13BD9
330
A
100
AcDbEntity
  8
LEVEL001
  6
HIDDEN
 62
     2
370
    15
100
AcDbLine
 10
311.36070781946
 20
469.5159670766002
 30
0.0
 11
311.36070781946
 21
458.2687438264001
 31
0.0
  0
LINE
  5
13BDA
330
A
100
AcDbEntity
  8
LEVEL001
  6
HIDDEN
 62
     2
370
    15
100
AcDbLine
 10
310.78335755022
 20
467.6395787016999
 30
0.0
 11
305.36070781946
 21
467.6395787016999
 31
0.0
  0
LINE
  5
13BDB
330
A
100
AcDbEntity
  8
LEVEL001
  6
HIDDEN
 62
     2
370
    15
100
AcDbLine
 10
305.36070781946
 20
472.8923554516
 30
0.0
 11
305.36070781946
 21
471.3923554515999
 31
0.0
  0
LINE
  5
13BDC
330
A
100
AcDbEntity
  8
LEVEL001
  6
HIDDEN
 62
     2
370
    15
100
AcDbLine
 10
305.36070781946
 20
456.3923554516
 30
0.0
 11
310.78335755026
 21
456.3923554516
 31
0.0
  0
ARC
  5
13BDD
330
A
100
AcDbEntity
  8
LEVEL001
  6
HIDDEN
 62
     2
370
    15
100
AcDbCircle
 10
308.0229015758105
 20
458.2687438264001
 30
0.0
 40
3.3378062436684
100
AcDbArc
 50
325.7945420612306
 51
34.20545794055421
  0
LINE
  5
13BDE
330
A
100
AcDbEntity
  8
LEVEL001
  6
HIDDEN
 62
     2
370
    15
100
AcDbLine
 10
310.78335755022
 20
460.1451322012999
 30
0.0
 11
305.36070781946
 21
460.1451322012999
 31
0.0
  0
LINE
  5
13BDF
330
A
100
AcDbEntity
  8
LEVEL001
  6
HIDDEN
 62
     2
370
    15
100
AcDbLine
 10
305.36070781946
 20
456.3923554516
 30
0.0
 11
305.36070781946
 21
454.8923554516
 31
0.0
  0
LINE
  5
13BE0
330
A
100
AcDbEntity
  8
LEVEL001
  6
HIDDEN
 62
     2
370
    15
100
AcDbLine
 10
305.36070781946
 20
454.8923554516
 30
0.0
 11
304.1607078194602
 21
454.8923554516
 31
0.0
  0
LINE
  5
13BE1
330
A
100
AcDbEntity
  8
LEVEL001
  6
HIDDEN
 62
     2
370
    15
100
AcDbLine
 10
295.36070781946
 20
377.8923554516
 30
0.0
 11
304.1607078194602
 21
377.8923554516
 31
0.0
  0
LINE
  5
13BE2
330
A
100
AcDbEntity
  8
LEVEL001
  6
HIDDEN
 62
     2
370
    15
100
AcDbLine
 10
295.36070781946
 20
376.8923554516
 30
0.0
 11
304.1607078194602
 21
376.8923554516
 31
0.0
  0
LINE
  5
13BE3
330
A
100
AcDbEntity
  8
LEVEL001
  6
HIDDEN
 62
     2
370
    15
100
AcDbLine
 10
295.36070781946
 20
370.8923554516
 30
0.0
 11
304.1607078194602
 21
370.8923554516
 31
0.0
  0
LINE
  5
13BE4
330
A
100
AcDbEntity
  8
LEVEL001
  6
HIDDEN
 62
     2
370
    15
100
AcDbLine
 10
295.36070781946
 20
369.8923554516
 30
0.0
 11
304.1607078194602
 21
369.8923554516
 31
0.0
  0
LINE
  5
13BE5
330
A
100
AcDbEntity
  8
LEVEL001
  6
HIDDEN
 62
     2
370
    15
100
AcDbLine
 10
310.78335755022
 20
381.3923554516
 30
0.0
 11
305.36070781946
 21
381.3923554516
 31
0.0
  0
LINE
  5
13BE6
330
A
100
AcDbEntity
  8
LEVEL001
  6
HIDDEN
 62
     2
370
    15
100
AcDbLine
 10
305.36070781946
 20
381.3923554516
 30
0.0
 11
305.36070781946
 21
366.3923554516
 31
0.0
  0
ARC
  5
13BE7
330
A
100
AcDbEntity
  8
LEVEL001
  6
HIDDEN
 62
     2
370
    15
100
AcDbCircle
 10
298.9115792868497
 20
373.8923554514999
 30
0.0
 40
12.449128532617
100
AcDbArc
 50
342.4821530354849
 51
17.51784696458052
  0
ARC
  5
13BE8
330
A
100
AcDbEntity
  8
LEVEL001
  6
HIDDEN
 62
     2
370
    15
100
AcDbCircle
 10
308.0229015758696
 20
379.5159670766002
 30
0.0
 40
3.337806243639
100
AcDbArc
 50
325.7945420602189
 51
34.20545794175387
  0
LINE
  5
13BE9
330
A
100
AcDbEntity
  8
LEVEL001
  6
HIDDEN
 62
     2
370
    15
100
AcDbLine
 10
311.36070781946
 20
379.5159670766002
 30
0.0
 11
311.36070781946
 21
368.2687438264002
 31
0.0
  0
LINE
  5
13BEA
330
A
100
AcDbEntity
  8
LEVEL001
  6
HIDDEN
 62
     2
370
    15
100
AcDbLine
 10
310.78335755022
 20
377.6395787017
 30
0.0
 11
305.36070781946
 21
377.6395787017
 31
0.0
  0
LINE
  5
13BEB
330
A
100
AcDbEntity
  8
LEVEL001
  6
HIDDEN
 62
     2
370
    15
100
AcDbLine
 10
305.36070781946
 20
382.8923554516
 30
0.0
 11
305.36070781946
 21
381.3923554516
 31
0.0
  0
LINE
  5
13BEC
330
A
100
AcDbEntity
  8
LEVEL001
  6
HIDDEN
 62
     2
370
    15
100
AcDbLine
 10
305.36070781946
 20
366.3923554516
 30
0.0
 11
310.78335755026
 21
366.3923554516
 31
0.0
  0
ARC
  5
13BED
330
A
100
AcDbEntity
  8
LEVEL001
  6
HIDDEN
 62
     2
370
    15
100
AcDbCircle
 10
308.0229015758696
 20
368.2687438263001
 30
0.0
 40
3.3378062436684
100
AcDbArc
 50
325.7945420619606
 51
34.20545794246228
  0
LINE
  5
13BEE
330
A
100
AcDbEntity
  8
LEVEL001
  6
HIDDEN
 62
     2
370
    15
100
AcDbLine
 10
310.78335755022
 20
370.1451322012999
 30
0.0
 11
305.36070781946
 21
370.1451322012999
 31
0.0
  0
LINE
  5
13BEF
330
A
100
AcDbEntity
  8
LEVEL001
  6
HIDDEN
 62
     2
370
    15
100
AcDbLine
 10
305.36070781946
 20
366.3923554516
 30
0.0
 11
305.36070781946
 21
364.8923554516
 31
0.0
  0
LINE
  5
13BF0
330
A
100
AcDbEntity
  8
LEVEL001
  6
HIDDEN
 62
     2
370
    15
100
AcDbLine
 10
305.36070781946
 20
364.8923554516
 30
0.0
 11
304.1607078194602
 21
364.8923554516
 31
0.0
  0
LINE
  5
13BF1
330
A
100
AcDbEntity
  8
LEVEL001
  6
Continuous
 62
     3
370
    30
100
AcDbLine
 10
296.0607078194598
 20
668.7803226184001
 30
0.0
 11
296.0607078194598
 21
251.7804031906999
 31
0.0
  0
LINE
  5
13BF2
330
A
100
AcDbEntity
  8
LEVEL001
  6
Continuous
 62
     1
100
AcDbLine
 10
375.7607078193896
 20
407.9923554515999
 30
0.0
 11
376.0607078193898
 21
407.6923554516001
 31
0.0
  0
LINE
  5
13BF3
330
A
100
AcDbEntity
  8
LEVEL001
  6
Continuous
 62
     1
100
AcDbLine
 10
366.0607078194598
 20
397.6923554515001
 30
0.0
 11
366.36070781946
 21
397.9923554514999
 31
0.0
  0
LINE
  5
13BF4
330
A
100
AcDbEntity
  8
LEVEL001
  6
Continuous
 62
     1
100
AcDbLine
 10
366.0607078194598
 20
398.2923554516001
 30
0.0
 11
366.36070781946
 21
397.9923554515999
 31
0.0
  0
LWPOLYLINE
  5
13BF5
330
A
100
AcDbEntity
  8
LEVEL001
  6
Continuous
 62
     1
100
AcDbPolyline
 90
        3
 70
     0
 43
0.0
 10
366.0607078194598
 20
397.6923554515001
 10
366.0607078194598
 20
392.9923554515999
 10
361.22593740097
 20
392.9923554515999
  0
LWPOLYLINE
  5
13BF6
330
A
100
AcDbEntity
  8
LEVEL001
  6
Continuous
 62
     1
100
AcDbPolyline
 90
        3
 70
     0
 43
0.0
 10
361.22593740097
 20
402.9923554515999
 10
366.0607078194598
 20
402.9923554515999
 10
366.0607078194598
 20
398.2923554516001
  0
LINE
  5
13BF7
330
A
100
AcDbEntity
  8
LEVEL001
  6
Continuous
 62
     1
100
AcDbLine
 10
366.0607078194598
 20
397.9923554515999
 30
0.0
 11
366.0607078194598
 21
397.9923267874001
 31
0.0
  0
ARC
  5
13BF8
330
A
100
AcDbEntity
  8
LEVEL001
  6
Continuous
 62
     1
100
AcDbCircle
 10
370.96070781853
 20
391.4923554515999
 30
0.0
 40
0.5
100
AcDbArc
 50
270.0000001072428
 51
0.0
  0
LWPOLYLINE
  5
13BF9
330
A
100
AcDbEntity
  8
LEVEL001
  6
Continuous
 62
     1
100
AcDbPolyline
 90
        5
 70
     0
 43
0.0
 10
370.9607078194604
 20
400.9923554515999
 10
368.5607078194598
 20
400.9923554515999
 10
368.5607078194598
 20
392.4923554515999
 10
371.4607078194604
 20
392.4923554515999
 10
371.4607078194604
 20
391.4923554515999
  0
ARC
  5
13BFA
330
A
100
AcDbEntity
  8
LEVEL001
  6
Continuous
 62
     1
100
AcDbCircle
 10
370.96070781853
 20
401.4923554515998
 30
0.0
 40
0.5
100
AcDbArc
 50
270.0000001072428
 51
0.0
  0
LINE
  5
13BFB
330
A
100
AcDbEntity
  8
LEVEL001
  6
Continuous
 62
     1
100
AcDbLine
 10
376.0607078194598
 20
405.4923554515998
 30
0.0
 11
369.0607078194598
 21
405.4923554515998
 31
0.0
  0
LWPOLYLINE
  5
13BFC
330
A
100
AcDbEntity
  8
LEVEL001
  6
Continuous
 62
     1
100
AcDbPolyline
 90
        4
 70
     0
 43
0.0
 10
368.5607078194598
 20
404.9923554515999
 10
368.5607078194598
 20
402.9923554515999
 10
371.4607078194604
 20
402.9923554515999
 10
371.4607078194604
 20
401.4923554515998
  0
ARC
  5
13BFD
330
A
100
AcDbEntity
  8
LEVEL001
  6
Continuous
 62
     1
100
AcDbCircle
 10
369.0607078194598
 20
404.9923554512002
 30
0.0
 40
0.5
100
AcDbArc
 50
90.0
 51
179.9999999568527
  0
ELLIPSE
  5
13BFE
330
A
100
AcDbEntity
  8
LEVEL001
  6
Continuous
 62
     1
100
AcDbEllipse
 10
376.0607078194598
 20
397.9923554515999
 30
0.0
 11
-16.25
 21
0.0
 31
0.0
210
0.0
220
0.0
230
1.0
 40
0.75384615384615
 41
-1.190627849474999
 42
-0.42044119682986
  0
LWPOLYLINE
  5
13BFF
330
A
100
AcDbEntity
  8
LEVEL001
  6
Continuous
 62
     1
100
AcDbPolyline
 90
        3
 70
     0
 43
0.0
 10
370.0307078194601
 20
409.3677315527997
 10
370.0307078194601
 20
407.9923554515999
 10
375.7607078193896
 20
407.9923554515999
  0
ARC
  5
13C00
330
A
100
AcDbEntity
  8
LEVEL001
  6
Continuous
 62
     1
100
AcDbCircle
 10
368.0607078194598
 20
387.9407931310998
 30
0.0
 40
0.5
100
AcDbArc
 50
246.0275321442511
 51
0.0000000415839459
  0
LWPOLYLINE
  5
13C01
330
A
100
AcDbEntity
  8
LEVEL001
  6
Continuous
 62
     1
100
AcDbPolyline
 90
        3
 70
     0
 43
0.0
 10
370.9607078194604
 20
390.9923554515999
 10
368.5607078194598
 20
390.9923554515999
 10
368.5607078194598
 20
387.9407931315
  0
ARC
  5
13C02
330
A
100
AcDbEntity
  8
LEVEL001
  6
Continuous
 62
     1
100
AcDbCircle
 10
376.0607078194898
 20
405.9323494844002
 30
0.0
 40
20.19
100
AcDbArc
 50
235.2722002431086
 51
246.027532161071
  0
ELLIPSE
  5
13C03
330
A
100
AcDbEntity
  8
LEVEL001
  6
Continuous
 62
     1
100
AcDbEllipse
 10
376.0607078194598
 20
397.9923554515999
 30
0.0
 11
-16.25
 21
0.0
 31
0.0
210
0.0
220
0.0
230
1.0
 40
0.75384615384615
 41
0.42044119682986
 42
0.7844124393704201
  0
LINE
  5
13C04
330
A
100
AcDbEntity
  8
LEVEL001
  6
Continuous
 62
     1
100
AcDbLine
 10
386.0607078194598
 20
397.6923554515001
 30
0.0
 11
385.7607078194596
 21
397.9923554514999
 31
0.0
  0
LINE
  5
13C05
330
A
100
AcDbEntity
  8
LEVEL001
  6
Continuous
 62
     1
100
AcDbLine
 10
386.0607078194598
 20
398.2923554516001
 30
0.0
 11
385.7607078194596
 21
397.9923554515999
 31
0.0
  0
LWPOLYLINE
  5
13C06
330
A
100
AcDbEntity
  8
LEVEL001
  6
Continuous
 62
     1
100
AcDbPolyline
 90
        3
 70
     0
 43
0.0
 10
386.0607078194598
 20
397.6923554515001
 10
386.0607078194598
 20
392.9923554515999
 10
390.8954782379597
 20
392.9923554515999
  0
LWPOLYLINE
  5
13C07
330
A
100
AcDbEntity
  8
LEVEL001
  6
Continuous
 62
     1
100
AcDbPolyline
 90
        3
 70
     0
 43
0.0
 10
390.8954782379597
 20
402.9923554515999
 10
386.0607078194598
 20
402.9923554515999
 10
386.0607078194598
 20
398.2923554516001
  0
LINE
  5
13C08
330
A
100
AcDbEntity
  8
LEVEL001
  6
Continuous
 62
     1
100
AcDbLine
 10
386.0607078194598
 20
397.9923554515999
 30
0.0
 11
386.0607078194598
 21
397.9923267874001
 31
0.0
  0
ARC
  5
13C09
330
A
100
AcDbEntity
  8
LEVEL001
  6
Continuous
 62
     1
100
AcDbCircle
 10
381.1607078198404
 20
391.4923554515999
 30
0.0
 40
0.5
100
AcDbArc
 50
180.0
 51
269.9999999568527
  0
LWPOLYLINE
  5
13C0A
330
A
100
AcDbEntity
  8
LEVEL001
  6
Continuous
 62
     1
100
AcDbPolyline
 90
        5
 70
     0
 43
0.0
 10
381.1607078194602
 20
400.9923554515999
 10
383.5607078194598
 20
400.9923554515999
 10
383.5607078194598
 20
392.4923554515999
 10
380.6607078194602
 20
392.4923554515999
 10
380.6607078194602
 20
391.4923554515999
  0
ARC
  5
13C0B
330
A
100
AcDbEntity
  8
LEVEL001
  6
Continuous
 62
     1
100
AcDbCircle
 10
381.1607078198404
 20
401.4923554515998
 30
0.0
 40
0.5
100
AcDbArc
 50
180.0
 51
269.9999999568527
  0
LINE
  5
13C0C
330
A
100
AcDbEntity
  8
LEVEL001
  6
Continuous
 62
     1
100
AcDbLine
 10
376.0607078194598
 20
405.4923554515998
 30
0.0
 11
383.0607078194598
 21
405.4923554515998
 31
0.0
  0
LWPOLYLINE
  5
13C0D
330
A
100
AcDbEntity
  8
LEVEL001
  6
Continuous
 62
     1
100
AcDbPolyline
 90
        4
 70
     0
 43
0.0
 10
383.5607078194598
 20
404.9923554515999
 10
383.5607078194598
 20
402.9923554515999
 10
380.6607078194602
 20
402.9923554515999
 10
380.6607078194602
 20
401.4923554515998
  0
ARC
  5
13C0E
330
A
100
AcDbEntity
  8
LEVEL001
  6
Continuous
 62
     1
100
AcDbCircle
 10
383.0607078194598
 20
404.9923554508
 30
0.0
 40
0.5
100
AcDbArc
 50
0.0000000858776226
 51
90.0
  0
ELLIPSE
  5
13C0F
330
A
100
AcDbEntity
  8
LEVEL001
  6
Continuous
 62
     1
100
AcDbEllipse
 10
376.0607078194598
 20
397.9923554515999
 30
0.0
 11
16.25
 21
0.0
 31
0.0
210
0.0
220
0.0
230
1.0
 40
0.75384615384615
 41
0.42044119682986
 42
1.190627849474999
  0
LWPOLYLINE
  5
13C10
330
A
100
AcDbEntity
  8
LEVEL001
  6
Continuous
 62
     1
100
AcDbPolyline
 90
        3
 70
     0
 43
0.0
 10
382.0907078194596
 20
409.3677315527997
 10
382.0907078194596
 20
407.9923554515999
 10
376.36070781954
 20
407.9923554515999
  0
ARC
  5
13C11
330
A
100
AcDbEntity
  8
LEVEL001
  6
Continuous
 62
     1
100
AcDbCircle
 10
384.0607078194598
 20
387.9407931316
 30
0.0
 40
0.5
100
AcDbArc
 50
180.0000000181343
 51
293.972467831511
  0
LWPOLYLINE
  5
13C12
330
A
100
AcDbEntity
  8
LEVEL001
  6
Continuous
 62
     1
100
AcDbPolyline
 90
        3
 70
     0
 43
0.0
 10
381.1607078194602
 20
390.9923554515999
 10
383.5607078194598
 20
390.9923554515999
 10
383.5607078194598
 20
387.9407931315
  0
ARC
  5
13C13
330
A
100
AcDbEntity
  8
LEVEL001
  6
Continuous
 62
     1
100
AcDbCircle
 10
376.0607078193498
 20
405.9323494843002
 30
0.0
 40
20.19
100
AcDbArc
 50
293.9724678392094
 51
304.7277997571518
  0
ELLIPSE
  5
13C14
330
A
100
AcDbEntity
  8
LEVEL001
  6
Continuous
 62
     1
100
AcDbEllipse
 10
376.0607078194598
 20
397.9923554515999
 30
0.0
 11
16.25
 21
0.0
 31
0.0
210
0.0
220
0.0
230
1.0
 40
0.75384615384615
 41
-0.7844124393704201
 42
-0.42044119682986
  0
LINE
  5
13C15
330
A
100
AcDbEntity
  8
LEVEL001
  6
Continuous
 62
     1
100
AcDbLine
 10
376.3596654462199
 20
407.9907581974998
 30
0.0
 11
376.05806969066
 21
407.6923624866999
 31
0.0
  0
LINE
  5
13C16
330
A
100
AcDbEntity
  8
LEVEL001
  6
Continuous
 62
     1
100
AcDbLine
 10
380.6607078194602
 20
391.4923554518
 30
0.0
 11
380.6607078194602
 21
392.4923554518
 31
0.0
  0
ARC
  5
13C17
330
A
100
AcDbEntity
  8
LEVEL001
  6
Continuous
 62
     1
100
AcDbCircle
 10
376.0607078195399
 20
390.0523554518
 30
0.0
 40
20.19
100
AcDbArc
 50
53.03061491129672
 51
89.99999999994789
  0
ARC
  5
13C18
330
A
100
AcDbEntity
  8
LEVEL001
  6
Continuous
 62
     1
100
AcDbCircle
 10
376.0607078195599
 20
390.0523554518
 30
0.0
 40
24.19
100
AcDbArc
 50
53.04966225409589
 51
90.00000000005213
  0
ARC
  5
13C19
330
A
100
AcDbEntity
  8
LEVEL001
  6
Continuous
 62
     1
100
AcDbCircle
 10
382.0907078195596
 20
397.9923554518
 30
0.0
 40
10.22
100
AcDbArc
 50
0.0
 51
53.26993579140959
  0
ARC
  5
13C1A
330
A
100
AcDbEntity
  8
LEVEL001
  6
Continuous
 62
     1
100
AcDbCircle
 10
382.0907078195196
 20
397.9923554518
 30
0.0
 40
14.22
100
AcDbArc
 50
0.0
 51
53.23501812209147
  0
ARC
  5
13C1B
330
A
100
AcDbEntity
  8
LEVEL001
  6
Continuous
 62
     1
100
AcDbCircle
 10
382.0907078195496
 20
397.9923554518
 30
0.0
 40
10.22
100
AcDbArc
 50
306.7300642086633
 51
0.0
  0
ARC
  5
13C1C
330
A
100
AcDbEntity
  8
LEVEL001
  6
Continuous
 62
     1
100
AcDbCircle
 10
382.0907078195496
 20
397.9923554518
 30
0.0
 40
14.22
100
AcDbArc
 50
306.764981877648
 51
0.0
  0
ARC
  5
13C1D
330
A
100
AcDbEntity
  8
LEVEL001
  6
Continuous
 62
     1
100
AcDbCircle
 10
376.0607078195298
 20
405.9323554518
 30
0.0
 40
24.19
100
AcDbArc
 50
291.4530417611647
 51
306.9503377459041
  0
ARC
  5
13C1E
330
A
100
AcDbEntity
  8
LEVEL001
  6
Continuous
 62
     1
100
AcDbCircle
 10
376.0607078194898
 20
405.9323554518
 30
0.0
 40
20.19
100
AcDbArc
 50
293.9724678390347
 51
306.9693850888335
  0
ARC
  5
13C1F
330
A
100
AcDbEntity
  8
LEVEL001
  6
Continuous
 62
     1
100
AcDbCircle
 10
383.8107078195299
 20
386.2104488502
 30
0.0
 40
3.0
100
AcDbArc
 50
178.1087051784288
 51
291.4530417615034
  0
LWPOLYLINE
  5
13C20
330
A
100
AcDbEntity
  8
LEVEL001
  6
Continuous
 62
     1
100
AcDbPolyline
 90
        3
 70
     0
 43
0.0
 10
383.5607078195499
 20
389.9923554518
 10
380.8107078195499
 20
389.9923554518
 10
380.8107078195499
 20
386.2104488502
  0
ARC
  5
13C21
330
A
100
AcDbEntity
  8
LEVEL001
  6
Continuous
 62
     1
100
AcDbCircle
 10
376.0607078195099
 20
390.0523554518
 30
0.0
 40
20.19
100
AcDbArc
 50
89.99999999989578
 51
126.9693850886303
  0
ARC
  5
13C22
330
A
100
AcDbEntity
  8
LEVEL001
  6
Continuous
 62
     1
100
AcDbCircle
 10
376.0607078195599
 20
390.0523554518
 30
0.0
 40
24.19
100
AcDbArc
 50
90.0
 51
126.95033774605
  0
ARC
  5
13C23
330
A
100
AcDbEntity
  8
LEVEL001
  6
Continuous
 62
     1
100
AcDbCircle
 10
369.8607078195501
 20
409.0565681427001
 30
0.0
 40
0.2
100
AcDbArc
 50
0.0
 51
108.0685764293472
  0
ARC
  5
13C24
330
A
100
AcDbEntity
  8
LEVEL001
  6
Continuous
 62
     1
100
AcDbCircle
 10
370.0307078195901
 20
397.9923554518
 30
0.0
 40
10.22
100
AcDbArc
 50
126.7300642089812
 51
180.0000000001824
  0
ARC
  5
13C25
330
A
100
AcDbEntity
  8
LEVEL001
  6
Continuous
 62
     1
100
AcDbCircle
 10
370.0307078195501
 20
397.9923554518
 30
0.0
 40
14.22
100
AcDbArc
 50
126.7649818779085
 51
179.9999999999479
  0
ARC
  5
13C26
330
A
100
AcDbEntity
  8
LEVEL001
  6
Continuous
 62
     1
100
AcDbCircle
 10
370.0307078195501
 20
397.9923554518
 30
0.0
 40
10.22
100
AcDbArc
 50
180.0
 51
233.2699357913366
  0
ARC
  5
13C27
330
A
100
AcDbEntity
  8
LEVEL001
  6
Continuous
 62
     1
100
AcDbCircle
 10
370.0307078195701
 20
397.9923554518
 30
0.0
 40
14.22
100
AcDbArc
 50
179.9999999999218
 51
233.2350181220758
  0
ARC
  5
13C28
330
A
100
AcDbEntity
  8
LEVEL001
  6
Continuous
 62
     1
100
AcDbCircle
 10
368.3107078195499
 20
386.2104488502
 30
0.0
 40
3.0
100
AcDbArc
 50
248.5469582387772
 51
1.891294821441035
  0
LWPOLYLINE
  5
13C29
330
A
100
AcDbEntity
  8
LEVEL001
  6
Continuous
 62
     1
100
AcDbPolyline
 90
        3
 70
     0
 43
0.0
 10
368.5607078195499
 20
389.9923554518
 10
371.3107078195499
 20
389.9923554518
 10
371.3107078195499
 20
386.2104488502
  0
ARC
  5
13C2A
330
A
100
AcDbEntity
  8
LEVEL001
  6
Continuous
 62
     1
100
AcDbCircle
 10
376.0607078195599
 20
405.9323554518
 30
0.0
 40
20.19
100
AcDbArc
 50
233.0306149112395
 51
246.027532161071
  0
LINE
  5
13C2B
330
A
100
AcDbEntity
  8
LEVEL001
  6
Continuous
 62
     1
100
AcDbLine
 10
371.4607078194604
 20
392.4923554518
 30
0.0
 11
371.4607078194604
 21
391.4923554518
 31
0.0
  0
ARC
  5
13C2C
330
A
100
AcDbEntity
  8
LEVEL001
  6
Continuous
 62
     1
100
AcDbCircle
 10
376.0607078195199
 20
405.9323554518
 30
0.0
 40
24.19
100
AcDbArc
 50
233.0496622540959
 51
248.5469582389514
  0
LINE
  5
13C2D
330
A
100
AcDbEntity
  8
LEVEL001
  6
Continuous
 62
     1
100
AcDbLine
 10
355.7607078193896
 20
557.9923554515999
 30
0.0
 11
356.0607078193898
 21
557.6923554516001
 31
0.0
  0
LINE
  5
13C2E
330
A
100
AcDbEntity
  8
LEVEL001
  6
Continuous
 62
     1
100
AcDbLine
 10
346.0607078194598
 20
547.6923554515001
 30
0.0
 11
346.36070781946
 21
547.9923554514998
 31
0.0
  0
LINE
  5
13C2F
330
A
100
AcDbEntity
  8
LEVEL001
  6
Continuous
 62
     1
100
AcDbLine
 10
346.0607078194598
 20
548.2923554516
 30
0.0
 11
346.36070781946
 21
547.9923554515998
 31
0.0
  0
LWPOLYLINE
  5
13C30
330
A
100
AcDbEntity
  8
LEVEL001
  6
Continuous
 62
     1
100
AcDbPolyline
 90
        3
 70
     0
 43
0.0
 10
346.0607078194598
 20
547.6923554515001
 10
346.0607078194598
 20
542.9923554515998
 10
341.22593740097
 20
542.9923554515998
  0
LWPOLYLINE
  5
13C31
330
A
100
AcDbEntity
  8
LEVEL001
  6
Continuous
 62
     1
100
AcDbPolyline
 90
        3
 70
     0
 43
0.0
 10
341.22593740097
 20
552.9923554515999
 10
346.0607078194598
 20
552.9923554515999
 10
346.0607078194598
 20
548.2923554516
  0
LINE
  5
13C32
330
A
100
AcDbEntity
  8
LEVEL001
  6
Continuous
 62
     1
100
AcDbLine
 10
346.0607078194598
 20
547.9923554515998
 30
0.0
 11
346.0607078194598
 21
547.9923267874
 31
0.0
  0
ARC
  5
13C33
330
A
100
AcDbEntity
  8
LEVEL001
  6
Continuous
 62
     1
100
AcDbCircle
 10
350.9607078185299
 20
541.4923554515999
 30
0.0
 40
0.5
100
AcDbArc
 50
270.000000107347
 51
0.0
  0
LWPOLYLINE
  5
13C34
330
A
100
AcDbEntity
  8
LEVEL001
  6
Continuous
 62
     1
100
AcDbPolyline
 90
        5
 70
     0
 43
0.0
 10
350.9607078194604
 20
550.9923554515999
 10
348.5607078194598
 20
550.9923554515999
 10
348.5607078194598
 20
542.4923554515999
 10
351.4607078194604
 20
542.4923554515999
 10
351.4607078194604
 20
541.4923554515999
  0
ARC
  5
13C35
330
A
100
AcDbEntity
  8
LEVEL001
  6
Continuous
 62
     1
100
AcDbCircle
 10
350.9607078185299
 20
551.4923554515998
 30
0.0
 40
0.5
100
AcDbArc
 50
270.000000107347
 51
0.0
  0
LINE
  5
13C36
330
A
100
AcDbEntity
  8
LEVEL001
  6
Continuous
 62
     1
100
AcDbLine
 10
356.0607078194598
 20
555.4923554515998
 30
0.0
 11
349.0607078194598
 21
555.4923554515998
 31
0.0
  0
LWPOLYLINE
  5
13C37
330
A
100
AcDbEntity
  8
LEVEL001
  6
Continuous
 62
     1
100
AcDbPolyline
 90
        4
 70
     0
 43
0.0
 10
348.5607078194598
 20
554.9923554515999
 10
348.5607078194598
 20
552.9923554515999
 10
351.4607078194604
 20
552.9923554515999
 10
351.4607078194604
 20
551.4923554515998
  0
ARC
  5
13C38
330
A
100
AcDbEntity
  8
LEVEL001
  6
Continuous
 62
     1
100
AcDbCircle
 10
349.0607078194598
 20
554.9923554502002
 30
0.0
 40
0.5
100
AcDbArc
 50
90.0
 51
179.9999998500268
  0
ELLIPSE
  5
13C39
330
A
100
AcDbEntity
  8
LEVEL001
  6
Continuous
 62
     1
100
AcDbEllipse
 10
356.0607078194598
 20
547.9923554515998
 30
0.0
 11
-16.25
 21
0.0
 31
0.0
210
0.0
220
0.0
230
1.0
 40
0.75384615384615
 41
-1.190627849474999
 42
-0.42044119682986
  0
LWPOLYLINE
  5
13C3A
330
A
100
AcDbEntity
  8
LEVEL001
  6
Continuous
 62
     1
100
AcDbPolyline
 90
        3
 70
     0
 43
0.0
 10
350.0307078194601
 20
559.3677315527997
 10
350.0307078194601
 20
557.9923554515999
 10
355.7607078193896
 20
557.9923554515999
  0
ARC
  5
13C3B
330
A
100
AcDbEntity
  8
LEVEL001
  6
Continuous
 62
     1
100
AcDbCircle
 10
348.0607078194598
 20
537.9407931318
 30
0.0
 40
0.5
100
AcDbArc
 50
246.0275321775049
 51
0.0
  0
LWPOLYLINE
  5
13C3C
330
A
100
AcDbEntity
  8
LEVEL001
  6
Continuous
 62
     1
100
AcDbPolyline
 90
        3
 70
     0
 43
0.0
 10
350.9607078194604
 20
540.9923554515999
 10
348.5607078194598
 20
540.9923554515999
 10
348.5607078194598
 20
537.9407931314999
  0
ARC
  5
13C3D
330
A
100
AcDbEntity
  8
LEVEL001
  6
Continuous
 62
     1
100
AcDbCircle
 10
356.0607078192697
 20
555.9323494844997
 30
0.0
 40
20.19
100
AcDbArc
 50
235.2722002438023
 51
246.0275321617589
  0
ELLIPSE
  5
13C3E
330
A
100
AcDbEntity
  8
LEVEL001
  6
Continuous
 62
     1
100
AcDbEllipse
 10
356.0607078194598
 20
547.9923554515998
 30
0.0
 11
-16.25
 21
0.0
 31
0.0
210
0.0
220
0.0
230
1.0
 40
0.75384615384615
 41
0.42044119682986
 42
0.7844124393704201
  0
LINE
  5
13C3F
330
A
100
AcDbEntity
  8
LEVEL001
  6
Continuous
 62
     1
100
AcDbLine
 10
366.0607078194598
 20
547.6923554515001
 30
0.0
 11
365.7607078194597
 21
547.9923554514998
 31
0.0
  0
LINE
  5
13C40
330
A
100
AcDbEntity
  8
LEVEL001
  6
Continuous
 62
     1
100
AcDbLine
 10
366.0607078194598
 20
548.2923554516
 30
0.0
 11
365.7607078194597
 21
547.9923554515998
 31
0.0
  0
LWPOLYLINE
  5
13C41
330
A
100
AcDbEntity
  8
LEVEL001
  6
Continuous
 62
     1
100
AcDbPolyline
 90
        3
 70
     0
 43
0.0
 10
366.0607078194598
 20
547.6923554515001
 10
366.0607078194598
 20
542.9923554515998
 10
370.8954782379596
 20
542.9923554515998
  0
LWPOLYLINE
  5
13C42
330
A
100
AcDbEntity
  8
LEVEL001
  6
Continuous
 62
     1
100
AcDbPolyline
 90
        3
 70
     0
 43
0.0
 10
370.8954782379596
 20
552.9923554515999
 10
366.0607078194598
 20
552.9923554515999
 10
366.0607078194598
 20
548.2923554516
  0
LINE
  5
13C43
330
A
100
AcDbEntity
  8
LEVEL001
  6
Continuous
 62
     1
100
AcDbLine
 10
366.0607078194598
 20
547.9923554515998
 30
0.0
 11
366.0607078194598
 21
547.9923267874
 31
0.0
  0
ARC
  5
13C44
330
A
100
AcDbEntity
  8
LEVEL001
  6
Continuous
 62
     1
100
AcDbCircle
 10
361.1607078207699
 20
541.4923554515999
 30
0.0
 40
0.5
100
AcDbArc
 50
180.0
 51
269.9999998503395
  0
LWPOLYLINE
  5
13C45
330
A
100
AcDbEntity
  8
LEVEL001
  6
Continuous
 62
     1
100
AcDbPolyline
 90
        5
 70
     0
 43
0.0
 10
361.1607078194602
 20
550.9923554515999
 10
363.5607078194598
 20
550.9923554515999
 10
363.5607078194598
 20
542.4923554515999
 10
360.6607078194602
 20
542.4923554515999
 10
360.6607078194602
 20
541.4923554515999
  0
ARC
  5
13C46
330
A
100
AcDbEntity
  8
LEVEL001
  6
Continuous
 62
     1
100
AcDbCircle
 10
361.1607078207699
 20
551.4923554515998
 30
0.0
 40
0.5
100
AcDbArc
 50
180.0
 51
269.9999998503916
  0
LINE
  5
13C47
330
A
100
AcDbEntity
  8
LEVEL001
  6
Continuous
 62
     1
100
AcDbLine
 10
356.0607078194598
 20
555.4923554515998
 30
0.0
 11
363.0607078194598
 21
555.4923554515998
 31
0.0
  0
LWPOLYLINE
  5
13C48
330
A
100
AcDbEntity
  8
LEVEL001
  6
Continuous
 62
     1
100
AcDbPolyline
 90
        4
 70
     0
 43
0.0
 10
363.5607078194598
 20
554.9923554515999
 10
363.5607078194598
 20
552.9923554515999
 10
360.6607078194602
 20
552.9923554515999
 10
360.6607078194602
 20
551.4923554515998
  0
ARC
  5
13C49
330
A
100
AcDbEntity
  8
LEVEL001
  6
Continuous
 62
     1
100
AcDbCircle
 10
363.0607078194598
 20
554.9923554517
 30
0.0
 40
0.5
100
AcDbArc
 50
0.0
 51
90.0
  0
ELLIPSE
  5
13C4A
330
A
100
AcDbEntity
  8
LEVEL001
  6
Continuous
 62
     1
100
AcDbEllipse
 10
356.0607078194598
 20
547.9923554515998
 30
0.0
 11
16.25
 21
0.0
 31
0.0
210
0.0
220
0.0
230
1.0
 40
0.75384615384615
 41
0.42044119682986
 42
1.190627849474999
  0
LWPOLYLINE
  5
13C4B
330
A
100
AcDbEntity
  8
LEVEL001
  6
Continuous
 62
     1
100
AcDbPolyline
 90
        3
 70
     0
 43
0.0
 10
362.0907078194596
 20
559.3677315527997
 10
362.0907078194596
 20
557.9923554515999
 10
356.3607078195401
 20
557.9923554515999
  0
ARC
  5
13C4C
330
A
100
AcDbEntity
  8
LEVEL001
  6
Continuous
 62
     1
100
AcDbCircle
 10
364.0607078194598
 20
537.9407931334999
 30
0.0
 40
0.5
100
AcDbArc
 50
180.0000002369451
 51
293.9724677426065
  0
LWPOLYLINE
  5
13C4D
330
A
100
AcDbEntity
  8
LEVEL001
  6
Continuous
 62
     1
100
AcDbPolyline
 90
        3
 70
     0
 43
0.0
 10
361.1607078194602
 20
540.9923554515999
 10
363.5607078194598
 20
540.9923554515999
 10
363.5607078194598
 20
537.9407931314999
  0
ARC
  5
13C4E
330
A
100
AcDbEntity
  8
LEVEL001
  6
Continuous
 62
     1
100
AcDbCircle
 10
356.0607078195098
 20
555.9323494844002
 30
0.0
 40
20.19
100
AcDbArc
 50
293.9724678386961
 51
304.7277997566459
  0
ELLIPSE
  5
13C4F
330
A
100
AcDbEntity
  8
LEVEL001
  6
Continuous
 62
     1
100
AcDbEllipse
 10
356.0607078194598
 20
547.9923554515998
 30
0.0
 11
16.25
 21
0.0
 31
0.0
210
0.0
220
0.0
230
1.0
 40
0.75384615384615
 41
-0.7844124393704201
 42
-0.42044119682986
  0
LINE
  5
13C50
330
A
100
AcDbEntity
  8
LEVEL001
  6
Continuous
 62
     1
100
AcDbLine
 10
356.3596654462299
 20
557.9907581974999
 30
0.0
 11
356.05806969066
 21
557.6923624866999
 31
0.0
  0
LINE
  5
13C51
330
A
100
AcDbEntity
  8
LEVEL001
  6
Continuous
 62
     1
100
AcDbLine
 10
360.6607078194602
 20
541.4923554518
 30
0.0
 11
360.6607078194602
 21
542.4923554518
 31
0.0
  0
ARC
  5
13C52
330
A
100
AcDbEntity
  8
LEVEL001
  6
Continuous
 62
     1
100
AcDbCircle
 10
356.0607078196099
 20
540.0523554517999
 30
0.0
 40
20.19
100
AcDbArc
 50
53.03061491144267
 51
90.00000000015633
  0
ARC
  5
13C53
330
A
100
AcDbEntity
  8
LEVEL001
  6
Continuous
 62
     1
100
AcDbCircle
 10
356.0607078195299
 20
540.0523554517999
 30
0.0
 40
24.19
100
AcDbArc
 50
53.04966225402292
 51
89.99999999994789
  0
ARC
  5
13C54
330
A
100
AcDbEntity
  8
LEVEL001
  6
Continuous
 62
     1
100
AcDbCircle
 10
362.0907078195596
 20
547.9923554517999
 30
0.0
 40
10.22
100
AcDbArc
 50
0.0
 51
53.26993579140959
  0
ARC
  5
13C55
330
A
100
AcDbEntity
  8
LEVEL001
  6
Continuous
 62
     1
100
AcDbCircle
 10
362.0907078195496
 20
547.9923554517999
 30
0.0
 40
14.22
100
AcDbArc
 50
0.0
 51
53.23501812227908
  0
ARC
  5
13C56
330
A
100
AcDbEntity
  8
LEVEL001
  6
Continuous
 62
     1
100
AcDbCircle
 10
362.0907078195596
 20
547.9923554517999
 30
0.0
 40
10.22
100
AcDbArc
 50
306.7300642085904
 51
0.0
  0
ARC
  5
13C57
330
A
100
AcDbEntity
  8
LEVEL001
  6
Continuous
 62
     1
100
AcDbCircle
 10
362.0907078195496
 20
547.9923554517999
 30
0.0
 40
14.22
100
AcDbArc
 50
306.7649818775177
 51
0.0
  0
ARC
  5
13C58
330
A
100
AcDbEntity
  8
LEVEL001
  6
Continuous
 62
     1
100
AcDbCircle
 10
356.0607078194098
 20
555.9323554517
 30
0.0
 40
24.19
100
AcDbArc
 50
291.4530417615034
 51
306.950337746295
  0
ARC
  5
13C59
330
A
100
AcDbEntity
  8
LEVEL001
  6
Continuous
 62
     1
100
AcDbCircle
 10
356.0607078195999
 20
555.9323554518
 30
0.0
 40
20.19
100
AcDbArc
 50
293.9724678386961
 51
306.9693850885001
  0
ARC
  5
13C5A
330
A
100
AcDbEntity
  8
LEVEL001
  6
Continuous
 62
     1
100
AcDbCircle
 10
363.81070781982
 20
536.2104488503
 30
0.0
 40
3.0
100
AcDbArc
 50
178.1087051808279
 51
291.4530417554553
  0
LWPOLYLINE
  5
13C5B
330
A
100
AcDbEntity
  8
LEVEL001
  6
Continuous
 62
     1
100
AcDbPolyline
 90
        3
 70
     0
 43
0.0
 10
363.5607078195499
 20
539.9923554517999
 10
360.8107078195498
 20
539.9923554517999
 10
360.8107078195498
 20
536.2104488502
  0
ARC
  5
13C5C
330
A
100
AcDbEntity
  8
LEVEL001
  6
Continuous
 62
     1
100
AcDbCircle
 10
356.0607078195299
 20
540.0523554517999
 30
0.0
 40
20.19
100
AcDbArc
 50
89.99999999994789
 51
126.9693850886303
  0
ARC
  5
13C5D
330
A
100
AcDbEntity
  8
LEVEL001
  6
Continuous
 62
     1
100
AcDbCircle
 10
356.0607078195699
 20
540.0523554517999
 30
0.0
 40
24.19
100
AcDbArc
 50
90.00000000005213
 51
126.9503377461074
  0
ARC
  5
13C5E
330
A
100
AcDbEntity
  8
LEVEL001
  6
Continuous
 62
     1
100
AcDbCircle
 10
349.8607078158902
 20
559.0565681415
 30
0.0
 40
0.2
100
AcDbArc
 50
0.0000003415824128
 51
108.0685753272131
  0
ARC
  5
13C5F
330
A
100
AcDbEntity
  8
LEVEL001
  6
Continuous
 62
     1
100
AcDbCircle
 10
350.0307078194801
 20
547.9923554516999
 30
0.0
 40
10.22
100
AcDbArc
 50
126.7300642081996
 51
179.9999999997134
  0
ARC
  5
13C60
330
A
100
AcDbEntity
  8
LEVEL001
  6
Continuous
 62
     1
100
AcDbCircle
 10
350.0307078195501
 20
547.9923554517999
 30
0.0
 40
14.22
100
AcDbArc
 50
126.7649818778512
 51
179.9999999998697
  0
ARC
  5
13C61
330
A
100
AcDbEntity
  8
LEVEL001
  6
Continuous
 62
     1
100
AcDbCircle
 10
350.0307078195501
 20
547.9923554517999
 30
0.0
 40
10.22
100
AcDbArc
 50
180.0
 51
233.2699357913366
  0
ARC
  5
13C62
330
A
100
AcDbEntity
  8
LEVEL001
  6
Continuous
 62
     1
100
AcDbCircle
 10
350.0307078195101
 20
547.9923554517999
 30
0.0
 40
14.22
100
AcDbArc
 50
180.0000000001042
 51
233.2350181224094
  0
ARC
  5
13C63
330
A
100
AcDbEntity
  8
LEVEL001
  6
Continuous
 62
     1
100
AcDbCircle
 10
348.3107078193698
 20
536.2104488503
 30
0.0
 40
3.0
100
AcDbArc
 50
248.5469582424738
 51
1.891294820007065
  0
LWPOLYLINE
  5
13C64
330
A
100
AcDbEntity
  8
LEVEL001
  6
Continuous
 62
     1
100
AcDbPolyline
 90
        3
 70
     0
 43
0.0
 10
348.5607078195499
 20
539.9923554517999
 10
351.3107078195499
 20
539.9923554517999
 10
351.3107078195499
 20
536.2104488502
  0
ARC
  5
13C65
330
A
100
AcDbEntity
  8
LEVEL001
  6
Continuous
 62
     1
100
AcDbCircle
 10
356.0607078195299
 20
555.9323554518
 30
0.0
 40
20.19
100
AcDbArc
 50
233.0306149113697
 51
246.0275321611875
  0
LINE
  5
13C66
330
A
100
AcDbEntity
  8
LEVEL001
  6
Continuous
 62
     1
100
AcDbLine
 10
351.4607078194604
 20
542.4923554518
 30
0.0
 11
351.4607078194604
 21
541.4923554518
 31
0.0
  0
ARC
  5
13C67
330
A
100
AcDbEntity
  8
LEVEL001
  6
Continuous
 62
     1
100
AcDbCircle
 10
356.0607078195899
 20
555.9323554518
 30
0.0
 40
24.19
100
AcDbArc
 50
233.04966225395
 51
248.5469582387772
  0
LINE
  5
13C68
330
A
100
AcDbEntity
  8
LEVEL001
  6
DASHDOT
 62
     6
370
    15
100
AcDbLine
 10
1099.3049947806
 20
547.4923554514998
 30
0.0
 11
642.1171360191501
 21
547.4923554514998
 31
0.0
  0
LINE
  5
13C69
330
A
100
AcDbEntity
  8
LEVEL001
  6
Continuous
 62
     1
100
AcDbLine
 10
692.2429559608099
 20
563.7423554516999
 30
0.0
 11
1029.6692268495
 21
563.7423554516999
 31
0.0
  0
LINE
  5
13C6A
330
A
100
AcDbEntity
  8
LEVEL001
  6
Continuous
 62
     1
100
AcDbLine
 10
692.2429559608099
 20
530.7423554516999
 30
0.0
 11
1029.6692268495
 21
530.7423554516999
 31
0.0
  0
LINE
  5
13C6B
330
A
100
AcDbEntity
  8
LEVEL001
  6
Continuous
 62
     1
100
AcDbLine
 10
692.2429559608099
 20
413.7423554516999
 30
0.0
 11
1029.6692268495
 21
413.7423554516999
 31
0.0
  0
LINE
  5
13C6C
330
A
100
AcDbEntity
  8
LEVEL001
  6
DASHDOT
 62
     6
370
    15
100
AcDbLine
 10
1099.3049947806
 20
397.4923554514999
 30
0.0
 11
642.1171360191501
 21
397.4923554514999
 31
0.0
  0
LINE
  5
13C6D
330
A
100
AcDbEntity
  8
LEVEL001
  6
Continuous
 62
     1
100
AcDbLine
 10
692.2429559608099
 20
380.7423554516999
 30
0.0
 11
1029.6692268495
 21
380.7423554516999
 31
0.0
  0
LINE
  5
13C6E
330
A
100
AcDbEntity
  8
LEVEL001
  6
DASHDOT
 62
     6
370
    15
100
AcDbLine
 10
1105.4207441379
 20
789.7869105054001
 30
0.0
 11
642.1171360191501
 21
789.7869105054001
 31
0.0
  0
LINE
  5
13C6F
330
A
100
AcDbEntity
  8
LEVEL001
  6
Continuous
 62
     1
100
AcDbLine
 10
692.2429559608099
 20
769.5369105054001
 30
0.0
 11
1029.6692268495
 21
769.5369105054001
 31
0.0
  0
LINE
  5
13C70
330
A
100
AcDbEntity
  8
LEVEL001
  6
DASHDOT
 62
     6
370
    15
100
AcDbLine
 10
1105.4207441379
 20
809.7869105054
 30
0.0
 11
642.1171360191501
 21
809.7869105054
 31
0.0
  0
LINE
  5
13C71
330
A
100
AcDbEntity
  8
LEVEL001
  6
Continuous
 62
     1
100
AcDbLine
 10
692.2429559608099
 20
789.5369105054001
 30
0.0
 11
1029.6692268495
 21
789.5369105054001
 31
0.0
  0
LINE
  5
13C72
330
A
100
AcDbEntity
  8
LEVEL001
  6
Continuous
 62
     1
100
AcDbLine
 10
692.2429559608099
 20
830.0369105054
 30
0.0
 11
1029.6692268495
 21
830.0369105054
 31
0.0
  0
LINE
  5
13C73
330
A
100
AcDbEntity
  8
LEVEL001
  6
Continuous
 62
     3
370
    30
100
AcDbLine
 10
581.3532084943199
 20
869.7869105054001
 30
0.0
 11
1144.223673739
 21
869.7869105054001
 31
0.0
  0
LINE
  5
13DC3
330
A
100
AcDbEntity
  8
LEVEL001
  6
HIDDEN
 62
     2
370
    15
100
AcDbLine
 10
386.5607078194598
 20
401.9923554514998
 30
0.0
 11
387.2959600099903
 21
401.9923554514998
 31
0.0
  0
ARC
  5
13DC4
330
A
100
AcDbEntity
  8
LEVEL001
  6
HIDDEN
 62
     2
370
    15
100
AcDbCircle
 10
381.7940411527997
 20
397.9923554515999
 30
0.0
 40
7.2666666666667
100
AcDbArc
 50
331.3979413170887
 51
28.60205868263065
  0
ARC
  5
13DC5
330
A
100
AcDbEntity
  8
LEVEL001
  6
HIDDEN
 62
     2
370
    15
100
AcDbCircle
 10
387.2959600100603
 20
400.9923554513997
 30
0.0
 40
1.0
100
AcDbArc
 50
28.60205869109599
 51
90.00000000396038
  0
ARC
  5
13DC6
330
A
100
AcDbEntity
  8
LEVEL001
  6
HIDDEN
 62
     2
370
    15
100
AcDbCircle
 10
386.5607078194598
 20
401.4923554521001
 30
0.0
 40
0.5
100
AcDbArc
 50
90.0
 51
180.0000000636786
  0
ARC
  5
13DC7
330
A
100
AcDbEntity
  8
LEVEL001
  6
HIDDEN
 62
     2
370
    15
100
AcDbCircle
 10
386.5607078192797
 20
394.4923554514998
 30
0.0
 40
0.5
100
AcDbArc
 50
180.0
 51
270.0000000209483
  0
ARC
  5
13DC8
330
A
100
AcDbEntity
  8
LEVEL001
  6
HIDDEN
 62
     2
370
    15
100
AcDbCircle
 10
387.2959600100703
 20
394.9923554516999
 30
0.0
 40
1.0
100
AcDbArc
 50
269.9999999949453
 51
331.3979413066416
  0
LINE
  5
13DC9
330
A
100
AcDbEntity
  8
LEVEL001
  6
HIDDEN
 62
     2
370
    15
100
AcDbLine
 10
386.5607078194598
 20
393.9923554514999
 30
0.0
 11
387.2959600099903
 21
393.9923554514999
 31
0.0
  0
LINE
  5
13DCA
330
A
100
AcDbEntity
  8
LEVEL001
  6
HIDDEN
 62
     2
370
    15
100
AcDbLine
 10
386.0607078194598
 20
399.9923554514999
 30
0.0
 11
368.8107078194598
 21
399.9923554514999
 31
0.0
  0
LINE
  5
13DCB
330
A
100
AcDbEntity
  8
LEVEL001
  6
HIDDEN
 62
     2
370
    15
100
AcDbLine
 10
368.0607078194598
 20
399.2423554514999
 30
0.0
 11
386.1370599469501
 21
399.2423554514999
 31
0.0
  0
LINE
  5
13DCC
330
A
100
AcDbEntity
  8
LEVEL001
  6
HIDDEN
 62
     2
370
    15
100
AcDbLine
 10
386.0607078194598
 20
396.7423554514999
 30
0.0
 11
368.0607078194598
 21
396.7423554514999
 31
0.0
  0
LINE
  5
13DCD
330
A
100
AcDbEntity
  8
LEVEL001
  6
HIDDEN
 62
     2
370
    15
100
AcDbLine
 10
368.8107078194598
 20
395.9923554514999
 30
0.0
 11
386.0607078194598
 21
395.9923554514999
 31
0.0
  0
LINE
  5
13DCE
330
A
100
AcDbEntity
  8
LEVEL001
  6
HIDDEN
 62
     2
370
    15
100
AcDbLine
 10
368.8107078194598
 20
399.9923554514999
 30
0.0
 11
368.0607078194598
 21
399.2423554514999
 31
0.0
  0
LINE
  5
13DCF
330
A
100
AcDbEntity
  8
LEVEL001
  6
HIDDEN
 62
     2
370
    15
100
AcDbLine
 10
368.0607078194598
 20
396.7423554514999
 30
0.0
 11
368.8107078194598
 21
395.9923554514999
 31
0.0
  0
LINE
  5
13DD0
330
A
100
AcDbEntity
  8
LEVEL001
  6
HIDDEN
 62
     2
370
    15
100
AcDbLine
 10
368.0607078194598
 20
399.2423554514999
 30
0.0
 11
368.0607078194598
 21
396.7423554514999
 31
0.0
  0
LINE
  5
13DD1
330
A
100
AcDbEntity
  8
LEVEL001
  6
HIDDEN
 62
     2
370
    15
100
AcDbLine
 10
368.8107078194598
 20
399.9923554514999
 30
0.0
 11
368.8107078194598
 21
395.9923554514999
 31
0.0
  0
LINE
  5
13DD2
330
A
100
AcDbEntity
  8
LEVEL001
  6
HIDDEN
 62
     2
370
    15
100
AcDbLine
 10
366.5607078194598
 20
551.9923554515998
 30
0.0
 11
367.2959600099903
 21
551.9923554515998
 31
0.0
  0
ARC
  5
13DD3
330
A
100
AcDbEntity
  8
LEVEL001
  6
HIDDEN
 62
     2
370
    15
100
AcDbCircle
 10
361.7940411527397
 20
547.9923554514998
 30
0.0
 40
7.2666666666667
100
AcDbArc
 50
331.3979413181616
 51
28.60205868323784
  0
ARC
  5
13DD4
330
A
100
AcDbEntity
  8
LEVEL001
  6
HIDDEN
 62
     2
370
    15
100
AcDbCircle
 10
367.2959600097402
 20
550.9923554521001
 30
0.0
 40
1.0
100
AcDbArc
 50
28.60205865303837
 51
89.99999998577392
  0
ARC
  5
13DD5
330
A
100
AcDbEntity
  8
LEVEL001
  6
HIDDEN
 62
     2
370
    15
100
AcDbCircle
 10
366.5607078194598
 20
551.4923554502002
 30
0.0
 40
0.5
100
AcDbArc
 50
90.0
 51
179.9999998448158
  0
ARC
  5
13DD6
330
A
100
AcDbEntity
  8
LEVEL001
  6
HIDDEN
 62
     2
370
    15
100
AcDbCircle
 10
366.5607078193198
 20
544.4923554515999
 30
0.0
 40
0.5
100
AcDbArc
 50
180.0
 51
270.0000000158936
  0
ARC
  5
13DD7
330
A
100
AcDbEntity
  8
LEVEL001
  6
HIDDEN
 62
     2
370
    15
100
AcDbCircle
 10
367.2959600100103
 20
544.9923554515999
 30
0.0
 40
1.0
100
AcDbArc
 50
269.9999999984367
 51
331.3979413139403
  0
LINE
  5
13DD8
330
A
100
AcDbEntity
  8
LEVEL001
  6
HIDDEN
 62
     2
370
    15
100
AcDbLine
 10
366.5607078194598
 20
543.9923554515998
 30
0.0
 11
367.2959600099903
 21
543.9923554515998
 31
0.0
  0
LINE
  5
13DD9
330
A
100
AcDbEntity
  8
LEVEL001
  6
HIDDEN
 62
     2
370
    15
100
AcDbLine
 10
366.0607078194598
 20
549.9923554515999
 30
0.0
 11
348.8107078194598
 21
549.9923554515999
 31
0.0
  0
LINE
  5
13DDA
330
A
100
AcDbEntity
  8
LEVEL001
  6
HIDDEN
 62
     2
370
    15
100
AcDbLine
 10
348.0607078194598
 20
549.2423554515998
 30
0.0
 11
366.1370599469501
 21
549.2423554515998
 31
0.0
  0
LINE
  5
13DDB
330
A
100
AcDbEntity
  8
LEVEL001
  6
HIDDEN
 62
     2
370
    15
100
AcDbLine
 10
366.0607078194598
 20
546.7423554515999
 30
0.0
 11
348.0607078194598
 21
546.7423554515999
 31
0.0
  0
LINE
  5
13DDC
330
A
100
AcDbEntity
  8
LEVEL001
  6
HIDDEN
 62
     2
370
    15
100
AcDbLine
 10
348.8107078194598
 20
545.9923554515999
 30
0.0
 11
366.0607078194598
 21
545.9923554515999
 31
0.0
  0
LINE
  5
13DDD
330
A
100
AcDbEntity
  8
LEVEL001
  6
HIDDEN
 62
     2
370
    15
100
AcDbLine
 10
348.8107078194598
 20
549.9923554515999
 30
0.0
 11
348.0607078194598
 21
549.2423554515998
 31
0.0
  0
LINE
  5
13DDE
330
A
100
AcDbEntity
  8
LEVEL001
  6
HIDDEN
 62
     2
370
    15
100
AcDbLine
 10
348.0607078194598
 20
546.7423554515999
 30
0.0
 11
348.8107078194598
 21
545.9923554515999
 31
0.0
  0
LINE
  5
13DDF
330
A
100
AcDbEntity
  8
LEVEL001
  6
HIDDEN
 62
     2
370
    15
100
AcDbLine
 10
348.0607078194598
 20
549.2423554515998
 30
0.0
 11
348.0607078194598
 21
546.7423554515999
 31
0.0
  0
LINE
  5
13DE0
330
A
100
AcDbEntity
  8
LEVEL001
  6
HIDDEN
 62
     2
370
    15
100
AcDbLine
 10
348.8107078194598
 20
549.9923554515999
 30
0.0
 11
348.8107078194598
 21
545.9923554515999
 31
0.0
  0
LINE
  5
13DE1
330
A
100
AcDbEntity
  8
LEVEL001
  6
DASHDOT
 62
     6
370
    15
100
AcDbLine
 10
333.5466974261999
 20
547.9923554515998
 30
0.0
 11
380.1932766421496
 21
547.9923554515998
 31
0.0
  0
LINE
  5
13DE2
330
A
100
AcDbEntity
  8
LEVEL001
  6
DASHDOT
 62
     6
370
    15
100
AcDbLine
 10
353.4123564992997
 20
397.9923554515999
 30
0.0
 11
398.2986874429498
 21
397.9923554515999
 31
0.0
  0
LWPOLYLINE
  5
13DEF
330
A
100
AcDbEntity
  8
LEVEL001
  6
Continuous
 62
     8
100
AcDbPolyline
 90
        5
 70
     0
 43
0.0
 10
280.10067754171
 20
757.9940847698999
 10
280.10067754171
 20
744.6271994520998
 10
405.1765330151802
 20
744.6271994520998
 10
405.1765330151802
 20
757.9940847698999
 10
280.10067754171
 20
757.9940847698999
  0
TEXT
  5
13DF0
330
A
100
AcDbEntity
  8
LEVEL001
 62
     8
100
AcDbText
 10
293.1386052784401
 20
746.810642111
 30
0.0
 40
9.0
  1
笠木(楕円型)ＧＳＫ６
 41
0.8
 11
293.1386052784401
 21
751.3106421110001
 31
0.0
100
AcDbText
 73
     2
  0
LINE
  5
13F64
330
A
100
AcDbEntity
  8
LEVEL001
  6
Continuous
 62
     6
370
    15
100
AcDbLine
 10
952.0117273400702
 20
299.4923554515999
 30
0.0
 11
927.0117273400702
 21
299.4923554515999
 31
0.0
  0
LINE
  5
13F65
330
A
100
AcDbEntity
  8
LEVEL001
  6
Continuous
 62
     6
370
    15
100
AcDbLine
 10
952.0117273400702
 20
335.4923554515999
 30
0.0
 11
952.0117273400702
 21
295.4923554515999
 31
0.0
  0
LINE
  5
13F66
330
A
100
AcDbEntity
  8
LEVEL001
  6
Continuous
 62
     6
370
    15
100
AcDbLine
 10
927.0117273400702
 20
335.9923554515999
 30
0.0
 11
927.0117273400702
 21
295.4923554515999
 31
0.0
  0
CIRCLE
  5
13F67
330
A
100
AcDbEntity
  8
LEVEL001
  6
Continuous
 62
     6
370
    15
100
AcDbCircle
 10
952.0117273400702
 20
299.4923554515999
 30
0.0
 40
0.8
  0
CIRCLE
  5
13F68
330
A
100
AcDbEntity
  8
LEVEL001
  6
Continuous
 62
     6
370
    15
100
AcDbCircle
 10
927.0117273400702
 20
299.4923554515999
 30
0.0
 40
0.8
  0
TEXT
  5
13F69
330
A
100
AcDbEntity
  8
LEVEL001
 62
     6
370
    15
100
AcDbText
 10
928.51172734007
 20
303.4923554515999
 30
0.0
 40
12.0
  1
２５
 41
0.8
100
AcDbText
  0
LINE
  5
13F6A
330
A
100
AcDbEntity
  8
LEVEL001
  6
Continuous
 62
     6
370
    15
100
AcDbLine
 10
954.7617273400701
 20
258.9923554515999
 30
0.0
 11
885.44698733743
 21
258.9923554515999
 31
0.0
  0
LINE
  5
13F6B
330
A
100
AcDbEntity
  8
LEVEL001
  6
Continuous
 62
     6
370
    15
100
AcDbLine
 10
954.7617273400701
 20
335.9923554515999
 30
0.0
 11
954.7617273400701
 21
254.9923554515999
 31
0.0
  0
LINE
  5
13F6C
330
A
100
AcDbEntity
  8
LEVEL001
  6
Continuous
 62
     6
370
    15
100
AcDbLine
 10
924.2617273400702
 20
335.9923554515999
 30
0.0
 11
924.2617273400702
 21
254.9923554515999
 31
0.0
  0
CIRCLE
  5
13F6D
330
A
100
AcDbEntity
  8
LEVEL001
  6
Continuous
 62
     6
370
    15
100
AcDbCircle
 10
954.7617273400701
 20
258.9923554515999
 30
0.0
 40
0.8
  0
CIRCLE
  5
13F6E
330
A
100
AcDbEntity
  8
LEVEL001
  6
Continuous
 62
     6
370
    15
100
AcDbCircle
 10
924.2617273400702
 20
258.9923554515999
 30
0.0
 40
0.8
  0
TEXT
  5
13F6F
330
A
100
AcDbEntity
  8
LEVEL001
 62
     6
370
    15
100
AcDbText
 10
885.44698733743
 20
261.8164719525998
 30
0.0
 40
12.0
  1
３０.５
 41
0.8
100
AcDbText
  0
LINE
  5
13F70
330
A
100
AcDbEntity
  8
LEVEL001
  6
Continuous
 62
     6
370
    15
100
AcDbLine
 10
1089.5117273401
 20
644.1923554515001
 30
0.0
 11
939.5117273400702
 21
644.1923554515001
 31
0.0
  0
LINE
  5
13F71
330
A
100
AcDbEntity
  8
LEVEL001
  6
Continuous
 62
     6
370
    15
100
AcDbLine
 10
1089.5117273401
 20
551.4923554514998
 30
0.0
 11
1089.5117273401
 21
648.1923554515001
 31
0.0
  0
LINE
  5
13F72
330
A
100
AcDbEntity
  8
LEVEL001
  6
Continuous
 62
     6
370
    15
100
AcDbLine
 10
939.5117273400702
 20
570.8923554515999
 30
0.0
 11
939.5117273400702
 21
648.1923554515001
 31
0.0
  0
CIRCLE
  5
13F73
330
A
100
AcDbEntity
  8
LEVEL001
  6
Continuous
 62
     6
370
    15
100
AcDbCircle
 10
1089.5117273401
 20
644.1923554515001
 30
0.0
 40
0.8
  0
CIRCLE
  5
13F74
330
A
100
AcDbEntity
  8
LEVEL001
  6
Continuous
 62
     6
370
    15
100
AcDbCircle
 10
939.5117273400702
 20
644.1923554515001
 30
0.0
 40
0.8
  0
TEXT
  5
13F75
330
A
100
AcDbEntity
  8
LEVEL001
 62
     6
370
    15
100
AcDbText
 10
998.5117273400701
 20
646.1923554515001
 30
0.0
 40
12.0
  1
１５０
 41
0.8
100
AcDbText
  0
LWPOLYLINE
  5
13F7C
330
A
100
AcDbEntity
  8
LEVEL001
  6
Continuous
 62
     6
370
    15
100
AcDbPolyline
 90
        3
 70
     0
 43
0.0
 10
1047.595830324699
 20
398.7496367110002
 10
1035.9283250277
 20
340.7780224499002
 10
1122.9283250277
 20
340.7780224499002
  0
CIRCLE
  5
13F7D
330
A
100
AcDbEntity
  8
LEVEL001
  6
Continuous
 62
     6
370
    15
100
AcDbCircle
 10
1047.595830324699
 20
398.7496367110002
 30
0.0
 40
0.8
  0
TEXT
  5
13F7E
330
A
100
AcDbEntity
  8
LEVEL001
 62
     6
370
    15
100
AcDbText
 10
1035.9283250277
 20
358.7780224499002
 30
0.0
 40
12.0
  1
 　アール
 41
0.8
100
AcDbText
  0
TEXT
  5
13F7F
330
A
100
AcDbEntity
  8
LEVEL001
 62
     6
370
    15
100
AcDbText
 10
1035.9283250277
 20
342.7780224499002
 30
0.0
 40
12.0
  1
　 エンドキャップ
 41
0.8
100
AcDbText
  0
LWPOLYLINE
  5
13F80
330
A
100
AcDbEntity
  8
LEVEL001
  6
Continuous
 62
     6
370
    15
100
AcDbPolyline
 90
        3
 70
     0
 43
0.0
 10
1049.7440797508
 20
785.4345334038998
 10
1038.0765744538
 20
727.4629191426997
 10
1125.0765744538
 20
727.4629191426997
  0
CIRCLE
  5
13F81
330
A
100
AcDbEntity
  8
LEVEL001
  6
Continuous
 62
     6
370
    15
100
AcDbCircle
 10
1049.7440797508
 20
785.4345334038998
 30
0.0
 40
0.8
  0
TEXT
  5
13F82
330
A
100
AcDbEntity
  8
LEVEL001
 62
     6
370
    15
100
AcDbText
 10
1038.0765744538
 20
745.4629191426997
 30
0.0
 40
12.0
  1
 　アール
 41
0.8
100
AcDbText
  0
TEXT
  5
13F83
330
A
100
AcDbEntity
  8
LEVEL001
 62
     6
370
    15
100
AcDbText
 10
1038.0765744538
 20
729.4629191426998
 30
0.0
 40
12.0
  1
　 エンドキャップ
 41
0.8
100
AcDbText
  0
LINE
  5
13F8A
330
A
100
AcDbEntity
  8
LEVEL001
  6
Continuous
 62
     6
370
    15
100
AcDbLine
 10
243.3181388121702
 20
339.4923554515999
 30
0.0
 11
243.3181388121702
 21
373.4923554515999
 31
0.0
  0
LINE
  5
13F8B
330
A
100
AcDbEntity
  8
LEVEL001
  6
Continuous
 62
     6
370
    15
100
AcDbLine
 10
292.0607078194598
 20
339.4923554515999
 30
0.0
 11
239.3181388121702
 21
339.4923554515999
 31
0.0
  0
CIRCLE
  5
13F8C
330
A
100
AcDbEntity
  8
LEVEL001
  6
Continuous
 62
     6
370
    15
100
AcDbCircle
 10
243.3181388121702
 20
339.4923554515999
 30
0.0
 40
0.8
  0
TEXT
  5
13F8D
330
A
100
AcDbEntity
  8
LEVEL001
 62
     6
370
    15
100
AcDbText
 10
239.3181388121702
 20
345.4923554515999
 30
0.0
 40
12.0
  1
３４
 50
90.0
 41
0.8
100
AcDbText
  0
LINE
  5
13F8E
330
A
100
AcDbEntity
  8
LEVEL001
  6
Continuous
 62
     6
370
    15
100
AcDbLine
 10
243.3181388121702
 20
373.4923554515999
 30
0.0
 11
243.3181388121702
 21
463.4923554515999
 31
0.0
  0
LINE
  5
13F8F
330
A
100
AcDbEntity
  8
LEVEL001
  6
Continuous
 62
     6
370
    15
100
AcDbLine
 10
247.8019200009803
 20
373.4923554515999
 30
0.0
 11
239.3181388121702
 21
373.4923554515999
 31
0.0
  0
CIRCLE
  5
13F90
330
A
100
AcDbEntity
  8
LEVEL001
  6
Continuous
 62
     6
370
    15
100
AcDbCircle
 10
243.3181388121702
 20
373.4923554515999
 30
0.0
 40
0.8
  0
TEXT
  5
13F91
330
A
100
AcDbEntity
  8
LEVEL001
 62
     6
370
    15
100
AcDbText
 10
239.3181388121702
 20
407.4923554515999
 30
0.0
 40
12.0
  1
９０
 50
90.0
 41
0.8
100
AcDbText
  0
LINE
  5
13F92
330
A
100
AcDbEntity
  8
LEVEL001
  6
Continuous
 62
     6
370
    15
100
AcDbLine
 10
243.3181388121702
 20
463.4923554515999
 30
0.0
 11
243.3181388121702
 21
497.4923554515998
 31
0.0
  0
LINE
  5
13F93
330
A
100
AcDbEntity
  8
LEVEL001
  6
Continuous
 62
     6
370
    15
100
AcDbLine
 10
247.8019200009803
 20
463.4923554515999
 30
0.0
 11
239.3181388121702
 21
463.4923554515999
 31
0.0
  0
LINE
  5
13F94
330
A
100
AcDbEntity
  8
LEVEL001
  6
Continuous
 62
     6
370
    15
100
AcDbLine
 10
292.0607078194598
 20
497.4923554515998
 30
0.0
 11
239.3181388121702
 21
497.4923554515998
 31
0.0
  0
CIRCLE
  5
13F95
330
A
100
AcDbEntity
  8
LEVEL001
  6
Continuous
 62
     6
370
    15
100
AcDbCircle
 10
243.3181388121702
 20
463.4923554515999
 30
0.0
 40
0.8
  0
CIRCLE
  5
13F96
330
A
100
AcDbEntity
  8
LEVEL001
  6
Continuous
 62
     6
370
    15
100
AcDbCircle
 10
243.3181388121702
 20
497.4923554515998
 30
0.0
 40
0.8
  0
TEXT
  5
13F97
330
A
100
AcDbEntity
  8
LEVEL001
 62
     6
370
    15
100
AcDbText
 10
239.3181388121702
 20
469.4923554515999
 30
0.0
 40
12.0
  1
３４
 50
90.0
 41
0.8
100
AcDbText
  0
LINE
  5
13F98
330
A
100
AcDbEntity
  8
LEVEL001
  6
Continuous
 62
     6
370
    15
100
AcDbLine
 10
201.8385369092603
 20
497.4923554515998
 30
0.0
 11
201.8385369092603
 21
339.4923554515999
 31
0.0
  0
LINE
  5
13F99
330
A
100
AcDbEntity
  8
LEVEL001
  6
Continuous
 62
     6
370
    15
100
AcDbLine
 10
243.5600294065698
 20
497.4923554515998
 30
0.0
 11
197.8385369092602
 21
497.4923554515998
 31
0.0
  0
LINE
  5
13F9A
330
A
100
AcDbEntity
  8
LEVEL001
  6
Continuous
 62
     6
370
    15
100
AcDbLine
 10
243.5600294065698
 20
339.4923554515999
 30
0.0
 11
197.8385369092602
 21
339.4923554515999
 31
0.0
  0
CIRCLE
  5
13F9B
330
A
100
AcDbEntity
  8
LEVEL001
  6
Continuous
 62
     6
370
    15
100
AcDbCircle
 10
201.8385369092603
 20
497.4923554515998
 30
0.0
 40
0.8
  0
CIRCLE
  5
13F9C
330
A
100
AcDbEntity
  8
LEVEL001
  6
Continuous
 62
     6
370
    15
100
AcDbCircle
 10
201.8385369092603
 20
339.4923554515999
 30
0.0
 40
0.8
  0
TEXT
  5
13F9D
330
A
100
AcDbEntity
  8
LEVEL001
 62
     6
370
    15
100
AcDbText
 10
197.8385369092602
 20
402.4923554515998
 30
0.0
 40
12.0
  1
１５８
 50
90.0
 41
0.8
100
AcDbText
  0
LINE
  5
13F9E
330
A
100
AcDbEntity
  8
LEVEL001
  6
Continuous
 62
     6
370
    15
100
AcDbLine
 10
296.0607078194598
 20
291.8857010057
 30
0.0
 11
376.0607078194598
 21
291.8857010057
 31
0.0
  0
LINE
  5
13F9F
330
A
100
AcDbEntity
  8
LEVEL001
  6
Continuous
 62
     6
370
    15
100
AcDbLine
 10
296.0607078194598
 20
315.4923554515999
 30
0.0
 11
296.0607078194598
 21
287.8857010057
 31
0.0
  0
LINE
  5
13FA0
330
A
100
AcDbEntity
  8
LEVEL001
  6
Continuous
 62
     6
370
    15
100
AcDbLine
 10
376.0607078194598
 20
343.5460462023002
 30
0.0
 11
376.0607078194598
 21
287.8857010057
 31
0.0
  0
CIRCLE
  5
13FA1
330
A
100
AcDbEntity
  8
LEVEL001
  6
Continuous
 62
     6
370
    15
100
AcDbCircle
 10
296.0607078194598
 20
291.8857010057
 30
0.0
 40
0.8
  0
CIRCLE
  5
13FA2
330
A
100
AcDbEntity
  8
LEVEL001
  6
Continuous
 62
     6
370
    15
100
AcDbCircle
 10
376.0607078194598
 20
291.8857010057
 30
0.0
 40
0.8
  0
TEXT
  5
13FA3
330
A
100
AcDbEntity
  8
LEVEL001
 62
     6
370
    15
100
AcDbText
 10
325.0607078194598
 20
297.0285581486
 30
0.0
 40
12.0
  1
８０
 41
0.8
100
AcDbText
  0
LINE
  5
13FA4
330
A
100
AcDbEntity
  8
LEVEL001
  6
Continuous
 62
     6
370
    15
100
AcDbLine
 10
296.0607078194598
 20
644.1923554515001
 30
0.0
 11
356.0607078194598
 21
644.1923554515001
 31
0.0
  0
LINE
  5
13FA5
330
A
100
AcDbEntity
  8
LEVEL001
  6
Continuous
 62
     6
370
    15
100
AcDbLine
 10
296.0607078194598
 20
644.1923554515001
 30
0.0
 11
296.0607078194598
 21
648.1923554515001
 31
0.0
  0
LINE
  5
13FA6
330
A
100
AcDbEntity
  8
LEVEL001
  6
Continuous
 62
     6
370
    15
100
AcDbLine
 10
356.0607078194598
 20
623.937607758
 30
0.0
 11
356.0607078194598
 21
648.1923554515001
 31
0.0
  0
CIRCLE
  5
13FA7
330
A
100
AcDbEntity
  8
LEVEL001
  6
Continuous
 62
     6
370
    15
100
AcDbCircle
 10
296.0607078194598
 20
644.1923554515001
 30
0.0
 40
0.8
  0
CIRCLE
  5
13FA8
330
A
100
AcDbEntity
  8
LEVEL001
  6
Continuous
 62
     6
370
    15
100
AcDbCircle
 10
356.0607078194598
 20
644.1923554515001
 30
0.0
 40
0.8
  0
TEXT
  5
13FA9
330
A
100
AcDbEntity
  8
LEVEL001
 62
     6
370
    15
100
AcDbText
 10
317.0607078194598
 20
646.1923554515001
 30
0.0
 40
10.0
  1
６０
 41
0.8
100
AcDbText
  0
LINE
  5
13FAA
330
A
100
AcDbEntity
  8
LEVEL001
  6
Continuous
 62
     6
370
    15
100
AcDbLine
 10
491.5890383544701
 20
339.4923554515999
 30
0.0
 11
491.5890383544701
 21
405.4923554515998
 31
0.0
  0
LINE
  5
13FAB
330
A
100
AcDbEntity
  8
LEVEL001
  6
Continuous
 62
     6
370
    15
100
AcDbLine
 10
359.3744163185101
 20
339.4923554515999
 30
0.0
 11
495.5890383544701
 21
339.4923554515999
 31
0.0
  0
CIRCLE
  5
13FAC
330
A
100
AcDbEntity
  8
LEVEL001
  6
Continuous
 62
     6
370
    15
100
AcDbCircle
 10
491.5890383544701
 20
339.4923554515999
 30
0.0
 40
0.8
  0
TEXT
  5
13FAD
330
A
100
AcDbEntity
  8
LEVEL001
 62
     6
370
    15
100
AcDbText
 10
487.5890383544701
 20
361.4923554515999
 30
0.0
 40
12.0
  1
６６
 50
90.0
 41
0.8
100
AcDbText
  0
LINE
  5
13FAE
330
A
100
AcDbEntity
  8
LEVEL001
  6
Continuous
 62
     6
370
    15
100
AcDbLine
 10
491.5890383544701
 20
405.4923554515998
 30
0.0
 11
491.5890383544701
 21
555.4923554515998
 31
0.0
  0
LINE
  5
13FAF
330
A
100
AcDbEntity
  8
LEVEL001
  6
Continuous
 62
     6
370
    15
100
AcDbLine
 10
415.0607078194598
 20
405.4923554515998
 30
0.0
 11
495.5890383544701
 21
405.4923554515998
 31
0.0
  0
LINE
  5
13FB0
330
A
100
AcDbEntity
  8
LEVEL001
  6
Continuous
 62
     6
370
    15
100
AcDbLine
 10
415.0607078194598
 20
555.4923554515998
 30
0.0
 11
495.5890383544701
 21
555.4923554515998
 31
0.0
  0
CIRCLE
  5
13FB1
330
A
100
AcDbEntity
  8
LEVEL001
  6
Continuous
 62
     6
370
    15
100
AcDbCircle
 10
491.5890383544701
 20
405.4923554515998
 30
0.0
 40
0.8
  0
CIRCLE
  5
13FB2
330
A
100
AcDbEntity
  8
LEVEL001
  6
Continuous
 62
     6
370
    15
100
AcDbCircle
 10
491.5890383544701
 20
555.4923554515998
 30
0.0
 40
0.8
  0
TEXT
  5
13FB3
330
A
100
AcDbEntity
  8
LEVEL001
 62
     6
370
    15
100
AcDbText
 10
487.5890383544701
 20
464.4923554515998
 30
0.0
 40
12.0
  1
１５０
 50
90.0
 41
0.8
100
AcDbText
  0
LWPOLYLINE
  5
13FB4
330
A
100
AcDbEntity
  8
LEVEL001
  6
Continuous
 62
     6
370
    15
100
AcDbPolyline
 90
        3
 70
     0
 43
0.0
 10
382.7444007668601
 20
410.0854647483002
 10
405.9969374086604
 20
447.2513158713
 10
477.9969374086603
 20
447.2513158713
  0
CIRCLE
  5
13FB5
330
A
100
AcDbEntity
  8
LEVEL001
  6
Continuous
 62
     6
370
    15
100
AcDbCircle
 10
382.7444007668601
 20
410.0854647483002
 30
0.0
 40
0.8
  0
TEXT
  5
13FB6
330
A
100
AcDbEntity
  8
LEVEL001
 62
     6
370
    15
100
AcDbText
 10
405.9969374086604
 20
449.2513158712999
 30
0.0
 40
12.0
  1
笠木(楕円型)
 41
0.8
100
AcDbText
  0
LWPOLYLINE
  5
13FB7
330
A
100
AcDbEntity
  8
LEVEL001
  6
Continuous
 62
     6
370
    15
100
AcDbPolyline
 90
        3
 70
     0
 43
0.0
 10
365.5240888618901
 20
559.7859554277001
 10
388.7766255036904
 20
596.9518065506999
 10
460.7766255036904
 20
596.9518065506999
  0
CIRCLE
  5
13FB8
330
A
100
AcDbEntity
  8
LEVEL001
  6
Continuous
 62
     6
370
    15
100
AcDbCircle
 10
365.5240888618901
 20
559.7859554277001
 30
0.0
 40
0.8
  0
TEXT
  5
13FB9
330
A
100
AcDbEntity
  8
LEVEL001
 62
     6
370
    15
100
AcDbText
 10
388.7766255036904
 20
598.9518065507
 30
0.0
 40
12.0
  1
笠木(楕円型)
 41
0.8
100
AcDbText
  0
LINE
  5
13FBA
330
A
100
AcDbEntity
  8
LEVEL001
  6
Continuous
 62
     6
370
    15
100
AcDbLine
 10
355.8107078195499
 20
454.1923554515001
 30
0.0
 11
396.3107078195499
 21
454.1923554515001
 31
0.0
  0
LINE
  5
13FBB
330
A
100
AcDbEntity
  8
LEVEL001
  6
Continuous
 62
     6
370
    15
100
AcDbLine
 10
355.8107078195499
 20
401.4923554515998
 30
0.0
 11
355.8107078195499
 21
458.1923554515001
 31
0.0
  0
LINE
  5
13FBC
330
A
100
AcDbEntity
  8
LEVEL001
  6
Continuous
 62
     6
370
    15
100
AcDbLine
 10
396.3107078195499
 20
401.4923554515998
 30
0.0
 11
396.3107078195499
 21
458.1923554515001
 31
0.0
  0
CIRCLE
  5
13FBD
330
A
100
AcDbEntity
  8
LEVEL001
  6
Continuous
 62
     6
370
    15
100
AcDbCircle
 10
355.8107078195499
 20
454.1923554515001
 30
0.0
 40
0.8
  0
CIRCLE
  5
13FBE
330
A
100
AcDbEntity
  8
LEVEL001
  6
Continuous
 62
     6
370
    15
100
AcDbCircle
 10
396.3107078195499
 20
454.1923554515001
 30
0.0
 40
0.8
  0
TEXT
  5
13FBF
330
A
100
AcDbEntity
  8
LEVEL001
 62
     6
370
    15
100
AcDbText
 10
367.0607078195498
 20
456.1923554515001
 30
0.0
 40
10.0
  1
４０
 41
0.8
100
AcDbText
  0
LINE
  5
13FC0
330
A
100
AcDbEntity
  8
LEVEL001
  6
Continuous
 62
     6
370
    15
100
AcDbLine
 10
335.8107078195498
 20
604.1923554515001
 30
0.0
 11
376.3107078195499
 21
604.1923554515001
 31
0.0
  0
LINE
  5
13FC1
330
A
100
AcDbEntity
  8
LEVEL001
  6
Continuous
 62
     6
370
    15
100
AcDbLine
 10
335.8107078195498
 20
551.4923554515998
 30
0.0
 11
335.8107078195498
 21
608.1923554515001
 31
0.0
  0
LINE
  5
13FC2
330
A
100
AcDbEntity
  8
LEVEL001
  6
Continuous
 62
     6
370
    15
100
AcDbLine
 10
376.3107078195499
 20
551.4923554515998
 30
0.0
 11
376.3107078195499
 21
608.1923554515001
 31
0.0
  0
CIRCLE
  5
13FC3
330
A
100
AcDbEntity
  8
LEVEL001
  6
Continuous
 62
     6
370
    15
100
AcDbCircle
 10
335.8107078195498
 20
604.1923554515001
 30
0.0
 40
0.8
  0
CIRCLE
  5
13FC4
330
A
100
AcDbEntity
  8
LEVEL001
  6
Continuous
 62
     6
370
    15
100
AcDbCircle
 10
376.3107078195499
 20
604.1923554515001
 30
0.0
 40
0.8
  0
TEXT
  5
13FC5
330
A
100
AcDbEntity
  8
LEVEL001
 62
     6
370
    15
100
AcDbText
 10
347.0607078195499
 20
606.1923554515001
 30
0.0
 40
10.0
  1
４０
 41
0.8
100
AcDbText
  0
LINE
  5
13FC6
330
A
100
AcDbEntity
  8
LEVEL001
  6
Continuous
 62
     6
370
    15
100
AcDbLine
 10
439.3178506766098
 20
555.4923554515998
 30
0.0
 11
439.3178506766098
 21
579.5246524405001
 31
0.0
  0
LINE
  5
13FC7
330
A
100
AcDbEntity
  8
LEVEL001
  6
Continuous
 62
     6
370
    15
100
AcDbLine
 10
365.6607078194602
 20
555.4923554515998
 30
0.0
 11
443.3178506766098
 21
555.4923554515998
 31
0.0
  0
LINE
  5
13FC8
330
A
100
AcDbEntity
  8
LEVEL001
  6
Continuous
 62
     6
370
    15
100
AcDbLine
 10
360.0607078194598
 20
564.4923554515998
 30
0.0
 11
443.3178506766098
 21
564.4923554515998
 31
0.0
  0
CIRCLE
  5
13FC9
330
A
100
AcDbEntity
  8
LEVEL001
  6
Continuous
 62
     6
370
    15
100
AcDbCircle
 10
439.3178506766098
 20
555.4923554515998
 30
0.0
 40
0.8
  0
CIRCLE
  5
13FCA
330
A
100
AcDbEntity
  8
LEVEL001
  6
Continuous
 62
     6
370
    15
100
AcDbCircle
 10
439.3178506766098
 20
564.4923554515998
 30
0.0
 40
0.8
  0
TEXT
  5
13FCB
330
A
100
AcDbEntity
  8
LEVEL001
 62
     6
370
    15
100
AcDbText
 10
435.75836767304
 20
567.5246524405001
 30
0.0
 40
12.0
  1
９
 50
90.0
 41
0.8
100
AcDbText
  0
LINE
  5
13FCC
330
A
100
AcDbEntity
  8
LEVEL001
  6
Continuous
 62
     6
370
    15
100
AcDbLine
 10
444.4607078194604
 20
405.4923554515998
 30
0.0
 11
444.4607078194604
 21
428.3161825493998
 31
0.0
  0
LINE
  5
13FCD
330
A
100
AcDbEntity
  8
LEVEL001
  6
Continuous
 62
     6
370
    15
100
AcDbLine
 10
385.6607078194602
 20
405.4923554515998
 30
0.0
 11
448.4607078194604
 21
405.4923554515998
 31
0.0
  0
LINE
  5
13FCE
330
A
100
AcDbEntity
  8
LEVEL001
  6
Continuous
 62
     6
370
    15
100
AcDbLine
 10
380.0607078194598
 20
414.4923554515998
 30
0.0
 11
448.4607078194604
 21
414.4923554515998
 31
0.0
  0
CIRCLE
  5
13FCF
330
A
100
AcDbEntity
  8
LEVEL001
  6
Continuous
 62
     6
370
    15
100
AcDbCircle
 10
444.4607078194604
 20
405.4923554515998
 30
0.0
 40
0.8
  0
CIRCLE
  5
13FD0
330
A
100
AcDbEntity
  8
LEVEL001
  6
Continuous
 62
     6
370
    15
100
AcDbCircle
 10
444.4607078194604
 20
414.4923554515998
 30
0.0
 40
0.8
  0
TEXT
  5
13FD1
330
A
100
AcDbEntity
  8
LEVEL001
 62
     6
370
    15
100
AcDbText
 10
440.0018233294795
 20
416.3161825493999
 30
0.0
 40
12.0
  1
９
 50
90.0
 41
0.8
100
AcDbText
  0
LINE
  5
13FD2
330
A
100
AcDbEntity
  8
LEVEL001
  6
Continuous
 62
     6
370
    15
100
AcDbLine
 10
939.5117273400702
 20
644.1923554515001
 30
0.0
 11
692.2429559608099
 21
644.1923554515001
 31
0.0
  0
CIRCLE
  5
13FD3
330
A
100
AcDbEntity
  8
LEVEL001
  6
Continuous
 62
     6
370
    15
100
AcDbCircle
 10
939.5117273400702
 20
644.1923554515001
 30
0.0
 40
0.8
  0
LWPOLYLINE
  5
13FD4
330
A
100
AcDbEntity
  8
LEVEL001
  6
Continuous
 62
     6
370
    15
100
AcDbPolyline
 90
        4
 70
     0
 43
0.0
 10
700.2429559608099
 20
643.1391354707998
 10
692.2429559608099
 20
644.1923554515001
 10
700.2429559608099
 20
645.2455754322
 10
700.2429559608099
 20
643.1391354707998
  0
TEXT
  5
13FD5
330
A
100
AcDbEntity
  8
LEVEL001
 62
     6
370
    15
100
AcDbText
 10
789.87734165044
 20
646.1923554515001
 30
0.0
 40
12.0
  1
＠≦９００
 41
0.8
100
AcDbText
  0
LINE
  5
14047
330
A
100
AcDbEntity
  8
LEVEL001
  6
HIDDEN
 62
     2
370
    15
100
AcDbLine
 10
305.36070781946
 20
382.8923554516
 30
0.0
 11
304.1607078194602
 21
382.8923554516
 31
0.0
  0
LINE
  5
14048
330
A
100
AcDbEntity
  8
LEVEL001
  6
HIDDEN
 62
     2
370
    15
100
AcDbLine
 10
305.36070781946
 20
472.8923554516
 30
0.0
 11
304.1607078194602
 21
472.8923554516
 31
0.0
  0
LINE
  5
1405A
330
A
100
AcDbEntity
  8
LEVEL001
  6
HIDDEN
 62
     2
 48
0.5
370
    15
100
AcDbLine
 10
314.86070781946
 20
466.6923554516097
 30
0.0
 11
314.86070781946
 21
460.2923554516096
 31
0.0
  0
LINE
  5
1405B
330
A
100
AcDbEntity
  8
LEVEL001
  6
HIDDEN
 62
     2
 48
0.5
370
    15
100
AcDbLine
 10
314.0607078194598
 20
459.4923554516099
 30
0.0
 11
314.0607078194598
 21
467.4923554516099
 31
0.0
  0
LINE
  5
1405C
330
A
100
AcDbEntity
  8
LEVEL001
  6
HIDDEN
 62
     2
 48
0.5
370
    15
100
AcDbLine
 10
314.86070781946
 20
460.2923554516096
 30
0.0
 11
311.36070781946
 21
460.2923554516096
 31
0.0
  0
LINE
  5
1405D
330
A
100
AcDbEntity
  8
LEVEL001
  6
HIDDEN
 62
     2
 48
0.5
370
    15
100
AcDbLine
 10
314.0607078194598
 20
459.4923554516099
 30
0.0
 11
311.36070781946
 21
459.4923554516099
 31
0.0
  0
LINE
  5
1405E
330
A
100
AcDbEntity
  8
LEVEL001
  6
HIDDEN
 62
     2
 48
0.5
370
    15
100
AcDbLine
 10
314.86070781946
 20
460.2923554516096
 30
0.0
 11
314.0607078194598
 21
459.4923554516099
 31
0.0
  0
LINE
  5
1405F
330
A
100
AcDbEntity
  8
LEVEL001
  6
HIDDEN
 62
     2
 48
0.5
370
    15
100
AcDbLine
 10
311.36070781946
 20
467.4923554516099
 30
0.0
 11
314.0607078194598
 21
467.4923554516099
 31
0.0
  0
LINE
  5
14060
330
A
100
AcDbEntity
  8
LEVEL001
  6
HIDDEN
 62
     2
 48
0.5
370
    15
100
AcDbLine
 10
311.36070781946
 20
466.6923554516097
 30
0.0
 11
314.86070781946
 21
466.6923554516097
 31
0.0
  0
LINE
  5
14061
330
A
100
AcDbEntity
  8
LEVEL001
  6
HIDDEN
 62
     2
 48
0.5
370
    15
100
AcDbLine
 10
314.0607078194598
 20
467.4923554516099
 30
0.0
 11
314.86070781946
 21
466.6923554516097
 31
0.0
  0
LINE
  5
14062
330
A
100
AcDbEntity
  8
LEVEL001
  6
HIDDEN
 62
     2
 48
0.5
370
    15
100
AcDbLine
 10
314.86070781946
 20
376.6923554516097
 30
0.0
 11
314.86070781946
 21
370.2923554516096
 31
0.0
  0
LINE
  5
14063
330
A
100
AcDbEntity
  8
LEVEL001
  6
HIDDEN
 62
     2
 48
0.5
370
    15
100
AcDbLine
 10
314.0607078194598
 20
369.4923554516099
 30
0.0
 11
314.0607078194598
 21
377.4923554516099
 31
0.0
  0
LINE
  5
14064
330
A
100
AcDbEntity
  8
LEVEL001
  6
HIDDEN
 62
     2
 48
0.5
370
    15
100
AcDbLine
 10
314.86070781946
 20
370.2923554516096
 30
0.0
 11
311.36070781946
 21
370.2923554516096
 31
0.0
  0
LINE
  5
14065
330
A
100
AcDbEntity
  8
LEVEL001
  6
HIDDEN
 62
     2
 48
0.5
370
    15
100
AcDbLine
 10
314.0607078194598
 20
369.4923554516099
 30
0.0
 11
311.36070781946
 21
369.4923554516099
 31
0.0
  0
LINE
  5
14066
330
A
100
AcDbEntity
  8
LEVEL001
  6
HIDDEN
 62
     2
 48
0.5
370
    15
100
AcDbLine
 10
314.86070781946
 20
370.2923554516096
 30
0.0
 11
314.0607078194598
 21
369.4923554516099
 31
0.0
  0
LINE
  5
14067
330
A
100
AcDbEntity
  8
LEVEL001
  6
HIDDEN
 62
     2
 48
0.5
370
    15
100
AcDbLine
 10
311.36070781946
 20
377.4923554516099
 30
0.0
 11
314.0607078194598
 21
377.4923554516099
 31
0.0
  0
LINE
  5
14068
330
A
100
AcDbEntity
  8
LEVEL001
  6
HIDDEN
 62
     2
 48
0.5
370
    15
100
AcDbLine
 10
311.36070781946
 20
376.6923554516097
 30
0.0
 11
314.86070781946
 21
376.6923554516097
 31
0.0
  0
LINE
  5
14069
330
A
100
AcDbEntity
  8
LEVEL001
  6
HIDDEN
 62
     2
 48
0.5
370
    15
100
AcDbLine
 10
314.0607078194598
 20
377.4923554516099
 30
0.0
 11
314.86070781946
 21
376.6923554516097
 31
0.0
  0
TEXT
  5
14355
330
A
100
AcDbEntity
  8
LEVEL001
 62
     8
100
AcDbText
 10
1532.2400000001
 20
190.666666666671
 30
0.0
 40
8.0
  1
平成３０年　７月１９日
 41
0.8
 72
     1
 11
1573.2000000001
 21
194.666666666671
 31
0.0
100
AcDbText
 73
     2
  0
TEXT
  5
14356
330
A
100
AcDbEntity
  8
LEVEL001
 62
     8
100
AcDbText
 10
1532.2400000001
 20
164.0000000000009
 30
0.0
 40
8.0
  1
平成　　年　　月　　日
 41
0.8
 72
     1
 11
1573.2000000001
 21
168.0000000000009
 31
0.0
100
AcDbText
 73
     2
  0
TEXT
  5
14357
330
A
100
AcDbEntity
  8
LEVEL001
 62
     8
100
AcDbText
 10
1501.4000000001
 20
80.5
 30
0.0
 40
15.0
  1
ＧＳＫ６－３
 41
0.8
 72
     1
 11
1543.0000000001
 21
88.0
 31
0.0
100
AcDbText
 73
     2
  0
TEXT
  5
14358
330
A
100
AcDbEntity
  8
LEVEL001
 62
     8
100
AcDbText
 10
1532.2400000001
 20
137.3333333333312
 30
0.0
 40
8.0
  1
平成　　年　　月　　日
 41
0.8
 72
     1
 11
1573.2000000001
 21
141.3333333333312
 31
0.0
100
AcDbText
 73
     2
  0
HATCH
  5
14359
330
A
100
AcDbEntity
  8
LEVEL001
  6
Continuous
100
AcDbHatch
 10
0.0
 20
0.0
 30
0.0
210
0.0
220
0.0
230
1.0
  2
ANSI31
 70
     0
 71
     0
 91
        9
 92
        7
 72
     1
 73
     1
 93
        8
 10
1576.9200000003
 20
1087.339999999991
 42
0.0
 10
1559.640000000299
 20
1087.339999999991
 42
1.0
 10
1559.640000000299
 20
1052.77999999999
 42
0.0
 10
1576.9200000003
 20
1052.77999999999
 42
0.0
 10
1576.9200000003
 20
1064.299999999991
 42
0.0
 10
1559.640000000299
 20
1064.299999999991
 42
-1.0
 10
1559.640000000299
 20
1075.81999999999
 42
0.0
 10
1576.9200000003
 20
1075.81999999999
 42
0.0
 97
        0
 92
        7
 72
     0
 73
     1
 93
       22
 10
1542.3600000003
 20
1087.339999999991
 10
1473.2400000003
 20
1087.339999999991
 10
1473.2400000003
 20
1075.81999999999
 10
1484.7600000003
 20
1075.81999999999
 10
1484.7600000003
 20
1064.299999999991
 10
1467.4800000003
 20
1064.299999999991
 10
1467.4800000003
 20
1087.339999999991
 10
1455.9600000003
 20
1087.339999999991
 10
1455.9600000003
 20
1052.77999999999
 10
1496.2800000003
 20
1052.77999999999
 10
1496.2800000003
 20
1075.81999999999
 10
1507.8000000003
 20
1075.81999999999
 10
1507.8000000003
 20
1052.77999999999
 10
1542.3600000003
 20
1052.77999999999
 10
1542.3600000003
 20
1064.299999999991
 10
1519.3200000003
 20
1064.299999999991
 10
1519.3200000003
 20
1067.179999999991
 10
1539.480000000299
 20
1067.179999999991
 10
1539.480000000299
 20
1072.939999999991
 10
1519.3200000003
 20
1072.939999999991
 10
1519.3200000003
 20
1075.81999999999
 10
1542.3600000003
 20
1075.81999999999
 97
        0
 92
       23
 72
     0
 73
     1
 93
        3
 10
1452.1200000003
 20
1074.657341551091
 10
1437.5351056329
 20
1052.77999999999
 10
1452.1200000003
 20
1052.77999999999
 97
        0
 92
        7
 72
     0
 73
     1
 93
        4
 10
1455.9600000003
 20
1087.339999999991
 10
1438.6800000003
 20
1087.339999999991
 10
1415.640000000299
 20
1052.77999999999
 10
1432.9200000003
 20
1052.77999999999
 97
        0
 92
        7
 72
     1
 73
     1
 93
        6
 10
1409.8800000003
 20
1087.339999999991
 42
0.0
 10
1386.8400000003
 20
1087.339999999991
 42
0.0
 10
1386.8400000003
 20
1052.77999999999
 42
0.0
 10
1398.3600000003
 20
1052.77999999999
 42
0.0
 10
1398.3600000003
 20
1058.539999999991
 42
0.0
 10
1409.8800000003
 20
1058.539999999991
 42
1.0
 97
        0
 92
       22
 72
     1
 73
     1
 93
        4
 10
1409.8800000003
 20
1070.059999999991
 42
0.0
 10
1398.3600000003
 20
1070.059999999991
 42
0.0
 10
1398.3600000003
 20
1075.81999999999
 42
0.0
 10
1409.8800000003
 20
1075.819999999991
 42
-1.0
 97
        0
 92
        7
 72
     0
 73
     1
 93
        3
 10
1375.3200000003
 20
1083.499999999991
 10
1360.9200000003
 20
1083.499999999991
 10
1375.3200000003
 20
1060.459999999991
 97
        0
 92
        7
 72
     0
 73
     1
 93
        6
 10
1372.7600000003
 20
1114.219999999991
 10
1355.4800000003
 20
1114.219999999991
 10
1335.0000000003
 20
1083.499999999991
 10
1355.4800000003
 20
1052.77999999999
 10
1372.7600000003
 20
1052.77999999999
 10
1352.2800000003
 20
1083.499999999991
 97
        0
 92
        7
 72
     0
 73
     1
 93
        6
 10
1346.8400000003
 20
1114.219999999991
 10
1329.5600000003
 20
1114.219999999991
 10
1309.0800000003
 20
1083.499999999991
 10
1329.5600000003
 20
1052.77999999999
 10
1346.8400000003
 20
1052.77999999999
 10
1326.3600000003
 20
1083.499999999991
 97
        0
 75
     1
 76
     1
 52
0.0
 41
1.0
 77
     0
 78
     1
 53
45.0
 43
0.0
 44
-0.0000000000090949
 45
-0.0883883476483184
 46
0.0883883476483185
 79
     0
 47
0.3942339837251763
 98
        9
 10
1560.503682650167
 20
1083.514472919056
 10
1519.867685341247
 20
1082.726005559523
 10
1445.697116532407
 20
1057.4950306923
 10
1435.439489327917
 20
1065.773937967386
 10
1416.896828905148
 20
1068.927807405516
 10
1416.896828905148
 20
1068.927807405516
 10
1367.186775359907
 20
1079.17790244163
 10
1357.718207614576
 20
1104.803110988619
 10
1331.285061923656
 20
1108.351214106513
1001
GradientColor1ACI
1070
     5
1001
GradientColor2ACI
1070
     2
1001
ACAD
1010
0.0
1020
0.0
1030
0.0
  0
LWPOLYLINE
  5
1435A
330
A
100
AcDbEntity
  8
LEVEL001
  6
Continuous
 62
     3
100
AcDbPolyline
 90
        6
 70
     0
 43
0.0
 10
1409.8800000003
 20
1087.339999999991
 10
1386.8400000003
 20
1087.339999999991
 10
1386.8400000003
 20
1052.77999999999
 10
1398.3600000003
 20
1052.77999999999
 10
1398.3600000003
 20
1058.539999999991
 10
1409.8800000003
 20
1058.539999999991
  0
ARC
  5
1435B
330
A
100
AcDbEntity
  8
LEVEL001
  6
Continuous
 62
     3
100
AcDbCircle
 10
1409.8800000003
 20
1072.939999999991
 30
0.0
 40
14.4
100
AcDbArc
 50
270.0
 51
90.0
  0
LINE
  5
1435C
330
A
100
AcDbEntity
  8
LEVEL001
  6
Continuous
 62
     3
100
AcDbLine
 10
1398.3600000003
 20
1070.059999999991
 30
0.0
 11
1409.8800000003
 21
1070.059999999991
 31
0.0
  0
ARC
  5
1435D
330
A
100
AcDbEntity
  8
LEVEL001
  6
Continuous
 62
     3
100
AcDbCircle
 10
1409.8800000003
 20
1072.939999999991
 30
0.0
 40
2.879999999999999
100
AcDbArc
 50
270.0
 51
90.0
  0
LINE
  5
1435E
330
A
100
AcDbEntity
  8
LEVEL001
  6
Continuous
 62
     3
100
AcDbLine
 10
1409.8800000003
 20
1075.81999999999
 30
0.0
 11
1398.3600000003
 21
1075.81999999999
 31
0.0
  0
LINE
  5
1435F
330
A
100
AcDbEntity
  8
LEVEL001
  6
Continuous
 62
     3
100
AcDbLine
 10
1398.3600000003
 20
1075.81999999999
 30
0.0
 11
1398.3600000003
 21
1070.059999999991
 31
0.0
  0
LWPOLYLINE
  5
14360
330
A
100
AcDbEntity
  8
LEVEL001
  6
Continuous
 62
     3
100
AcDbPolyline
 90
       26
 70
     0
 43
0.0
 10
1415.640000000299
 20
1052.77999999999
 10
1438.6800000003
 20
1087.339999999991
 10
1467.4800000003
 20
1087.339999999991
 10
1467.4800000003
 20
1064.299999999991
 10
1484.7600000003
 20
1064.299999999991
 10
1484.7600000003
 20
1075.81999999999
 10
1473.2400000003
 20
1075.81999999999
 10
1473.2400000003
 20
1087.339999999991
 10
1542.3600000003
 20
1087.339999999991
 10
1542.3600000003
 20
1075.81999999999
 10
1519.3200000003
 20
1075.81999999999
 10
1519.3200000003
 20
1072.939999999991
 10
1539.480000000299
 20
1072.939999999991
 10
1539.480000000299
 20
1067.179999999991
 10
1519.3200000003
 20
1067.179999999991
 10
1519.3200000003
 20
1064.299999999991
 10
1542.3600000003
 20
1064.299999999991
 10
1542.3600000003
 20
1052.77999999999
 10
1507.8000000003
 20
1052.77999999999
 10
1507.8000000003
 20
1075.81999999999
 10
1496.2800000003
 20
1075.81999999999
 10
1496.2800000003
 20
1052.77999999999
 10
1455.9600000003
 20
1052.77999999999
 10
1455.9600000003
 20
1087.339999999991
 10
1432.9200000003
 20
1052.77999999999
 10
1415.640000000299
 20
1052.77999999999
  0
LWPOLYLINE
  5
14361
330
A
100
AcDbEntity
  8
LEVEL001
  6
Continuous
 62
     3
100
AcDbPolyline
 90
        4
 70
     0
 43
0.0
 10
1452.1200000003
 20
1074.657341551091
 10
1437.5351056329
 20
1052.77999999999
 10
1452.1200000003
 20
1052.77999999999
 10
1452.1200000003
 20
1074.657341551091
  0
ARC
  5
14362
330
A
100
AcDbEntity
  8
LEVEL001
  6
Continuous
 62
     3
100
AcDbCircle
 10
1559.640000000299
 20
1070.059999999991
 30
0.0
 40
17.28
100
AcDbArc
 50
90.0
 51
270.0
  0
ARC
  5
14363
330
A
100
AcDbEntity
  8
LEVEL001
  6
Continuous
 62
     3
100
AcDbCircle
 10
1559.640000000299
 20
1070.059999999991
 30
0.0
 40
5.759999999999999
100
AcDbArc
 50
90.0
 51
270.0
  0
LWPOLYLINE
  5
14364
330
A
100
AcDbEntity
  8
LEVEL001
  6
Continuous
 62
     3
100
AcDbPolyline
 90
        4
 70
     0
 43
0.0
 10
1559.640000000299
 20
1087.339999999991
 10
1576.9200000003
 20
1087.339999999991
 10
1576.9200000003
 20
1075.81999999999
 10
1559.640000000299
 20
1075.81999999999
  0
LINE
  5
14365
330
A
100
AcDbEntity
  8
LEVEL001
  6
Continuous
 62
     3
100
AcDbLine
 10
1386.8400000003
 20
1087.339999999991
 30
0.0
 11
1386.8400000003
 21
1052.77999999999
 31
0.0
  0
LINE
  5
14366
330
A
100
AcDbEntity
  8
LEVEL001
  6
Continuous
 62
     3
100
AcDbLine
 10
1386.8400000003
 20
1052.77999999999
 30
0.0
 11
1398.3600000003
 21
1052.77999999999
 31
0.0
  0
LINE
  5
14367
330
A
100
AcDbEntity
  8
LEVEL001
  6
Continuous
 62
     3
100
AcDbLine
 10
1398.3600000003
 20
1052.77999999999
 30
0.0
 11
1398.3600000003
 21
1058.539999999991
 31
0.0
  0
LINE
  5
14368
330
A
100
AcDbEntity
  8
LEVEL001
  6
Continuous
 62
     3
100
AcDbLine
 10
1398.3600000003
 20
1058.539999999991
 30
0.0
 11
1409.8800000003
 21
1058.539999999991
 31
0.0
  0
ARC
  5
14369
330
A
100
AcDbEntity
  8
LEVEL001
  6
Continuous
 62
     3
100
AcDbCircle
 10
1409.8800000003
 20
1072.939999999991
 30
0.0
 40
14.4
100
AcDbArc
 50
270.0
 51
90.0
  0
LINE
  5
1436A
330
A
100
AcDbEntity
  8
LEVEL001
  6
Continuous
 62
     3
100
AcDbLine
 10
1409.8800000003
 20
1087.339999999991
 30
0.0
 11
1386.8400000003
 21
1087.339999999991
 31
0.0
  0
LINE
  5
1436B
330
A
100
AcDbEntity
  8
LEVEL001
  6
Continuous
 62
     3
100
AcDbLine
 10
1398.3600000003
 20
1075.81999999999
 30
0.0
 11
1398.3600000003
 21
1070.059999999991
 31
0.0
  0
LINE
  5
1436C
330
A
100
AcDbEntity
  8
LEVEL001
  6
Continuous
 62
     3
100
AcDbLine
 10
1398.3600000003
 20
1070.059999999991
 30
0.0
 11
1409.8800000003
 21
1070.059999999991
 31
0.0
  0
ARC
  5
1436D
330
A
100
AcDbEntity
  8
LEVEL001
  6
Continuous
 62
     3
100
AcDbCircle
 10
1409.8800000003
 20
1072.939999999991
 30
0.0
 40
2.879999999999999
100
AcDbArc
 50
270.0
 51
90.0
  0
LINE
  5
1436E
330
A
100
AcDbEntity
  8
LEVEL001
  6
Continuous
 62
     3
100
AcDbLine
 10
1409.8800000003
 20
1075.81999999999
 30
0.0
 11
1398.3600000003
 21
1075.81999999999
 31
0.0
  0
LINE
  5
1436F
330
A
100
AcDbEntity
  8
LEVEL001
  6
Continuous
 62
     3
100
AcDbLine
 10
1438.6800000003
 20
1087.339999999991
 30
0.0
 11
1415.640000000299
 21
1052.77999999999
 31
0.0
  0
LINE
  5
14370
330
A
100
AcDbEntity
  8
LEVEL001
  6
Continuous
 62
     3
100
AcDbLine
 10
1415.640000000299
 20
1052.77999999999
 30
0.0
 11
1432.9200000003
 21
1052.77999999999
 31
0.0
  0
LINE
  5
14371
330
A
100
AcDbEntity
  8
LEVEL001
  6
Continuous
 62
     3
100
AcDbLine
 10
1432.9200000003
 20
1052.77999999999
 30
0.0
 11
1455.9600000003
 21
1087.339999999991
 31
0.0
  0
LINE
  5
14372
330
A
100
AcDbEntity
  8
LEVEL001
  6
Continuous
 62
     3
100
AcDbLine
 10
1455.9600000003
 20
1087.339999999991
 30
0.0
 11
1438.6800000003
 21
1087.339999999991
 31
0.0
  0
LINE
  5
14373
330
A
100
AcDbEntity
  8
LEVEL001
  6
Continuous
 62
     3
100
AcDbLine
 10
1452.1200000003
 20
1052.77999999999
 30
0.0
 11
1452.1200000003
 21
1074.657341551091
 31
0.0
  0
LINE
  5
14374
330
A
100
AcDbEntity
  8
LEVEL001
  6
Continuous
 62
     3
100
AcDbLine
 10
1452.1200000003
 20
1074.657341551091
 30
0.0
 11
1437.5351056329
 21
1052.77999999999
 31
0.0
  0
LINE
  5
14375
330
A
100
AcDbEntity
  8
LEVEL001
  6
Continuous
 62
     3
100
AcDbLine
 10
1437.5351056329
 20
1052.77999999999
 30
0.0
 11
1452.1200000003
 21
1052.77999999999
 31
0.0
  0
LINE
  5
14376
330
A
100
AcDbEntity
  8
LEVEL001
  6
Continuous
 62
     3
100
AcDbLine
 10
1455.9600000003
 20
1052.77999999999
 30
0.0
 11
1496.2800000003
 21
1052.77999999999
 31
0.0
  0
LINE
  5
14377
330
A
100
AcDbEntity
  8
LEVEL001
  6
Continuous
 62
     3
100
AcDbLine
 10
1496.2800000003
 20
1052.77999999999
 30
0.0
 11
1496.2800000003
 21
1075.81999999999
 31
0.0
  0
LINE
  5
14378
330
A
100
AcDbEntity
  8
LEVEL001
  6
Continuous
 62
     3
100
AcDbLine
 10
1496.2800000003
 20
1075.81999999999
 30
0.0
 11
1507.8000000003
 21
1075.81999999999
 31
0.0
  0
LINE
  5
14379
330
A
100
AcDbEntity
  8
LEVEL001
  6
Continuous
 62
     3
100
AcDbLine
 10
1507.8000000003
 20
1075.81999999999
 30
0.0
 11
1507.8000000003
 21
1052.77999999999
 31
0.0
  0
LINE
  5
1437A
330
A
100
AcDbEntity
  8
LEVEL001
  6
Continuous
 62
     3
100
AcDbLine
 10
1507.8000000003
 20
1052.77999999999
 30
0.0
 11
1542.3600000003
 21
1052.77999999999
 31
0.0
  0
LINE
  5
1437B
330
A
100
AcDbEntity
  8
LEVEL001
  6
Continuous
 62
     3
100
AcDbLine
 10
1542.3600000003
 20
1052.77999999999
 30
0.0
 11
1542.3600000003
 21
1064.299999999991
 31
0.0
  0
LINE
  5
1437C
330
A
100
AcDbEntity
  8
LEVEL001
  6
Continuous
 62
     3
100
AcDbLine
 10
1542.3600000003
 20
1064.299999999991
 30
0.0
 11
1519.3200000003
 21
1064.299999999991
 31
0.0
  0
LINE
  5
1437D
330
A
100
AcDbEntity
  8
LEVEL001
  6
Continuous
 62
     3
100
AcDbLine
 10
1519.3200000003
 20
1064.299999999991
 30
0.0
 11
1519.3200000003
 21
1067.179999999991
 31
0.0
  0
LINE
  5
1437E
330
A
100
AcDbEntity
  8
LEVEL001
  6
Continuous
 62
     3
100
AcDbLine
 10
1519.3200000003
 20
1067.179999999991
 30
0.0
 11
1539.480000000299
 21
1067.179999999991
 31
0.0
  0
LINE
  5
1437F
330
A
100
AcDbEntity
  8
LEVEL001
  6
Continuous
 62
     3
100
AcDbLine
 10
1539.480000000299
 20
1067.179999999991
 30
0.0
 11
1539.480000000299
 21
1072.939999999991
 31
0.0
  0
LINE
  5
14380
330
A
100
AcDbEntity
  8
LEVEL001
  6
Continuous
 62
     3
100
AcDbLine
 10
1539.480000000299
 20
1072.939999999991
 30
0.0
 11
1519.3200000003
 21
1072.939999999991
 31
0.0
  0
LINE
  5
14381
330
A
100
AcDbEntity
  8
LEVEL001
  6
Continuous
 62
     3
100
AcDbLine
 10
1519.3200000003
 20
1072.939999999991
 30
0.0
 11
1519.3200000003
 21
1075.81999999999
 31
0.0
  0
LINE
  5
14382
330
A
100
AcDbEntity
  8
LEVEL001
  6
Continuous
 62
     3
100
AcDbLine
 10
1519.3200000003
 20
1075.81999999999
 30
0.0
 11
1542.3600000003
 21
1075.81999999999
 31
0.0
  0
LINE
  5
14383
330
A
100
AcDbEntity
  8
LEVEL001
  6
Continuous
 62
     3
100
AcDbLine
 10
1542.3600000003
 20
1075.81999999999
 30
0.0
 11
1542.3600000003
 21
1087.339999999991
 31
0.0
  0
LINE
  5
14384
330
A
100
AcDbEntity
  8
LEVEL001
  6
Continuous
 62
     3
100
AcDbLine
 10
1542.3600000003
 20
1087.339999999991
 30
0.0
 11
1473.2400000003
 21
1087.339999999991
 31
0.0
  0
LINE
  5
14385
330
A
100
AcDbEntity
  8
LEVEL001
  6
Continuous
 62
     3
100
AcDbLine
 10
1473.2400000003
 20
1087.339999999991
 30
0.0
 11
1473.2400000003
 21
1075.81999999999
 31
0.0
  0
LINE
  5
14386
330
A
100
AcDbEntity
  8
LEVEL001
  6
Continuous
 62
     3
100
AcDbLine
 10
1473.2400000003
 20
1075.81999999999
 30
0.0
 11
1484.7600000003
 21
1075.81999999999
 31
0.0
  0
LINE
  5
14387
330
A
100
AcDbEntity
  8
LEVEL001
  6
Continuous
 62
     3
100
AcDbLine
 10
1484.7600000003
 20
1075.81999999999
 30
0.0
 11
1484.7600000003
 21
1064.299999999991
 31
0.0
  0
LINE
  5
14388
330
A
100
AcDbEntity
  8
LEVEL001
  6
Continuous
 62
     3
100
AcDbLine
 10
1484.7600000003
 20
1064.299999999991
 30
0.0
 11
1467.4800000003
 21
1064.299999999991
 31
0.0
  0
LINE
  5
14389
330
A
100
AcDbEntity
  8
LEVEL001
  6
Continuous
 62
     3
100
AcDbLine
 10
1467.4800000003
 20
1064.299999999991
 30
0.0
 11
1467.4800000003
 21
1087.339999999991
 31
0.0
  0
LINE
  5
1438A
330
A
100
AcDbEntity
  8
LEVEL001
  6
Continuous
 62
     3
100
AcDbLine
 10
1467.4800000003
 20
1087.339999999991
 30
0.0
 11
1455.9600000003
 21
1087.339999999991
 31
0.0
  0
LINE
  5
1438B
330
A
100
AcDbEntity
  8
LEVEL001
  6
Continuous
 62
     3
100
AcDbLine
 10
1455.9600000003
 20
1087.339999999991
 30
0.0
 11
1455.9600000003
 21
1052.77999999999
 31
0.0
  0
LINE
  5
1438C
330
A
100
AcDbEntity
  8
LEVEL001
  6
Continuous
 62
     3
100
AcDbLine
 10
1559.640000000299
 20
1052.77999999999
 30
0.0
 11
1576.9200000003
 21
1052.77999999999
 31
0.0
  0
LINE
  5
1438D
330
A
100
AcDbEntity
  8
LEVEL001
  6
Continuous
 62
     3
100
AcDbLine
 10
1576.9200000003
 20
1052.77999999999
 30
0.0
 11
1576.9200000003
 21
1064.299999999991
 31
0.0
  0
LINE
  5
1438E
330
A
100
AcDbEntity
  8
LEVEL001
  6
Continuous
 62
     3
100
AcDbLine
 10
1576.9200000003
 20
1064.299999999991
 30
0.0
 11
1559.640000000299
 21
1064.299999999991
 31
0.0
  0
ARC
  5
1438F
330
A
100
AcDbEntity
  8
LEVEL001
  6
Continuous
 62
     3
100
AcDbCircle
 10
1559.640000000299
 20
1070.059999999991
 30
0.0
 40
5.759999999999999
100
AcDbArc
 50
90.0
 51
270.0
  0
LINE
  5
14390
330
A
100
AcDbEntity
  8
LEVEL001
  6
Continuous
 62
     3
100
AcDbLine
 10
1559.640000000299
 20
1075.81999999999
 30
0.0
 11
1576.9200000003
 21
1075.81999999999
 31
0.0
  0
LINE
  5
14391
330
A
100
AcDbEntity
  8
LEVEL001
  6
Continuous
 62
     3
100
AcDbLine
 10
1576.9200000003
 20
1075.81999999999
 30
0.0
 11
1576.9200000003
 21
1087.339999999991
 31
0.0
  0
LINE
  5
14392
330
A
100
AcDbEntity
  8
LEVEL001
  6
Continuous
 62
     3
100
AcDbLine
 10
1576.9200000003
 20
1087.339999999991
 30
0.0
 11
1559.640000000299
 21
1087.339999999991
 31
0.0
  0
ARC
  5
14393
330
A
100
AcDbEntity
  8
LEVEL001
  6
Continuous
 62
     3
100
AcDbCircle
 10
1559.640000000299
 20
1070.059999999991
 30
0.0
 40
17.28
100
AcDbArc
 50
90.0
 51
270.0
  0
TEXT
  5
14394
330
A
100
AcDbEntity
  8
LEVEL001
 62
     3
100
AcDbText
 10
1386.8400000003
 20
1093.099999999991
 30
0.0
 40
12.0
  1
ケージーパルテック株式会社
 41
0.8
100
AcDbText
  0
LWPOLYLINE
  5
14395
330
A
100
AcDbEntity
  8
LEVEL001
  6
Continuous
 62
     3
100
AcDbPolyline
 90
        4
 70
     0
 43
0.0
 10
1375.3200000003
 20
1060.459999999991
 10
1360.9200000003
 20
1083.499999999991
 10
1375.3200000003
 20
1083.499999999991
 10
1375.3200000003
 20
1060.459999999991
  0
LINE
  5
14396
330
A
100
AcDbEntity
  8
LEVEL001
  6
Continuous
 62
     3
100
AcDbLine
 10
1360.9200000003
 20
1083.499999999991
 30
0.0
 11
1375.3200000003
 21
1060.459999999991
 31
0.0
  0
LINE
  5
14397
330
A
100
AcDbEntity
  8
LEVEL001
  6
Continuous
 62
     3
100
AcDbLine
 10
1375.3200000003
 20
1060.459999999991
 30
0.0
 11
1375.3200000003
 21
1083.499999999991
 31
0.0
  0
LINE
  5
14398
330
A
100
AcDbEntity
  8
LEVEL001
  6
Continuous
 62
     3
100
AcDbLine
 10
1375.3200000003
 20
1083.499999999991
 30
0.0
 11
1360.9200000003
 21
1083.499999999991
 31
0.0
  0
LWPOLYLINE
  5
14399
330
A
100
AcDbEntity
  8
LEVEL001
  6
Continuous
 62
     3
100
AcDbPolyline
 90
        3
 70
     0
 43
0.0
 10
1329.5600000003
 20
1114.219999999991
 10
1309.0800000003
 20
1083.499999999991
 10
1329.5600000003
 20
1052.77999999999
  0
LWPOLYLINE
  5
1439A
330
A
100
AcDbEntity
  8
LEVEL001
  6
Continuous
 62
     3
100
AcDbPolyline
 90
        3
 70
     0
 43
0.0
 10
1346.8400000003
 20
1052.77999999999
 10
1326.3600000003
 20
1083.499999999991
 10
1346.8400000003
 20
1114.219999999991
  0
LWPOLYLINE
  5
1439B
330
A
100
AcDbEntity
  8
LEVEL001
  6
Continuous
 62
     3
100
AcDbPolyline
 90
        3
 70
     0
 43
0.0
 10
1355.4800000003
 20
1114.219999999991
 10
1335.0000000003
 20
1083.499999999991
 10
1355.4800000003
 20
1052.77999999999
  0
LWPOLYLINE
  5
1439C
330
A
100
AcDbEntity
  8
LEVEL001
  6
Continuous
 62
     3
100
AcDbPolyline
 90
        3
 70
     0
 43
0.0
 10
1372.7600000003
 20
1052.77999999999
 10
1352.2800000003
 20
1083.499999999991
 10
1372.7600000003
 20
1114.219999999991
  0
LWPOLYLINE
  5
1439D
330
A
100
AcDbEntity
  8
LEVEL001
  6
Continuous
 62
     3
100
AcDbPolyline
 90
        3
 70
     0
 43
0.0
 10
1329.5600000003
 20
1052.77999999999
 10
1309.0800000003
 20
1083.499999999991
 10
1329.5600000003
 20
1114.219999999991
  0
LINE
  5
1439E
330
A
100
AcDbEntity
  8
LEVEL001
  6
Continuous
 62
     3
100
AcDbLine
 10
1329.5600000003
 20
1114.219999999991
 30
0.0
 11
1346.8400000003
 21
1114.219999999991
 31
0.0
  0
LWPOLYLINE
  5
1439F
330
A
100
AcDbEntity
  8
LEVEL001
  6
Continuous
 62
     3
100
AcDbPolyline
 90
        3
 70
     0
 43
0.0
 10
1346.8400000003
 20
1114.219999999991
 10
1326.3600000003
 20
1083.499999999991
 10
1346.8400000003
 20
1052.77999999999
  0
LINE
  5
143A0
330
A
100
AcDbEntity
  8
LEVEL001
  6
Continuous
 62
     3
100
AcDbLine
 10
1346.8400000003
 20
1052.77999999999
 30
0.0
 11
1329.5600000003
 21
1052.77999999999
 31
0.0
  0
LWPOLYLINE
  5
143A1
330
A
100
AcDbEntity
  8
LEVEL001
  6
Continuous
 62
     3
100
AcDbPolyline
 90
        3
 70
     0
 43
0.0
 10
1355.4800000003
 20
1052.77999999999
 10
1335.0000000003
 20
1083.499999999991
 10
1355.4800000003
 20
1114.219999999991
  0
LINE
  5
143A2
330
A
100
AcDbEntity
  8
LEVEL001
  6
Continuous
 62
     3
100
AcDbLine
 10
1355.4800000003
 20
1114.219999999991
 30
0.0
 11
1372.7600000003
 21
1114.219999999991
 31
0.0
  0
LWPOLYLINE
  5
143A3
330
A
100
AcDbEntity
  8
LEVEL001
  6
Continuous
 62
     3
100
AcDbPolyline
 90
        3
 70
     0
 43
0.0
 10
1372.7600000003
 20
1114.219999999991
 10
1352.2800000003
 20
1083.499999999991
 10
1372.7600000003
 20
1052.77999999999
  0
LINE
  5
143A4
330
A
100
AcDbEntity
  8
LEVEL001
  6
Continuous
 62
     3
100
AcDbLine
 10
1372.7600000003
 20
1052.77999999999
 30
0.0
 11
1355.4800000003
 21
1052.77999999999
 31
0.0
  0
TEXT
  5
144A1
330
A
100
AcDbEntity
  8
LEVEL001
 62
     8
100
AcDbText
 10
1291.6658875373
 20
310.8270360248698
 30
0.0
 40
12.0
  1
※本製品は予告無しに変更する事があります。
 41
0.8
 72
     1
 11
1408.7858875373
 21
316.8270360248698
 31
0.0
100
AcDbText
 73
     2
  0
ENDSEC
  0
SECTION
  2
OBJECTS
  0
DICTIONARY
  5
3D
330
0
100
AcDbDictionary
281
     1
  3
ACAD_CIP_PREVIOUS_PRODUCT_INFO
350
3DF0
  3
ACAD_COLOR
350
37EF
  3
ACAD_GROUP
350
3E
  3
ACAD_LAYOUT
350
37F2
  3
ACAD_MATERIAL
350
37EE
  3
ACAD_MLEADERSTYLE
350
3DEB
  3
ACAD_MLINESTYLE
350
3F
  3
ACAD_PLOTSETTINGS
350
37F3
  3
ACAD_PLOTSTYLENAME
350
37EC
  3
ACAD_SCALELIST
350
3DD9
  3
ACAD_TABLESTYLE
350
37F0
  3
ACAD_VISUALSTYLE
350
3DC0
  3
ACDB_RECOMPOSE_DATA
350
1459D
  3
AcDbVariableDictionary
350
380C
  3
DWGPROPS
350
1459E
  0
DICTIONARY
  5
4CA3
330
68
100
AcDbDictionary
280
     1
281
     1
  3
ACAD_LAYERSTATES
360
4CA4
  0
DICTIONARY
  5
473F
330
38
100
AcDbDictionary
280
     1
281
     1
  3
ADSK_XREC_LAYER_RECONCILED
360
4740
  0
DICTIONARY
  5
4741
330
39
100
AcDbDictionary
280
     1
281
     1
  3
ADSK_XREC_LAYER_RECONCILED
360
4742
  0
DICTIONARY
  5
474C
330
474B
100
AcDbDictionary
280
     1
281
     1
  0
DICTIONARY
  5
474E
330
474D
100
AcDbDictionary
280
     1
281
     1
  0
DICTIONARY
  5
4750
330
474F
100
AcDbDictionary
280
     1
281
     1
  0
DICTIONARY
  5
4752
330
4751
100
AcDbDictionary
280
     1
281
     1
  0
DICTIONARY
  5
37FA
330
A
100
AcDbDictionary
280
     1
281
     1
  3
ACAD_SORTENTS
360
37FB
  0
XRECORD
  5
3DF0
102
{ACAD_REACTORS
330
3D
102
}
330
3D
100
AcDbXrecord
280
     1
300
ACDLT
300
2012
300
ACDLT_F_S
  0
DICTIONARY
  5
37EF
102
{ACAD_REACTORS
330
3D
102
}
330
3D
100
AcDbDictionary
281
     1
  0
DICTIONARY
  5
3E
102
{ACAD_REACTORS
330
3D
102
}
330
0
100
AcDbDictionary
281
     1
  0
DICTIONARY
  5
37F2
102
{ACAD_REACTORS
330
3D
102
}
330
3D
100
AcDbDictionary
281
     1
  3
Model
350
37F4
  3
レイアウト1
350
37F5
  0
DICTIONARY
  5
37EE
102
{ACAD_REACTORS
330
3D
102
}
330
3D
100
AcDbDictionary
281
     1
  3
ByBlock
350
3DB0
  3
ByLayer
350
3DA8
  3
Global
350
3DB8
  0
DICTIONARY
  5
3DEB
102
{ACAD_REACTORS
330
3D
102
}
330
3D
100
AcDbDictionary
281
     1
  3
Standard
350
3DEC
  0
DICTIONARY
  5
3F
102
{ACAD_REACTORS
330
3D
102
}
330
0
100
AcDbDictionary
281
     1
  3
STANDARD
350
40
  0
DICTIONARY
  5
37F3
102
{ACAD_REACTORS
330
3D
102
}
330
3D
100
AcDbDictionary
281
     1
  0
ACDBDICTIONARYWDFLT
  5
37EC
102
{ACAD_REACTORS
330
3D
102
}
330
3D
100
AcDbDictionary
281
     1
  3
Normal
350
37ED
100
AcDbDictionaryWithDefault
340
37ED
  0
DICTIONARY
  5
3DD9
102
{ACAD_REACTORS
330
3D
102
}
330
3D
100
AcDbDictionary
281
     1
  3
A0
350
3DDA
  3
A1
350
3DDB
  3
A2
350
3DDC
  3
A3
350
3DDD
  3
A4
350
3DDE
  3
A5
350
3DDF
  3
A6
350
3DE0
  3
A7
350
3DE1
  3
A8
350
3DE2
  3
A9
350
3DE3
  3
B0
350
3DE4
  3
B1
350
3DE5
  3
B2
350
3DE6
  3
B3
350
3DE7
  3
B4
350
3DE8
  3
B5
350
3DE9
  3
B6
350
3DEA
  0
DICTIONARY
  5
37F0
102
{ACAD_REACTORS
330
3D
102
}
330
3D
100
AcDbDictionary
281
     1
  3
Standard
350
37F1
  0
DICTIONARY
  5
3DC0
102
{ACAD_REACTORS
330
3D
102
}
330
3D
100
AcDbDictionary
281
     1
  3
2dWireframe
350
3DC6
  3
Basic
350
3DC5
  3
Brighten
350
3DCC
  3
ColorChange
350
3DD0
  3
Conceptual
350
3DC9
  3
Dim
350
3DCB
  3
EdgeColorOff
350
3DD8
  3
Facepattern
350
3DCF
  3
Flat
350
3DC1
  3
FlatWithEdges
350
3DC2
  3
Gouraud
350
3DC3
  3
GouraudWithEdges
350
3DC4
  3
Hidden
350
3DC8
  3
JitterOff
350
3DD6
  3
Linepattern
350
3DCE
  3
OverhangOff
350
3DD7
  3
Realistic
350
3DCA
  3
Shaded
350
3DD5
  3
Shaded with edges
350
3DD4
  3
Shades of Gray
350
3DD1
  3
Sketchy
350
3DD2
  3
Thicken
350
3DCD
  3
Wireframe
350
3DC7
  3
X-Ray
350
3DD3
  0
XRECORD
  5
1459D
102
{ACAD_REACTORS
330
3D
102
}
330
3D
100
AcDbXrecord
280
     1
 90
        1
330
37F1
  0
DICTIONARY
  5
380C
102
{ACAD_REACTORS
330
3D
102
}
330
3D
100
AcDbDictionary
281
     1
  3
CANNOSCALE
350
4DD1
  3
CMLEADERSTYLE
350
4DCF
  3
CTABLESTYLE
350
380D
  3
DIMASSOC
350
3868
  3
INDEXCTL
350
14597
  3
LAYEREVAL
350
4DD3
  3
LAYERNOTIFY
350
4DD4
  3
LIGHTINGUNITS
350
4DD2
  3
MSLTSCALE
350
4DD0
  3
PROJECTNAME
350
3869
  3
SORTENTS
350
14596
  3
XCLIPFRAME
350
14598
  0
XRECORD
  5
1459E
102
{ACAD_REACTORS
330
3D
102
}
330
3D
100
AcDbXrecord
280
     1
  1
DWGPROPS COOKIE
  2

  3

  4

  6

  7

  8
kg-paltec
  9

300
=
301
=
302
=
303
=
304
=
305
=
306
=
307
=
308
=
309
=
 40
0.396090486111111
 41
2451212.682759178
 42
2458321.571184688
  1

 90
        0
  0
DICTIONARY
  5
4CA4
102
{ACAD_REACTORS
330
4CA3
102
}
330
4CA3
100
AcDbDictionary
281
     1
  0
XRECORD
  5
4740
102
{ACAD_REACTORS
330
473F
102
}
330
473F
100
AcDbXrecord
280
     1
290
     1
  0
XRECORD
  5
4742
102
{ACAD_REACTORS
330
4741
102
}
330
4741
100
AcDbXrecord
280
     1
290
     1
  0
SORTENTSTABLE
  5
37FB
102
{ACAD_REACTORS
330
37FA
102
}
330
37FA
100
AcDbSortentsTable
330
A
331
2C88
  5
2C9A
331
2CF4
  5
2D08
331
2D37
  5
2D4B
331
2CAE
  5
2CC1
331
2C91
  5
2CA3
331
2CFD
  5
2D11
331
2D49
  5
2D5E
331
2D10
  5
2D24
331
2C90
  5
2CA2
331
2CFC
  5
2D10
331
2C3A
  5
2C4B
331
2C69
  5
2C7B
331
2CD5
  5
2CE9
331
2C42
  5
2C53
331
2CB7
  5
2CCA
331
2C4B
  5
2C5C
331
2D17
  5
2D2B
331
2D28
  5
2D3C
331
2CDC
  5
2CF0
331
2C70
  5
2C82
331
2D50
  5
2D65
331
2CC8
  5
2CDB
331
2D1F
  5
2D33
331
2C52
  5
2C63
331
2CBE
  5
2CD1
331
2D60
  5
2D75
331
2CE4
  5
2CF8
331
2CC7
  5
2CDA
331
2CED
  5
2D01
331
2D2F
  5
2D43
331
2C5C
  5
2C6D
331
2C33
  5
2C44
331
2C9F
  5
2CB2
331
2CC6
  5
2CD9
331
2D71
  5
2D8A
331
2C78
  5
2C8A
331
2C5B
  5
2C6C
331
2C81
  5
2C93
331
2D39
  5
2D4D
331
2D67
  5
2D7C
331
2D70
  5
2D89
331
2C5A
  5
2C6B
331
2CA6
  5
2CB9
331
2C92
  5
2CA4
331
2CFE
  5
2D12
331
2D38
  5
2D4C
331
2D6F
  5
2D88
  0
LAYOUT
  5
37F4
102
{ACAD_XDICTIONARY
360
4CA9
102
}
102
{ACAD_REACTORS
330
37F2
102
}
330
37F2
100
AcDbPlotSettings
  1

  2
クセロPDF2
  4
A4
  6

 40
3.174999952316284
 41
3.174999952316284
 42
3.175003051757812
 43
3.17498779296875
 44
209.9733276367187
 45
296.9259948730469
 46
0.0
 47
0.0
 48
0.0
 49
0.0
140
0.0
141
0.0
142
1.0
143
1469.220105060981
 70
 11952
 72
     0
 73
     1
 74
     0
  7

 75
     0
147
0.0006806332125155
148
192124.0556615123
149
1341.521742125432
100
AcDbLayout
  1
Model
 70
     1
 71
     0
 10
0.0
 20
0.0
 11
12.0
 21
9.0
 12
0.0
 22
0.0
 32
0.0
 14
0.0
 24
0.0
 34
0.0
 15
0.0
 25
0.0
 35
0.0
146
0.0
 13
0.0
 23
0.0
 33
0.0
 16
1.0
 26
0.0
 36
0.0
 17
0.0
 27
1.0
 37
0.0
 76
     0
330
A
331
3DA1
1001
ACAD_PSEXT
1000
クセロPDF2
1000
XeloPDF2
1000
Xelo PDF Port2
1000

1070
     0
  0
LAYOUT
  5
37F5
102
{ACAD_XDICTIONARY
360
145A1
102
}
102
{ACAD_REACTORS
330
37F2
102
}
330
37F2
100
AcDbPlotSettings
  1

  2
クセロPDF2
  4

  6

 40
0.0
 41
0.0
 42
0.0
 43
0.0
 44
0.0
 45
0.0
 46
0.0
 47
0.0
 48
0.0
 49
0.0
140
0.0
141
0.0
142
1.0
143
1.0
 70
   688
 72
     0
 73
     0
 74
     5
  7

 75
    16
147
1.0
148
0.0
149
0.0
100
AcDbLayout
  1
レイアウト1
 70
     1
 71
     1
 10
0.0
 20
0.0
 11
12.0
 21
9.0
 12
0.0
 22
0.0
 32
0.0
 14
1.000000000000000E+20
 24
1.000000000000000E+20
 34
1.000000000000000E+20
 15
-1.000000000000000E+20
 25
-1.000000000000000E+20
 35
-1.000000000000000E+20
146
0.0
 13
0.0
 23
0.0
 33
0.0
 16
1.0
 26
0.0
 36
0.0
 17
0.0
 27
1.0
 37
0.0
 76
     0
330
B
  0
MATERIAL
  5
3DB0
102
{ACAD_XDICTIONARY
360
3DB1
102
}
102
{ACAD_REACTORS
330
37EE
102
}
330
37EE
100
AcDbMaterial
  1
ByBlock
 72
     0
 43
0.0208333333333333
 43
0.0
 43
0.0
 43
0.0
 43
0.0
 43
0.0208333333333333
 43
0.0
 43
0.0
 43
0.0
 43
0.0
 43
1.0
 43
0.0
 43
0.0
 43
0.0
 43
0.0
 43
1.0
 77
     0
 47
0.0208333333333333
 47
0.0
 47
0.0
 47
0.0
 47
0.0
 47
0.0208333333333333
 47
0.0
 47
0.0
 47
0.0
 47
0.0
 47
1.0
 47
0.0
 47
0.0
 47
0.0
 47
0.0
 47
1.0
171
     0
 49
0.0208333333333333
 49
0.0
 49
0.0
 49
0.0
 49
0.0
 49
0.0208333333333333
 49
0.0
 49
0.0
 49
0.0
 49
0.0
 49
1.0
 49
0.0
 49
0.0
 49
0.0
 49
0.0
 49
1.0
175
     0
142
0.0208333333333333
142
0.0
142
0.0
142
0.0
142
0.0
142
0.0208333333333333
142
0.0
142
0.0
142
0.0
142
0.0
142
1.0
142
0.0
142
0.0
142
0.0
142
0.0
142
1.0
179
     0
144
0.0208333333333333
144
0.0
144
0.0
144
0.0
144
0.0
144
0.0208333333333333
144
0.0
144
0.0
144
0.0
144
0.0
144
1.0
144
0.0
144
0.0
144
0.0
144
0.0
144
1.0
147
0.0208333333333333
147
0.0
147
0.0
147
0.0
147
0.0
147
0.0208333333333333
147
0.0
147
0.0
147
0.0
147
0.0
147
1.0
147
0.0
147
0.0
147
0.0
147
0.0
147
1.0
  0
MATERIAL
  5
3DA8
102
{ACAD_XDICTIONARY
360
3DA9
102
}
102
{ACAD_REACTORS
330
37EE
102
}
330
37EE
100
AcDbMaterial
  1
ByLayer
 72
     0
 43
0.0208333333333333
 43
0.0
 43
0.0
 43
0.0
 43
0.0
 43
0.0208333333333333
 43
0.0
 43
0.0
 43
0.0
 43
0.0
 43
1.0
 43
0.0
 43
0.0
 43
0.0
 43
0.0
 43
1.0
 77
     0
 47
0.0208333333333333
 47
0.0
 47
0.0
 47
0.0
 47
0.0
 47
0.0208333333333333
 47
0.0
 47
0.0
 47
0.0
 47
0.0
 47
1.0
 47
0.0
 47
0.0
 47
0.0
 47
0.0
 47
1.0
171
     0
 49
0.0208333333333333
 49
0.0
 49
0.0
 49
0.0
 49
0.0
 49
0.0208333333333333
 49
0.0
 49
0.0
 49
0.0
 49
0.0
 49
1.0
 49
0.0
 49
0.0
 49
0.0
 49
0.0
 49
1.0
175
     0
142
0.0208333333333333
142
0.0
142
0.0
142
0.0
142
0.0
142
0.0208333333333333
142
0.0
142
0.0
142
0.0
142
0.0
142
1.0
142
0.0
142
0.0
142
0.0
142
0.0
142
1.0
179
     0
144
0.0208333333333333
144
0.0
144
0.0
144
0.0
144
0.0
144
0.0208333333333333
144
0.0
144
0.0
144
0.0
144
0.0
144
1.0
144
0.0
144
0.0
144
0.0
144
0.0
144
1.0
147
0.0208333333333333
147
0.0
147
0.0
147
0.0
147
0.0
147
0.0208333333333333
147
0.0
147
0.0
147
0.0
147
0.0
147
1.0
147
0.0
147
0.0
147
0.0
147
0.0
147
1.0
  0
MATERIAL
  5
3DB8
102
{ACAD_XDICTIONARY
360
3DB9
102
}
102
{ACAD_REACTORS
330
37EE
102
}
330
37EE
100
AcDbMaterial
  1
Global
 72
     0
 43
0.0208333333333333
 43
0.0
 43
0.0
 43
0.0
 43
0.0
 43
0.0208333333333333
 43
0.0
 43
0.0
 43
0.0
 43
0.0
 43
1.0
 43
0.0
 43
0.0
 43
0.0
 43
0.0
 43
1.0
 77
     0
 47
0.0208333333333333
 47
0.0
 47
0.0
 47
0.0
 47
0.0
 47
0.0208333333333333
 47
0.0
 47
0.0
 47
0.0
 47
0.0
 47
1.0
 47
0.0
 47
0.0
 47
0.0
 47
0.0
 47
1.0
171
     0
 49
0.0208333333333333
 49
0.0
 49
0.0
 49
0.0
 49
0.0
 49
0.0208333333333333
 49
0.0
 49
0.0
 49
0.0
 49
0.0
 49
1.0
 49
0.0
 49
0.0
 49
0.0
 49
0.0
 49
1.0
175
     0
142
0.0208333333333333
142
0.0
142
0.0
142
0.0
142
0.0
142
0.0208333333333333
142
0.0
142
0.0
142
0.0
142
0.0
142
1.0
142
0.0
142
0.0
142
0.0
142
0.0
142
1.0
179
     0
144
0.0208333333333333
144
0.0
144
0.0
144
0.0
144
0.0
144
0.0208333333333333
144
0.0
144
0.0
144
0.0
144
0.0
144
1.0
144
0.0
144
0.0
144
0.0
144
0.0
144
1.0
147
0.0208333333333333
147
0.0
147
0.0
147
0.0
147
0.0
147
0.0208333333333333
147
0.0
147
0.0
147
0.0
147
0.0
147
1.0
147
0.0
147
0.0
147
0.0
147
0.0
147
1.0
  0
MLEADERSTYLE
  5
3DEC
102
{ACAD_XDICTIONARY
360
1459B
102
}
102
{ACAD_REACTORS
330
3DEB
102
}
330
3DEB
100
AcDbMLeaderStyle
170
     2
171
     1
172
     0
 90
        2
 40
0.0
 41
0.0
173
     1
 91
-1056964608
340
1D
 92
       -2
290
     1
 42
0.09
291
     1
 43
0.36
  3
Standard
 44
0.18
300

342
7
174
     1
178
     6
175
     1
176
     0
 93
-1056964608
 45
0.18
292
     0
297
     0
 46
0.18
 94
-1056964608
 47
1.0
 49
1.0
140
1.0
293
     1
141
0.0
294
     1
177
     0
142
1.0
295
     0
296
     0
143
0.125
1001
ACAD_MLEADERVER
1070
     2
  0
MLINESTYLE
  5
40
102
{ACAD_REACTORS
330
3F
102
}
330
0
100
AcDbMlineStyle
  2
STANDARD
 70
     0
  3

 62
   256
 51
90.0
 52
90.0
 71
     2
 49
0.5
 62
   256
  6
BYLAYER
 49
-0.5
 62
   256
  6
BYLAYER
  0
ACDBPLACEHOLDER
  5
37ED
102
{ACAD_REACTORS
330
37EC
102
}
330
37EC
  0
SCALE
  5
3DDA
102
{ACAD_REACTORS
330
3DD9
102
}
330
3DD9
100
AcDbScale
 70
     0
300
1:1
140
1.0
141
1.0
290
     1
  0
SCALE
  5
3DDB
102
{ACAD_REACTORS
330
3DD9
102
}
330
3DD9
100
AcDbScale
 70
     0
300
1/128" = 1'-0"
140
0.0078125
141
12.0
290
     0
  0
SCALE
  5
3DDC
102
{ACAD_REACTORS
330
3DD9
102
}
330
3DD9
100
AcDbScale
 70
     0
300
1/64" = 1'-0"
140
0.015625
141
12.0
290
     0
  0
SCALE
  5
3DDD
102
{ACAD_REACTORS
330
3DD9
102
}
330
3DD9
100
AcDbScale
 70
     0
300
1/32" = 1'-0"
140
0.03125
141
12.0
290
     0
  0
SCALE
  5
3DDE
102
{ACAD_REACTORS
330
3DD9
102
}
330
3DD9
100
AcDbScale
 70
     0
300
1/16" = 1'-0"
140
0.0625
141
12.0
290
     0
  0
SCALE
  5
3DDF
102
{ACAD_REACTORS
330
3DD9
102
}
330
3DD9
100
AcDbScale
 70
     0
300
3/32" = 1'-0"
140
0.09375
141
12.0
290
     0
  0
SCALE
  5
3DE0
102
{ACAD_REACTORS
330
3DD9
102
}
330
3DD9
100
AcDbScale
 70
     0
300
1/8" = 1'-0"
140
0.125
141
12.0
290
     0
  0
SCALE
  5
3DE1
102
{ACAD_REACTORS
330
3DD9
102
}
330
3DD9
100
AcDbScale
 70
     0
300
3/16" = 1'-0"
140
0.1875
141
12.0
290
     0
  0
SCALE
  5
3DE2
102
{ACAD_REACTORS
330
3DD9
102
}
330
3DD9
100
AcDbScale
 70
     0
300
1/4" = 1'-0"
140
0.25
141
12.0
290
     0
  0
SCALE
  5
3DE3
102
{ACAD_REACTORS
330
3DD9
102
}
330
3DD9
100
AcDbScale
 70
     0
300
3/8" = 1'-0"
140
0.375
141
12.0
290
     0
  0
SCALE
  5
3DE4
102
{ACAD_REACTORS
330
3DD9
102
}
330
3DD9
100
AcDbScale
 70
     0
300
1/2" = 1'-0"
140
0.5
141
12.0
290
     0
  0
SCALE
  5
3DE5
102
{ACAD_REACTORS
330
3DD9
102
}
330
3DD9
100
AcDbScale
 70
     0
300
3/4" = 1'-0"
140
0.75
141
12.0
290
     0
  0
SCALE
  5
3DE6
102
{ACAD_REACTORS
330
3DD9
102
}
330
3DD9
100
AcDbScale
 70
     0
300
1" = 1'-0"
140
1.0
141
12.0
290
     0
  0
SCALE
  5
3DE7
102
{ACAD_REACTORS
330
3DD9
102
}
330
3DD9
100
AcDbScale
 70
     0
300
1-1/2" = 1'-0"
140
1.5
141
12.0
290
     0
  0
SCALE
  5
3DE8
102
{ACAD_REACTORS
330
3DD9
102
}
330
3DD9
100
AcDbScale
 70
     0
300
3" = 1'-0"
140
3.0
141
12.0
290
     0
  0
SCALE
  5
3DE9
102
{ACAD_REACTORS
330
3DD9
102
}
330
3DD9
100
AcDbScale
 70
     0
300
6" = 1'-0"
140
6.0
141
12.0
290
     0
  0
SCALE
  5
3DEA
102
{ACAD_REACTORS
330
3DD9
102
}
330
3DD9
100
AcDbScale
 70
     0
300
1'-0" = 1'-0"
140
12.0
141
12.0
290
     0
  0
TABLESTYLE
  5
37F1
102
{ACAD_XDICTIONARY
360
14599
102
}
102
{ACAD_REACTORS
330
37F0
102
}
330
37F0
100
AcDbTableStyle
  3
Standard
 70
     0
 71
     0
 40
0.06
 41
0.06
280
     0
281
     0
  7
STANDARD
140
0.18
170
     2
 62
     0
 63
     7
283
     0
274
    -2
284
     1
 64
     0
275
    -2
285
     1
 65
     0
276
    -2
286
     1
 66
     0
277
    -2
287
     1
 67
     0
278
    -2
288
     1
 68
     0
279
    -2
289
     1
 69
     0
  7
STANDARD
140
0.25
170
     5
 62
     0
 63
     7
283
     0
274
    -2
284
     1
 64
     0
275
    -2
285
     1
 65
     0
276
    -2
286
     1
 66
     0
277
    -2
287
     1
 67
     0
278
    -2
288
     1
 68
     0
279
    -2
289
     1
 69
     0
  7
STANDARD
140
0.18
170
     5
 62
     0
 63
     7
283
     0
274
    -2
284
     1
 64
     0
275
    -2
285
     1
 65
     0
276
    -2
286
     1
 66
     0
277
    -2
287
     1
 67
     0
278
    -2
288
     1
 68
     0
279
    -2
289
     1
 69
     0
  0
VISUALSTYLE
  5
3DC6
102
{ACAD_XDICTIONARY
360
145B0
102
}
102
{ACAD_REACTORS
330
3DC0
102
}
330
3DC0
100
AcDbVisualStyle
  2
2dWireframe
 70
     4
 71
     0
 72
     2
 73
     0
 90
        0
 40
-0.6
 41
-30.0
 62
     5
 63
     7
 74
     1
 91
        4
 64
     7
 65
   257
 75
     1
175
     1
 42
1.0
 92
        0
 66
   257
 43
1.0
 76
     1
 77
     6
 78
     2
 67
     7
 79
     5
170
     0
171
     0
290
     0
174
     0
 93
        1
 44
0.0
173
     0
291
     0
 45
0.0
1001
ACAD
1000
AcDbSavedByObjectVersion
1070
     0
  0
VISUALSTYLE
  5
3DC5
102
{ACAD_XDICTIONARY
360
145AE
102
}
102
{ACAD_REACTORS
330
3DC0
102
}
330
3DC0
100
AcDbVisualStyle
  2
Basic
 70
     7
 71
     1
 72
     0
 73
     1
 90
        0
 40
-0.6
 41
-30.0
 62
     5
 63
     7
 74
     0
 91
        4
 64
     7
 65
   257
 75
     1
175
     1
 42
1.0
 92
        8
 66
     7
 43
1.0
 76
     1
 77
     6
 78
     2
 67
     7
 79
     5
170
     0
171
     0
290
     0
174
     0
 93
        1
 44
0.0
173
     0
291
     1
 45
0.0
1001
ACAD
1000
AcDbSavedByObjectVersion
1070
     0
  0
VISUALSTYLE
  5
3DCC
102
{ACAD_XDICTIONARY
360
145BC
102
}
102
{ACAD_REACTORS
330
3DC0
102
}
330
3DC0
100
AcDbVisualStyle
  2
Brighten
 70
    12
 71
     2
 72
     2
 73
     0
 90
        0
 40
-0.6
 41
-30.0
 62
     5
 63
     7
 74
     1
 91
        4
 64
     7
 65
   257
 75
     1
175
     1
 42
1.0
 92
        8
 66
     7
 43
1.0
 76
     1
 77
     6
 78
     2
 67
     7
 79
     5
170
     0
171
     0
290
     0
174
     0
 93
        1
 44
50.0
173
     0
291
     1
 45
0.0
1001
ACAD
1000
AcDbSavedByObjectVersion
1070
     0
  0
VISUALSTYLE
  5
3DD0
102
{ACAD_XDICTIONARY
360
145C4
102
}
102
{ACAD_REACTORS
330
3DC0
102
}
330
3DC0
100
AcDbVisualStyle
  2
ColorChange
 70
    16
 71
     2
 72
     2
 73
     3
 90
        0
 40
-0.6
 41
-30.0
 62
     5
 63
     8
 74
     1
 91
        4
 64
     7
 65
   257
 75
     1
175
     1
 42
1.0
 92
        8
 66
     8
 43
1.0
 76
     1
 77
     6
 78
     2
 67
     7
 79
     5
170
     0
171
     0
290
     0
174
     0
 93
        1
 44
0.0
173
     0
291
     1
 45
0.0
1001
ACAD
1000
AcDbSavedByObjectVersion
1070
     0
  0
VISUALSTYLE
  5
3DC9
102
{ACAD_XDICTIONARY
360
145B6
102
}
102
{ACAD_REACTORS
330
3DC0
102
}
330
3DC0
100
AcDbVisualStyle
  2
Conceptual
 70
     9
 71
     3
 72
     2
 73
     0
 90
        0
 40
-0.6
 41
-30.0
 62
     5
 63
     7
 74
     2
 91
        2
 64
     7
 65
   257
 75
     1
175
     1
 42
179.0
 92
        8
 66
     7
 43
1.0
 76
     1
 77
     6
 78
     2
 67
     7
 79
     3
170
     0
171
     0
290
     0
174
     0
 93
        1
 44
0.0
173
     0
291
     0
 45
0.0
1001
ACAD
1000
AcDbSavedByObjectVersion
1070
     0
  0
VISUALSTYLE
  5
3DCB
102
{ACAD_XDICTIONARY
360
145BA
102
}
102
{ACAD_REACTORS
330
3DC0
102
}
330
3DC0
100
AcDbVisualStyle
  2
Dim
 70
    11
 71
     2
 72
     2
 73
     0
 90
        0
 40
-0.6
 41
-30.0
 62
     5
 63
     7
 74
     1
 91
        4
 64
     7
 65
   257
 75
     1
175
     1
 42
1.0
 92
        8
 66
     7
 43
1.0
 76
     1
 77
     6
 78
     2
 67
     7
 79
     5
170
     0
171
     0
290
     0
174
     0
 93
        1
 44
-50.0
173
     0
291
     1
 45
0.0
1001
ACAD
1000
AcDbSavedByObjectVersion
1070
     0
  0
VISUALSTYLE
  5
3DD8
102
{ACAD_XDICTIONARY
360
145D4
102
}
102
{ACAD_REACTORS
330
3DC0
102
}
330
3DC0
100
AcDbVisualStyle
  2
EdgeColorOff
 70
    22
 71
     2
 72
     2
 73
     0
 90
        0
 40
-0.6
 41
-30.0
 62
     5
 63
     7
 74
     1
 91
        4
 64
     7
 65
   257
 75
     1
175
     1
 42
1.0
 92
        8
 66
     7
 43
1.0
 76
     1
 77
     6
 78
     2
 67
     7
 79
     5
170
     0
171
     0
290
     0
174
     0
 93
        1
 44
0.0
173
     0
291
     1
 45
0.0
1001
ACAD
1000
AcDbSavedByObjectVersion
1070
     0
  0
VISUALSTYLE
  5
3DCF
102
{ACAD_XDICTIONARY
360
145C2
102
}
102
{ACAD_REACTORS
330
3DC0
102
}
330
3DC0
100
AcDbVisualStyle
  2
Facepattern
 70
    15
 71
     2
 72
     2
 73
     0
 90
        0
 40
-0.6
 41
-30.0
 62
     5
 63
     7
 74
     1
 91
        4
 64
     7
 65
   257
 75
     1
175
     1
 42
1.0
 92
        8
 66
     7
 43
1.0
 76
     1
 77
     6
 78
     2
 67
     7
 79
     5
170
     0
171
     0
290
     0
174
     0
 93
        1
 44
0.0
173
     0
291
     1
 45
0.0
1001
ACAD
1000
AcDbSavedByObjectVersion
1070
     0
  0
VISUALSTYLE
  5
3DC1
102
{ACAD_XDICTIONARY
360
145A6
102
}
102
{ACAD_REACTORS
330
3DC0
102
}
330
3DC0
100
AcDbVisualStyle
  2
Flat
 70
     0
 71
     2
 72
     1
 73
     1
 90
        2
 40
-0.6
 41
30.0
 62
     5
 63
     7
 74
     0
 91
        0
 64
     7
 65
   257
 75
     1
175
     1
 42
1.0
 92
        8
 66
     7
 43
1.0
 76
     1
 77
     6
 78
     2
 67
     7
 79
     5
170
     0
171
     0
290
     0
174
     0
 93
       13
 44
0.0
173
     0
291
     1
 45
0.0
1001
ACAD
1000
AcDbSavedByObjectVersion
1070
     0
  0
VISUALSTYLE
  5
3DC2
102
{ACAD_XDICTIONARY
360
145A8
102
}
102
{ACAD_REACTORS
330
3DC0
102
}
330
3DC0
100
AcDbVisualStyle
  2
FlatWithEdges
 70
     1
 71
     2
 72
     1
 73
     1
 90
        2
 40
-0.6
 41
30.0
 62
     5
 63
     7
 74
     1
 91
        0
 64
     7
 65
   257
 75
     1
175
     1
 42
1.0
 92
        0
 66
   257
 43
1.0
 76
     1
 77
     6
 78
     2
 67
     7
 79
     5
170
     0
171
     0
290
     0
174
     0
 93
       13
 44
0.0
173
     0
291
     1
 45
0.0
1001
ACAD
1000
AcDbSavedByObjectVersion
1070
     0
  0
VISUALSTYLE
  5
3DC3
102
{ACAD_XDICTIONARY
360
145AA
102
}
102
{ACAD_REACTORS
330
3DC0
102
}
330
3DC0
100
AcDbVisualStyle
  2
Gouraud
 70
     2
 71
     2
 72
     2
 73
     1
 90
        2
 40
-0.6
 41
30.0
 62
     5
 63
     7
 74
     0
 91
        0
 64
     7
 65
   257
 75
     1
175
     1
 42
1.0
 92
        0
 66
     7
 43
1.0
 76
     1
 77
     6
 78
     2
 67
     7
 79
     5
170
     0
171
     0
290
     0
174
     0
 93
       13
 44
0.0
173
     0
291
     1
 45
0.0
1001
ACAD
1000
AcDbSavedByObjectVersion
1070
     0
  0
VISUALSTYLE
  5
3DC4
102
{ACAD_XDICTIONARY
360
145AC
102
}
102
{ACAD_REACTORS
330
3DC0
102
}
330
3DC0
100
AcDbVisualStyle
  2
GouraudWithEdges
 70
     3
 71
     2
 72
     2
 73
     1
 90
        2
 40
-0.6
 41
30.0
 62
     5
 63
     7
 74
     1
 91
        0
 64
     7
 65
   257
 75
     1
175
     1
 42
1.0
 92
        0
 66
   257
 43
1.0
 76
     1
 77
     6
 78
     2
 67
     7
 79
     5
170
     0
171
     0
290
     0
174
     0
 93
       13
 44
0.0
173
     0
291
     1
 45
0.0
1001
ACAD
1000
AcDbSavedByObjectVersion
1070
     0
  0
VISUALSTYLE
  5
3DC8
102
{ACAD_XDICTIONARY
360
145B4
102
}
102
{ACAD_REACTORS
330
3DC0
102
}
330
3DC0
100
AcDbVisualStyle
  2
Hidden
 70
     6
 71
     1
 72
     2
 73
     2
 90
        0
 40
-0.6
 41
-30.0
 62
     5
 63
     7
 74
     2
 91
        2
 64
     7
 65
   257
 75
     2
175
     1
 42
40.0
 92
        0
 66
   257
 43
1.0
 76
     1
 77
     6
 78
     2
 67
     7
 79
     3
170
     0
171
     0
290
     0
174
     0
 93
        1
 44
0.0
173
     0
291
     0
 45
0.0
1001
ACAD
1000
AcDbSavedByObjectVersion
1070
     0
  0
VISUALSTYLE
  5
3DD6
102
{ACAD_XDICTIONARY
360
145D0
102
}
102
{ACAD_REACTORS
330
3DC0
102
}
330
3DC0
100
AcDbVisualStyle
  2
JitterOff
 70
    20
 71
     2
 72
     2
 73
     0
 90
        0
 40
-0.6
 41
-30.0
 62
     5
 63
     7
 74
     1
 91
        4
 64
     7
 65
   257
 75
     1
175
     1
 42
1.0
 92
       10
 66
     7
 43
1.0
 76
     1
 77
     6
 78
     2
 67
     7
 79
     5
170
     0
171
     0
290
     0
174
     0
 93
        1
 44
0.0
173
     0
291
     1
 45
0.0
1001
ACAD
1000
AcDbSavedByObjectVersion
1070
     0
  0
VISUALSTYLE
  5
3DCE
102
{ACAD_XDICTIONARY
360
145C0
102
}
102
{ACAD_REACTORS
330
3DC0
102
}
330
3DC0
100
AcDbVisualStyle
  2
Linepattern
 70
    14
 71
     2
 72
     2
 73
     0
 90
        0
 40
-0.6
 41
-30.0
 62
     5
 63
     7
 74
     1
 91
        4
 64
     7
 65
   257
 75
     7
175
     7
 42
1.0
 92
        8
 66
     7
 43
1.0
 76
     1
 77
     6
 78
     2
 67
     7
 79
     5
170
     0
171
     0
290
     0
174
     0
 93
        1
 44
0.0
173
     0
291
     1
 45
0.0
1001
ACAD
1000
AcDbSavedByObjectVersion
1070
     0
  0
VISUALSTYLE
  5
3DD7
102
{ACAD_XDICTIONARY
360
145D2
102
}
102
{ACAD_REACTORS
330
3DC0
102
}
330
3DC0
100
AcDbVisualStyle
  2
OverhangOff
 70
    21
 71
     2
 72
     2
 73
     0
 90
        0
 40
-0.6
 41
-30.0
 62
     5
 63
     7
 74
     1
 91
        4
 64
     7
 65
   257
 75
     1
175
     1
 42
1.0
 92
        9
 66
     7
 43
1.0
 76
     1
 77
     6
 78
     2
 67
     7
 79
     5
170
     0
171
     0
290
     0
174
     0
 93
        1
 44
0.0
173
     0
291
     1
 45
0.0
1001
ACAD
1000
AcDbSavedByObjectVersion
1070
     0
  0
VISUALSTYLE
  5
3DCA
102
{ACAD_XDICTIONARY
360
145B8
102
}
102
{ACAD_REACTORS
330
3DC0
102
}
330
3DC0
100
AcDbVisualStyle
  2
Realistic
 70
     8
 71
     2
 72
     3
 73
     0
 90
        2
 40
-0.6
 41
30.0
 62
     5
 63
     7
 74
     0
 91
        0
 64
     7
 65
   257
 75
     1
175
     1
 42
1.0
 92
        8
 66
   257
 43
1.0
 76
     1
 77
     6
 78
     2
 67
     7
 79
     3
170
     0
171
     0
290
     0
174
     0
 93
       13
 44
0.0
173
     0
291
     0
 45
0.0
1001
ACAD
1000
AcDbSavedByObjectVersion
1070
     0
  0
VISUALSTYLE
  5
3DD5
102
{ACAD_XDICTIONARY
360
145CE
102
}
102
{ACAD_REACTORS
330
3DC0
102
}
330
3DC0
100
AcDbVisualStyle
  2
Shaded
 70
    27
 71
     2
 72
     2
 73
     1
 90
        2
 40
-0.6
 41
30.0
 62
     5
 63
     7
 74
     0
 91
        4
 64
     7
 65
   257
 75
     1
175
     1
 42
1.0
 92
        8
 66
   257
 43
1.0
 76
     1
 77
     6
 78
     2
 67
     8
 79
     3
170
     0
171
     0
290
     0
174
     0
 93
        5
 44
0.0
173
     0
291
     0
 45
0.0
1001
ACAD
1000
AcDbSavedByObjectVersion
1070
     0
  0
VISUALSTYLE
  5
3DD4
102
{ACAD_XDICTIONARY
360
145CC
102
}
102
{ACAD_REACTORS
330
3DC0
102
}
330
3DC0
100
AcDbVisualStyle
  2
Shaded with edges
 70
    26
 71
     2
 72
     2
 73
     1
 90
        2
 40
-0.6
 41
30.0
 62
     5
 63
     7
 74
     1
 91
       10
 64
     7
 65
   257
 75
     2
175
     1
 42
1.0
 92
        8
 66
   257
 43
1.0
 76
     1
 77
     6
 78
     2
 67
     7
 79
     3
170
     0
171
     0
290
     0
174
     0
 93
        5
 44
0.0
173
     0
291
     0
 45
0.0
1001
ACAD
1000
AcDbSavedByObjectVersion
1070
     0
  0
VISUALSTYLE
  5
3DD1
102
{ACAD_XDICTIONARY
360
145C6
102
}
102
{ACAD_REACTORS
330
3DC0
102
}
330
3DC0
100
AcDbVisualStyle
  2
Shades of Gray
 70
    23
 71
     2
 72
     2
 73
     3
 90
        0
 40
-0.6
 41
-30.0
 62
     5
 63
     7
 74
     2
 91
        2
 64
     7
 65
     7
 75
     1
175
     1
 42
40.0
 92
        8
 66
     7
 43
1.0
 76
     1
 77
     6
 78
     2
 67
     7
 79
     3
170
     0
171
     0
290
     0
174
     0
 93
        1
 44
0.0
173
     0
291
     0
 45
0.0
1001
ACAD
1000
AcDbSavedByObjectVersion
1070
     0
  0
VISUALSTYLE
  5
3DD2
102
{ACAD_XDICTIONARY
360
145C8
102
}
102
{ACAD_REACTORS
330
3DC0
102
}
330
3DC0
100
AcDbVisualStyle
  2
Sketchy
 70
    24
 71
     1
 72
     2
 73
     2
 90
        0
 40
-0.6
 41
-30.0
 62
     5
 63
     7
 74
     2
 91
        2
 64
     7
 65
     7
 75
     1
175
     1
 42
40.0
 92
       11
 66
     7
 43
1.0
 76
     1
 77
     6
 78
     2
 67
     7
 79
     6
170
     0
171
     0
290
     0
174
     0
 93
        1
 44
0.0
173
     0
291
     0
 45
0.0
1001
ACAD
1000
AcDbSavedByObjectVersion
1070
     0
  0
VISUALSTYLE
  5
3DCD
102
{ACAD_XDICTIONARY
360
145BE
102
}
102
{ACAD_REACTORS
330
3DC0
102
}
330
3DC0
100
AcDbVisualStyle
  2
Thicken
 70
    13
 71
     2
 72
     2
 73
     0
 90
        0
 40
-0.6
 41
-30.0
 62
     5
 63
     7
 74
     1
 91
        4
 64
     7
 65
   257
 75
     1
175
     1
 42
1.0
 92
       12
 66
     7
 43
1.0
 76
     1
 77
     6
 78
     2
 67
     7
 79
     5
170
     0
171
     0
290
     0
174
     0
 93
        1
 44
0.0
173
     0
291
     1
 45
0.0
1001
ACAD
1000
AcDbSavedByObjectVersion
1070
     0
  0
VISUALSTYLE
  5
3DC7
102
{ACAD_XDICTIONARY
360
145B2
102
}
102
{ACAD_REACTORS
330
3DC0
102
}
330
3DC0
100
AcDbVisualStyle
  2
Wireframe
 70
     5
 71
     0
 72
     2
 73
     0
 90
        0
 40
-0.6
 41
-30.0
 62
     5
 63
     7
 74
     1
 91
        4
 64
     7
 65
   257
 75
     1
175
     1
 42
1.0
 92
        0
 66
   257
 43
1.0
 76
     1
 77
     6
 78
     2
 67
     7
 79
     3
170
     0
171
     0
290
     0
174
     0
 93
        1
 44
0.0
173
     0
291
     0
 45
0.0
1001
ACAD
1000
AcDbSavedByObjectVersion
1070
     0
  0
VISUALSTYLE
  5
3DD3
102
{ACAD_XDICTIONARY
360
145CA
102
}
102
{ACAD_REACTORS
330
3DC0
102
}
330
3DC0
100
AcDbVisualStyle
  2
X-Ray
 70
    25
 71
     2
 72
     2
 73
     1
 90
        1
 40
0.5
 41
-30.0
 62
     5
 63
     7
 74
     1
 91
        0
 64
     7
 65
   257
 75
     1
175
     1
 42
1.0
 92
        8
 66
     7
 43
1.0
 76
     1
 77
     6
 78
     2
 67
     7
 79
     3
170
     0
171
     0
290
     0
174
     0
 93
       13
 44
0.0
173
     0
291
     0
 45
0.0
1001
ACAD
1000
AcDbSavedByObjectVersion
1070
     0
  0
DICTIONARYVAR
  5
4DD1
102
{ACAD_REACTORS
330
380C
102
}
330
380C
100
DictionaryVariables
280
     0
  1
1:1
  0
DICTIONARYVAR
  5
4DCF
102
{ACAD_REACTORS
330
380C
102
}
330
380C
100
DictionaryVariables
280
     0
  1
STANDARD
  0
DICTIONARYVAR
  5
380D
102
{ACAD_REACTORS
330
380C
102
}
330
380C
100
DictionaryVariables
280
     0
  1
STANDARD
  0
DICTIONARYVAR
  5
3868
102
{ACAD_REACTORS
330
380C
102
}
330
380C
100
DictionaryVariables
280
     0
  1
1
  0
DICTIONARYVAR
  5
14597
102
{ACAD_REACTORS
330
380C
102
}
330
380C
100
DictionaryVariables
280
     0
  1
0
  0
DICTIONARYVAR
  5
4DD3
102
{ACAD_REACTORS
330
380C
102
}
330
380C
100
DictionaryVariables
280
     0
  1
1
  0
DICTIONARYVAR
  5
4DD4
102
{ACAD_REACTORS
330
380C
102
}
330
380C
100
DictionaryVariables
280
     0
  1
15
  0
DICTIONARYVAR
  5
4DD2
102
{ACAD_REACTORS
330
380C
102
}
330
380C
100
DictionaryVariables
280
     0
  1
0
  0
DICTIONARYVAR
  5
4DD0
102
{ACAD_REACTORS
330
380C
102
}
330
380C
100
DictionaryVariables
280
     0
  1
0
  0
DICTIONARYVAR
  5
3869
102
{ACAD_REACTORS
330
380C
102
}
330
380C
100
DictionaryVariables
280
     0
  1

  0
DICTIONARYVAR
  5
14596
102
{ACAD_REACTORS
330
380C
102
}
330
380C
100
DictionaryVariables
280
     0
  1
127
  0
DICTIONARYVAR
  5
14598
102
{ACAD_REACTORS
330
380C
102
}
330
380C
100
DictionaryVariables
280
     0
  1
2
  0
DICTIONARY
  5
4CA9
330
37F4
100
AcDbDictionary
280
     1
281
     1
  3
ACAD_XREC_ROUNDTRIP
360
145A0
  3
ADSK_XREC_LAYOUTTHUMBNAIL
360
4CAA
  0
DICTIONARY
  5
145A1
330
37F5
100
AcDbDictionary
280
     1
281
     1
  3
ACAD_XREC_ROUNDTRIP
360
145A2
  0
DICTIONARY
  5
3DB1
330
3DB0
100
AcDbDictionary
280
     1
281
     1
  3
ACAD_XREC_ROUNDTRIP
360
145A4
  3
BUMPTILE
360
3DB3
  3
DIFFUSETILE
360
3DB2
  3
OPACITYTILE
360
3DB6
  3
REFLECTIONTILE
360
3DB5
  3
REFRACTIONTILE
360
3DB7
  3
SPECULARTILE
360
3DB4
  0
DICTIONARY
  5
3DA9
330
3DA8
100
AcDbDictionary
280
     1
281
     1
  3
ACAD_XREC_ROUNDTRIP
360
145A3
  3
BUMPTILE
360
3DAB
  3
DIFFUSETILE
360
3DAA
  3
OPACITYTILE
360
3DAE
  3
REFLECTIONTILE
360
3DAD
  3
REFRACTIONTILE
360
3DAF
  3
SPECULARTILE
360
3DAC
  0
DICTIONARY
  5
3DB9
330
3DB8
100
AcDbDictionary
280
     1
281
     1
  3
ACAD_XREC_ROUNDTRIP
360
145A5
  3
BUMPTILE
360
3DBB
  3
DIFFUSETILE
360
3DBA
  3
OPACITYTILE
360
3DBE
  3
REFLECTIONTILE
360
3DBD
  3
REFRACTIONTILE
360
3DBF
  3
SPECULARTILE
360
3DBC
  0
DICTIONARY
  5
1459B
330
3DEC
100
AcDbDictionary
280
     1
281
     1
  3
ACAD_XREC_ROUNDTRIP
360
1459C
  0
DICTIONARY
  5
14599
330
37F1
100
AcDbDictionary
280
     1
281
     1
  3
ACAD_ROUNDTRIP_2008_TABLESTYLE_CELLSTYLEMAP
360
1459A
  3
ACAD_XREC_ROUNDTRIP
360
1459F
  0
DICTIONARY
  5
145B0
330
3DC6
100
AcDbDictionary
280
     1
281
     1
  3
ACAD_XREC_ROUNDTRIP
360
145B1
  0
DICTIONARY
  5
145AE
330
3DC5
100
AcDbDictionary
280
     1
281
     1
  3
ACAD_XREC_ROUNDTRIP
360
145AF
  0
DICTIONARY
  5
145BC
330
3DCC
100
AcDbDictionary
280
     1
281
     1
  3
ACAD_XREC_ROUNDTRIP
360
145BD
  0
DICTIONARY
  5
145C4
330
3DD0
100
AcDbDictionary
280
     1
281
     1
  3
ACAD_XREC_ROUNDTRIP
360
145C5
  0
DICTIONARY
  5
145B6
330
3DC9
100
AcDbDictionary
280
     1
281
     1
  3
ACAD_XREC_ROUNDTRIP
360
145B7
  0
DICTIONARY
  5
145BA
330
3DCB
100
AcDbDictionary
280
     1
281
     1
  3
ACAD_XREC_ROUNDTRIP
360
145BB
  0
DICTIONARY
  5
145D4
330
3DD8
100
AcDbDictionary
280
     1
281
     1
  3
ACAD_XREC_ROUNDTRIP
360
145D5
  0
DICTIONARY
  5
145C2
330
3DCF
100
AcDbDictionary
280
     1
281
     1
  3
ACAD_XREC_ROUNDTRIP
360
145C3
  0
DICTIONARY
  5
145A6
330
3DC1
100
AcDbDictionary
280
     1
281
     1
  3
ACAD_XREC_ROUNDTRIP
360
145A7
  0
DICTIONARY
  5
145A8
330
3DC2
100
AcDbDictionary
280
     1
281
     1
  3
ACAD_XREC_ROUNDTRIP
360
145A9
  0
DICTIONARY
  5
145AA
330
3DC3
100
AcDbDictionary
280
     1
281
     1
  3
ACAD_XREC_ROUNDTRIP
360
145AB
  0
DICTIONARY
  5
145AC
330
3DC4
100
AcDbDictionary
280
     1
281
     1
  3
ACAD_XREC_ROUNDTRIP
360
145AD
  0
DICTIONARY
  5
145B4
330
3DC8
100
AcDbDictionary
280
     1
281
     1
  3
ACAD_XREC_ROUNDTRIP
360
145B5
  0
DICTIONARY
  5
145D0
330
3DD6
100
AcDbDictionary
280
     1
281
     1
  3
ACAD_XREC_ROUNDTRIP
360
145D1
  0
DICTIONARY
  5
145C0
330
3DCE
100
AcDbDictionary
280
     1
281
     1
  3
ACAD_XREC_ROUNDTRIP
360
145C1
  0
DICTIONARY
  5
145D2
330
3DD7
100
AcDbDictionary
280
     1
281
     1
  3
ACAD_XREC_ROUNDTRIP
360
145D3
  0
DICTIONARY
  5
145B8
330
3DCA
100
AcDbDictionary
280
     1
281
     1
  3
ACAD_XREC_ROUNDTRIP
360
145B9
  0
DICTIONARY
  5
145CE
330
3DD5
100
AcDbDictionary
280
     1
281
     1
  3
ACAD_XREC_ROUNDTRIP
360
145CF
  0
DICTIONARY
  5
145CC
330
3DD4
100
AcDbDictionary
280
     1
281
     1
  3
ACAD_XREC_ROUNDTRIP
360
145CD
  0
DICTIONARY
  5
145C6
330
3DD1
100
AcDbDictionary
280
     1
281
     1
  3
ACAD_XREC_ROUNDTRIP
360
145C7
  0
DICTIONARY
  5
145C8
330
3DD2
100
AcDbDictionary
280
     1
281
     1
  3
ACAD_XREC_ROUNDTRIP
360
145C9
  0
DICTIONARY
  5
145BE
330
3DCD
100
AcDbDictionary
280
     1
281
     1
  3
ACAD_XREC_ROUNDTRIP
360
145BF
  0
DICTIONARY
  5
145B2
330
3DC7
100
AcDbDictionary
280
     1
281
     1
  3
ACAD_XREC_ROUNDTRIP
360
145B3
  0
DICTIONARY
  5
145CA
330
3DD3
100
AcDbDictionary
280
     1
281
     1
  3
ACAD_XREC_ROUNDTRIP
360
145CB
  0
XRECORD
  5
145A0
102
{ACAD_REACTORS
330
4CA9
102
}
330
4CA9
100
AcDbXrecord
280
     1
102
SHADEPLOT
 70
     0
102
SHADEPLOTRESLEVEL
 70
     2
102
SHADEPLOTCUSTOMDPI
 70
   300
  0
XRECORD
  5
4CAA
102
{ACAD_REACTORS
330
4CA9
102
}
330
4CA9
100
AcDbXrecord
280
     1
310
280000000001000088000000010008000000000000880000000000000000000000010000000000000000000000000000C8C8C8000000000000000000000000000000000000000000000000000000000000000000330000006600000099000000CC000000FF00000000330000333300006633000099330000CC330000FF3300
310
0000660000336600006666000099660000CC660000FF66000000990000339900006699000099990000CC990000FF99000000CC000033CC000066CC000099CC0000CCCC0000FFCC000000FF000033FF000066FF000099FF0000CCFF0000FFFF000000003300330033006600330099003300CC003300FF003300003333003333
310
33006633330099333300CC333300FF33330000663300336633006666330099663300CC663300FF66330000993300339933006699330099993300CC993300FF99330000CC330033CC330066CC330099CC3300CCCC3300FFCC330000FF330033FF330066FF330099FF3300CCFF3300FFFF330000006600330066006600660099
310
006600CC006600FF00660000336600333366006633660099336600CC336600FF33660000666600336666006666660099666600CC666600FF66660000996600339966006699660099996600CC996600FF99660000CC660033CC660066CC660099CC6600CCCC6600FFCC660000FF660033FF660066FF660099FF6600CCFF6600
310
FFFF660000009900330099006600990099009900CC009900FF00990000339900333399006633990099339900CC339900FF33990000669900336699006666990099669900CC669900FF66990000999900339999006699990099999900CC999900FF99990000CC990033CC990066CC990099CC9900CCCC9900FFCC990000FF99
310
0033FF990066FF990099FF9900CCFF9900FFFF99000000CC003300CC006600CC009900CC00CC00CC00FF00CC000033CC003333CC006633CC009933CC00CC33CC00FF33CC000066CC003366CC006666CC009966CC00CC66CC00FF66CC000099CC003399CC006699CC009999CC00CC99CC00FF99CC0000CCCC0033CCCC0066CC
310
CC0099CCCC00CCCCCC00FFCCCC0000FFCC0033FFCC0066FFCC0099FFCC00CCFFCC00FFFFCC000000FF003300FF006600FF009900FF00CC00FF00FF00FF000033FF003333FF006633FF009933FF00CC33FF00FF33FF000066FF003366FF006666FF009966FF00CC66FF00FF66FF000099FF003399FF006699FF009999FF00CC
310
99FF00FF99FF0000CCFF0033CCFF0066CCFF0099CCFF00CCCCFF00FFCCFF0000FFFF0033FFFF0066FFFF0099FFFF00CCFFFF00FFFFFF00000000000D0D0D001A1A1A00282828003535350043434300505050005D5D5D006B6B6B00787878008686860093939300A1A1A100AEAEAE00BBBBBB00C9C9C900D6D6D600E4E4E400
310
F1F1F100FFFFFF000000000000000000000000000000000000000000000000000000000000000000000000000000000000000000000000000000000000000000000000000000000000000000000000000000000000000000000000000000000000000000000000000000000000000000000000000000000000000000000000
310
00000000000000000000000000000000000000000000000000000000000000000000000000000000000000000000000000000000000000000000000000000000000000000000000000000000000000000000000000000000000000000000000000000000000000000000000000000000000000000000000000000000000000
310
00000000000000000000000000000000000000000000000000000000000000000000000000000000000000000000000000000000000000000000000000000000000000000000000000000000000000000000000000000000000000000000000000000000000000000000000000000000000000000000000000000000000000
310
00000000000000000000000000000000000000000000000000000000000000000000000000000000000000000000000000000000000000000000000000000000000000000000000000000000000000000000000000000000000000000000000000000000000000000000000000000000000000000000000000000000000000
310
00000000000000000000000000000000000000000000000000000000000000000000000000000000000000000000000000000000000000000000000000000000000000000000000000000000000000000000000000000000000000000000000000000000000000000000000000000000000000000000000000000000000000
310
00000000000000000000000000000000000000000000000000000000000000000000000000000000000000000000000000000000000000000000000000000000000000000000000000000000000000000000000000000000000000000000000000000000000000000000000000000000000000000000000000000000000000
310
00000000000000000000000000000000000000000000000000000000000000000000000000000000000000000000000000000000000000000000000000000000000000000000000000000000000000000000000000000000000000000000000000000000000000000000000000000000000000000000000000000000000000
310
00000000000000000000000000000000000000000000000000000000000000000000000000000000000000000000000000000000000000000000000000000000000000000000000000000000000000000000000000000000000000000000000000000000000000000000000000000000000000000000000000000000000000
310
00000000000000000000000000000000000000000000000000000000000000000000000000000000000000000000000000000000000000000000000000000000000000000000000000000000000000000000000000000000000000000000000000000000000000000000000000000000000000000000000000000000000000
310
00000000000000000000000000000000000000000000000000000000000000000000000000000000000000000000000000000000000000000000000000000000000000000000000000000000000000000000000000000000000000000000000000000000000000000000000000000000000000000000000000000000000000
310
00000000000000000000000000000000000000000000000000000000000000000000000000000000000000000000000000000000000000000000000000000000000000000000000000000000000000000000000000000000000000000000000000000000000000000000000000000000000000000000000000000000000000
310
00000000000000000000000000000000000000000000000000000000000000000000000000000000000000000000000000000000000000000000000000000000000000000000000000000000000000000000000000000000000000000000000000000000000000000000000000000000000000000000000000000000000000
310
00000000000000000000000000000000000000000000000000000000000000000000000000000000000000000000000000000000000000000000000000000000000000000000000000000000000000000000000000000000000000000000000000000000000000000000000000000000000000000000000000000000000000
310
00000000000000000000000000000000000000000000000000000000000000000000000000000000000000000000000000000000000000000000000000000000000000000000000000000000000000000000000000000000000000000000000000000000000000000000000000000000000000000000000000000000000000
310
00000000000000000000000000000000000000000000000000000000000000000000000000000000000000000000000000000000000000000000000000000000000000000000000000000000000000000000000000000000000000000000000000000000000000000000000000000000000000000000000000000000000000
310
00000000000000000000000000000000000000000000000000000000000000000000000000000000000000000000000000000000000000000000000000000000000000000000000000000000000000000000000000000000000000000000000000000000000000000000000000000000000000000000000000000000000000
310
00000000000000000000000000000000000000000000000000000000000000000000000000000000000000000000000000000000000000000000000000000000000000000000000000000000000000000000000000000000000000000000000000000000000000000000000000000000000000000000000000000000000000
310
00000000000000000000000000000000000000000000000000000000000000000000000000000000000000000000000000000000000000000000000000000000000000000000000000000000000000000000000000000000000000000000000000000000000000000000000000000000000000000000000000000000000000
310
00000000000000000000000000000000000000000000000000000000000000000000000000000000000000000000000000000000000000000000000000000000000000000000000000000000000000000000000000000000000000000000000000000000000000000000000000000000000000000000000000000000000000
310
00000000000000000000000000000000000000000000000000000000000000000000000000000000000000000000000000000000000000000000000000000000000000000000000000000000000000000000000000000000000000000000000000000000000000000000000000000000000000000000000000000000000000
310
00000000000000000000000000000000000000000000000000000000000000000000000000000000000000000000000000000000000000000000000000000000000000000000000000000000000000000000000000000000000000000000000000000000000000000000000000000000000000000000000000000000000000
310
00000000000000000000000000000000000000000000000000000000000000000000000000000000000000000000000000000000000000000000000000000000000000000000000000000000000000000000000000000000000000000000000000000000000000000000000000000000000000000000000000000000000000
310
00000000000000000000000000000000000000000000000000000000000000000000000000000000000000000000000000000000000000000000000000000000000000000000000000000000000000000000000000000000000000000000000000000000000000000000000000000000000000000000000000000000000000
310
00000000000000000000000000000000000000000000000000000000000000000000000000000000000000000000000000000000000000000000000000000000000000000000000000000000000000000000000000000000000000000000000000000000000000000000000000000000000000000000000000000000000000
310
00000000000000000000000000000000000000000000000000000000000000000000000000000000000000000000000000000000000000000000000000000000000000000000000000000000000000000000000000000000000000000000000000000000000000000000000000000000000000000000000000000000000000
310
00000000000000000000000000000000000000000000000000000000000000000000000000000000000000000000000000000000000000000000000000000000000000000000000000000000000000000000000000000000000000000000000000000000000000000000000000000000000000000000000000000000000000
310
00000000000000000000000000000000000000000000000000000000000000000000000000000000000000000000000000000000000000000000000000000000000000000000000000000000000000000000000000000000000000000000000000000000000000000000000000000000000000000000000000000000000000
310
00000000000000000000000000000000000000000000000000000000000000000000000000000000000000000000000000000000000000000000000000000000000000000000000000000000000000000000000000000000000000000000000000000000000000000000000000000000000000000000000000000000000000
310
00000000000000000000000000000000000000000000000000000000000000000000000000000000000000000000000000000000000000000000000000000000000000000000000000000000000000000000000000000000000000000000000000000000000000000000000000000000000000000000000000000000000000
310
00000000000000000000000000000000000000000000000000000000000000000000000000000000000000000000000000000000000000000000000000000000000000000000000000000000000000000000000000000000000000000000000000000000000000000000000000000000000000000000000000000000000000
310
00000000000000000000000000000000000000000000000000000000000000000000000000000000000000000000000000000000000000000000000000000000000000000000000000000000000000000000000000000000000000000000000000000000000000000000000000000000000000000000000000000000000000
310
00000000000000000000000000000000000000000000000000000000000000000000000000000000000000000000000000000000000000000000000000000000000000000000000000000000000000000000000000000000000000000000000000000000000000000000000000000000000000000000000000000000000000
310
00000000000000000000000000000000000000000000000000000000000000000000000000000000000000000000000000000000000000000000000000000000000000000000000000000000000000000000000000000000000000000000000000000000000000000000000000000000000000000000000000000000000000
310
00000000000000000000000000000000000000000000000000000000000000000000000000000000000000000000000000000000000000000000000000000000000000000000000000000000000000000000000000000000000000000000000000000000000000000000000000000000000000000000000000000000000000
310
00000000000000000000000000000000000000000000000000000000000000000000000000000000000000000000000000000000000000000000000000000000000000000000000000000000000000000000000000000000000000000000000000000000000000000000000000000000000000000000000000000000000000
310
00000000000000000000000000000000000000000000000000000000000000000000000000000000000000000000000000000000000000000000000000000000000000000000000000000000000000000000000000000000000000000000000000000000000000000000000000000000000000000000000000000000000000
310
00000000000000000000000000000000000000000000000000000000000000000000000000000000000000000000000000000000000000000000000000000000000000000000000000000000000000000000000000000000000000000000000000000000000000000000000000000000000000000000000000000000000000
310
00000000000000000000000000000000000000000000000000000000000000000000000000000000000000000000000000000000000000000000000000000000000000000000000000000000000000000000000000000000000000000000000000000000000000000000000000000000000000000000000000000000000000
310
00000000000000000000000000000000000000000000000000000000000000000000000000000000000000000000000000000000000000000000000000000000000000000000000000000000000000000000000000000000000000000000000000000000000000000000000000000000000000000000000000000000000000
310
00000000000000000000000000000000000000000000000000000000000000000000000000000000000000000000000000000000000000000000000000000000000000000000000000000000000000000000000000000000000000000000000000000000000000000000000000000000000000000000000000000000000000
310
00000000000000000000000000000000000000000000000000000000000000000000000000000000000000000000000000000000000000000000000000000000000000000000000000000000000000000000000000000000000000000000000000000000000000000000000000000000000000000000000000000000000000
310
00000000000000000000000000000000000000000000000000000000000000000000000000000000000000000000000000000000000000000000000000000000000000000000000000000000000000000000000000000000000000000000000000000000000000000000000000000000000000000000000000000000000000
310
00000000000000000000000000000000000000000000000000000000000000000000000000000000000000000000000000000000000000000000000000000000000000000000000000000000000000000000000000000000000000000000000000000000000000000000000000000000000000000000000000000000000000
310
00000000000000000000000000000000000000000000000000000000000000000000000000000000000000000000000000000000000000000000000000000000000000000000000000000000000000000000000000000000000000000000000000000000000000000000000000000000000000000000000000000000000000
310
00000000000000000000000000000000000000000000000000000000000000000000000000000000000000000000000000000000000000000000000000000000000000000000000000000000000000000000000000000000000000000000000000000000000000000000000000000000000000000000000000000000000000
310
00000000000000000000000000000000000000000000000000000000000000000000000000000000000000000000000000000000000000000000000000000000000000000000000000000000000000000000000000000000000000000000000000000000000000000000000000000000000000000000000000000000000000
310
00000000000000000000000000000000000000000000000000000000000000000000000000000000000000000000000000000000000000000000000000000000000000000000000000000000000000000000000000000000000000000000000000000000000000000000000000000000000000000000000000000000000000
310
00000000000000000000000000000000000000000000000000000000000000000000000000000000000000000000000000000000000000000000000000000000000000000000000000000000000000000000000000000000000000000000000000000000000000000000000000000000000000000000000000000000000000
310
00000000000000000000000000000000000000000000000000000000000000000000000000000000000000000000000000000000000000000000000000000000000000000000000000000000000000000000000000000000000000000000000000000000000000000000000000000000000000000000000000000000000000
310
00000000000000000000000000000000000000000000000000000000000000000000000000000000000000000000000000000000000000000000000000000000000000000000000000000000000000000000000000000000000000000000000000000000000000000000000000000000000000000000000000000000000000
310
00000000000000000000000000000000000000000000000000000000000000000000000000000000000000000000000000000000000000000000000000000000000000000000000000000000000000000000000000000000000000000000000000000000000000000000000000000000000000000000000000000000000000
310
00000000000000000000000000000000000000000000000000000000000000000000000000000000000000000000000000000000000000000000000000000000000000000000000000000000000000000000000000000000000000000000000000000000000000000000000000000000000000000000000000000000000000
310
00000000000000000000000000000000000000000000000000000000000000000000000000000000000000000000000000000000000000000000000000000000000000000000000000000000000000000000000000000000000000000000000000000000000000000000000000000000000000000000000000000000000000
310
00000000000000000000000000000000000000000000000000000000000000000000000000000000000000000000000000000000000000000000000000000000000000000000000000000000000000000000000000000000000000000000000000000000000000000000000000000000000000000000000000000000000000
310
00000000000000000000000000000000000000000000000000000000000000000000000000000000000000000000000000000000000000000000000000000000000000000000000000000000000000000000000000000000000000000000000000000000000000000000000000000000000000000000000000000000000000
310
00000000000000000000000000000000000000000000000000000000000000000000000000000000000000000000000000000000000000000000000000000000000000000000000000000000000000000000000000000000000000000000000000000000000000000000000000000000000000000000000000000000000000
310
00000000000000000000000000000000000000000000000000000000000000000000000000000000000000000000000000000000000000000000000000000000000000000000000000000000000000000000000000000000000000000000000000000000000000000000000000000000000000000000000000000000000000
310
00000000000000000000000000000000000000000000000000000000000000000000000000000000000000000000000000000000000000000000000000000000000000000000000000000000000000000000000000000000000000000000000000000000000000000000000000000000000000000000000000000000000000
310
00000000000000000000000000000000000000000000000000000000000000000000000000000000000000000000000000000000000000000000000000000000000000000000000000000000000000000000000000000000000000000000000000000000000000000000000000000000000000000000000000000000000000
310
00000000000000000000000000000000000000000000000000000000000000000000000000000000000000000000000000000000000000000000000000000000000000000000000000000000000000000000000000000000000000000000000000000000000000000000000000000000000000000000000000000000000000
310
00000000000000000000000000000000000000000000000000000000000000000000000000000000000000000000000000000000000000000000000000000000000000000000000000000000000000000000000000000000000000000000000000000000000000000000000000000000000000000000000000000000000000
310
00000000000000000000000000000000000000000000000000000000000000000000000000000000000000000000000000000000000000000000000000000000000000000000000000000000000000000000000000000000000000000000000000000000000000000000000000000000000000000000000000000000000000
310
00000000000000000000000000000000000000000000000000000000000000000000000000000000000000000000000000000000000000000000000000000000000000000000000000000000000000000000000000000000000000000000000000000000000000000000000000000000000000000000000000000000000000
310
00000000000000000000000000000000000000000000000000000000000000000000000000000000000000000000000000000000000000000000000000000000000000000000000000000000000000000000000000000000000000000000000000000000000000000000000000000000000000000000000000000000000000
310
00000000000000000000000000000000000000000000000000000000000000000000000000000000000000000000000000000000000000000000000000000000000000000000000000000000000000000000000000000000000000000000000000000000000000000000000000000000000000000000000000000000000000
310
00000000000000000000000000000000000000000000000000000000000000000000000000000000000000000000000000000000000000000000000000000000000000000000000000000000000000000000000000000000000000000000000000000000000000000000000000000000000000000000000000000000000000
310
00000000000000000000000000000000000000000000000000000000000000000000000000000000000000000000000000000000000000000000000000000000000000000000000000000000000000000000000000000000000000000000000000000000000000000000000000000000000000000000000000000000000000
310
00000000000000000000000000000000000000000000000000000000000000000000000000000000000000000000000000000000000000000000000000000000000000000000000000000000000000000000000000000000000000000000000000000000000000000000000000000000000000000000000000000000000000
310
00000000000000000000000000000000000000000000000000000000000000000000000000000000000000000000000000000000000000000000000000000000000000000000000000000000000000000000000000000000000000000000000000000000000000000000000000000000000000000000000000000000000000
310
00000000000000000000000000000000000000000000000000000000000000000000000000000000000000000000000000000000000000000000000000000000000000000000000000000000000000000000000000000000000000000000000000000000000000000000000000000000000000000000000000000000000000
310
00000000000000000000000000000000000000000000000000000000000000000000000000000000000000000000000000000000000000000000000000000000000000000000000000000000000000000000000000000000000000000000000000000000000000000000000000000000000000000000000000000000000000
310
00000000000000000000000000000000000000000000000000000000000000000000000000000000000000000000000000000000000000000000000000000000000000000000000000000000000000000000000000000000000000000000000000000000000000000000000000000000000000000000000000000000000000
310
00000000000000000000000000000000000000000000000000000000000000000000000000000000000000000000000000000000000000000000000000000000000000000000000000000000000000000000000000000000000000000000000000000000000000000000000000000000000000000000000000000000000000
310
00000000000000000000000000000000000000000000000000000000000000000000000000000000000000000000000000000000000000000000000000000000000000000000000000000000000000000000000000000000000000000000000000000000000000000000000000000000000000F5F5F5F5F5F5F5F5F5F5F5F5
310
F5F5F5F5F5F5F5F5F50000000000F5F5F5F5F5F5F5F5F5F5F5F5F5F5F5F5F5F5F5F5F50000000000F5F5F5F5F5F5F5F5F5F5F5F5F5F5F5F5F5F5F5F5F5000000000000000000000000000000000000000000000000000000000000000000000000000000000000000000000000000000000000000000000000000000000000
310
000000000000000000000000000000000000000000000000000000000000000000000000000000000000000000000000000000000000000000000000000000000000000000000000000000000000000000000000000000000000000000000000000000000000000000000000000000000000000000F5282828282828282828
310
282828282828ECECECECF50000000000F5282828282828282828282828282828EC28ECECF50000000000F528282828C3282828282828C3282828EC28EC28F500000000000000000000000000000000000000000000000000000000000000000000000000000000000000000000000000000000000000000000000000000000
310
0000000000000000000000000000000000000000000000000000000000000000000000000000000000000000000000000000000000000000000000000000000000000000000000000000000000000000000000000000000000000000000000000000000000000000000000000000000000000000000000F5C30F0F0FC3C300
310
C30FC30FC3C3C328ECECECECF50000000000F50FC30FC3C3C3000F0F0F0FC3C30028ECECECECF50000000000F50F0FC300C3C3C30F0FC300C3C3C328EC28ECECF50000000000000000000000000000000000000000000000000000000000000000000000000000000000000000000000000000000000000000000000000000
310
00000000000000000000000000000000000000000000000000000000000000000000000000000000000000000000000000000000000000000000000000000000000000000000000000000000000000000000000000000000000000000000000000000000000000000000000000000000000000000000000000F5C30F0F0FC3
310
C3C3C30FBE0FC3C3C3C328ECEC28F50000000000F50F0F0FC3F5F5C30F0F0F0FC3F5C3C3ECECEC28F50000000000F528C3C3BEC3C3C328C3C3BEC3C3C328ECECEC28F5000000000000000000000000000000000000000000000000000000000000000000000000000000000000000000000000000000000000000000000000
310
000000000000000000000000000000000000000000000000000000000000000000000000000000000000000000000000000000000000000000000000000000000000000000000000000000000000000000000000000000000000000000000000000000000000000000000000000000000000000000000000000000F528C3C3
310
C3C3C3C3C3C3C3C3C3C3C3C328282828F50000000000F528C3C3C3C3C3C328C3C3C3C3C3C3C328282828F50000000000F5C3C300C3C3C3C3C3C300C3C3C3C3ECECECEC28F500000000000000000000000000000000000000000000000000000000000000000000000000000000000000000000000000000000000000000000
310
0000000000000000000000000000000000000000000000000000000000000000000000000000000000000000000000000000000000000000000000000000000000000000000000000000000000000000000000000000000000000000000000000000000000000000000000000000000000000000000000000000000000F5EC
310
ECECECBEC3C3C3ECECECECC3C3C300000028F50000000000F5C3C3C3C3C3C3C3C3C3C3C3C3C3C3C300000028F50000000000F5ECECECBEBEC3C3ECECECBEBEC3C32800000028F50000000000000000000000000000000000000000000000000000000000000000000000000000000000000000000000000000000000000000
310
00000000000000000000000000000000000000000000000000000000000000000000000000000000000000000000000000000000000000000000000000000000000000000000000000000000000000000000000000000000000000000000000000000000000000000000000000000000000000000000000000000000000000
310
F5ECECECECEC0FBEBEECECECECF5F52800000028F50000000000F5ECECECECF5F528ECECECECECF5282800000028F50000000000F5280028280FBEBE28000028F528BEECEC000028F5000000000000000000000000000000000000000000000000000000000000000000000000000000000000000000000000000000000000
310
00000000000000000000000000000000000000000000000000000000000000000000000000000000000000000000000000000000000000000000000000000000000000000000000000000000000000000000000000000000000000000000000000000000000000000000000000000000000000000000000000000000000000
310
0000F5ECECECEC28282828ECECEC28282828ECECEC28F50000000000F5ECECECEC282828ECECECEC28C32828ECECEC28F50000000000F5ECECECEC282828ECECECEC282828ECEC000028F500000000000000000000000000000000000000000000000000000000000000000000000000000000000000000000000000000000
310
00000000000000000000000000000000000000000000000000000000000000000000000000000000000000000000000000000000000000000000000000000000000000000000000000000000000000000000000000000000000000000000000000000000000000000000000000000000000000000000000000000000000000
310
00000000F5C3C3C3C3C3C300C3C3C3C3C3C3C3ECECECEC28F50000000000F528002800C3C3002800280000C300ECECECEC28F50000000000F5C3DCC300C3C3C3C3DCC300C30000ECECEC0028F50000000000000000000000000000000000000000000000000000000000000000000000000000000000000000000000000000
310
00000000000000000000000000000000000000000000000000000000000000000000000000000000000000000000000000000000000000000000000000000000000000000000000000000000000000000000000000000000000000000000000000000000000000000000000000000000000000000000000000000000000000
310
000000000000F5C3DCDCDCBE0FC3C3DCBEDCC3C3C3C3ECECEC28F50000000000F5DCC3DCC3C3C3C3DC7DDCDCC3C3C3C3ECECEC28F50000000000F5C3C3C3BEC3C3C3C37DC3BEC3C3C3ECECEC0028F5000000000000000000000000000000000000000000000000000000000000000000000000000000000000000000000000
310
00000000000000000000000000000000000000000000000000000000000000000000000000000000000000000000000000000000000000000000000000000000000000000000000000000000000000000000000000000000000000000000000000000000000000000000000000000000000000000000000000000000000000
310
0000000000000000F528BEC3C3C3C3C3C3BEBEC3C3C3C3C3ECECECECF50000000000F528C3C3C3C3C3C328C3C3C3C3C3C3C3ECECECECF50000000000F5C3C3C3C3C3C3C3C3C3C3C3C3C3C3ECECECEC28F500000000000000000000000000000000000000000000000000000000000000000000000000000000000000000000
310
00000000000000000000000000000000000000000000000000000000000000000000000000000000000000000000000000000000000000000000000000000000000000000000000000000000000000000000000000000000000000000000000000000000000000000000000000000000000000000000000000000000000000
310
00000000000000000000F528C3C3C3C3C3C3C3C300C300C3C3C3ECECECECF50000000000F5C3C3C3C3C3C3C3C3C3C3C3C3C3C3C3ECECECECF50000000000F5ECECECBEBEC3C3ECECECBEBEC3C3ECECECEC28F50000000000000000000000000000000000000000000000000000000000000000000000000000000000000000
310
00000000000000000000000000000000000000000000000000000000000000000000000000000000000000000000000000000000000000000000000000000000000000000000000000000000000000000000000000000000000000000000000000000000000000000000000000000000000000000000000000000000000000
310
000000000000000000000000F5ECECECECEC0FC3BEECECECECF5C3C3ECECECECF50000000000F5ECECECECF5F5C3ECECECECECF5C3C3ECECEC28F50000000000F5ECECECBEBEBEBEECECECBEBEBEBE2828282828F5000000000000000000000000000000000000000000000000000000000000000000000000000000000000
310
00000000000000000000000000000000000000000000000000000000000000000000000000000000000000000000000000000000000000000000000000000000000000000000000000000000000000000000000000000000000000000000000000000000000000000000000000000000000000000000000000000000000000
310
0000000000000000000000000000F5ECECECEC28C32828ECECEC280F0F2828282828F50000000000F5ECECECECF5F528ECECECEC28F5282828282828F50000000000F5ECECECEC282828ECECECEC2828282828282828F500000000000000000000000000000000000000000000000000000000000000000000000000000000
310
00000000000000000000000000000000000000000000000000000000000000000000000000000000000000000000000000000000000000000000000000000000000000000000000000000000000000000000000000000000000000000000000000000000000000000000000000000000000000000000000000000000000000
310
00000000000000000000000000000000F5F5F5F5F5F5F5F5F5F5F5F5F5F5F5F5F5F5F5F5F50000000000F5F5F5F5F5F5F5F5F5F5F5F5F5F5F5F5F5F5F5F5F50000000000F5F5F5F5F5F5F5F5F5F5F5F5F5F5F5F5F5F5F5F5F50000000000000000000000000000000000000000000000000000000000000000000000000000
310
00000000000000000000000000000000000000000000000000000000000000000000000000000000000000000000000000000000000000000000000000000000000000000000000000000000000000000000000000000000000000000000000000000000000000000000000000000000000000000000000000000000000000
310
000000000000000000000000000000000000F5C3C3C3C3C3C328C3C3C3C3C3C3C328ECECECECF50000000000F5C3C3C3C3C3C328C3C3C3C3C3C3C328EC28ECECF50000000000F5C3C3C328C32828C3C3C328C3C32828EC28EC28F5000000000000000000000000000000000000000000000000000000000000000000000000
310
00000000000000000000000000000000000000000000000000000000000000000000000000000000000000000000000000000000000000000000000000000000000000000000000000000000000000000000000000000000000000000000000000000000000000000000000000000000000000000000000000000000000000
310
0000000000000000000000000000000000000000F5C3C3C3C3C3C3C3C3C3C3C3C3C3C3C3ECECECECF50000000000F5C3C3C3C3C3C3C3C3C3C3C3C3C3C3C3ECECECECF50000000000F5C3C3C300C3C3C3C3C3C300C3C3C328EC28ECECF500000000000000000000000000000000000000000000000000000000000000000000
310
00000000000000000000000000000000000000000000000000000000000000000000000000000000000000000000000000000000000000000000000000000000000000000000000000000000000000000000000000000000000000000000000000000000000000000000000000000000000000000000000000000000000000
310
00000000000000000000000000000000000000000000F528BEC3C3C3C3C3C3BEBEC3C3C3C3C3ECECEC28F50000000000F528C3C3C3C3C3C328C3C3C3C3C3C3C3ECECEC28F50000000000F528C3C3BEC3C3C328C3C3C3C3C3C328ECECEC28F50000000000000000000000000000000000000000000000000000000000000000
310
00000000000000000000000000000000000000000000000000000000000000000000000000000000000000000000000000000000000000000000000000000000000000000000000000000000000000000000000000000000000000000000000000000000000000000000000000000000000000000000000000000000000000
310
000000000000000000000000000000000000000000000000F528C3C3C3C3C3C3C3C300C3C3C3C3C328282828F50000000000F5C3C3C3C3C3C3C3C3C3C3C3C3C3C3C328282828F50000000000F5C3C300C3C3C3C328C3C3C3C3C3C3ECECECEC28F5000000000000000000000000000000000000000000000000000000000000
310
00000000000000000000000000000000000000000000000000000000000000000000000000000000000000000000000000000000000000000000000000000000000000000000000000000000000000000000000000000000000000000000000000000000000000000000000000000000000000000000000000000000000000
310
0000000000000000000000000000000000000000000000000000F5ECECECECECF5C3C3ECECECECF5C3C300000028F50000000000F5ECECECECC3BEC3C3ECECECECC3C3C300000028F50000000000F5ECECECBEBEC3C328ECECBEBEC3C32800000028F500000000000000000000000000000000000000000000000000000000
310
00000000000000000000000000000000000000000000000000000000000000000000000000000000000000000000000000000000000000000000000000000000000000000000000000000000000000000000000000000000000000000000000000000000000000000000000000000000000000000000000000000000000000
310
00000000000000000000000000000000000000000000000000000000F5ECECECECECF5BEECECECECECF5F5BE00000028F50000000000F5ECECECECF5F528ECECECECECF5282800000028F50000000000F5280000BEBEBEBE280000BEBEBEBEECEC000028F50000000000000000000000000000000000000000000000000000
310
00000000000000000000000000000000000000000000000000000000000000000000000000000000000000000000000000000000000000000000000000000000000000000000000000000000000000000000000000000000000000000000000000000000000000000000000000000000000000000000000000000000000000
310
000000000000000000000000000000000000000000000000000000000000F5282828282828282828282828282828ECECEC28F50000000000F52828282828282828282828282828ECECECEC28F50000000000F5ECECECEC282828ECECECEC282828ECEC000028F5000000000000000000000000000000000000000000000000
310
00000000000000000000000000000000000000000000000000000000000000000000000000000000000000000000000000000000000000000000000000000000000000000000000000000000000000000000000000000000000000000000000000000000000000000000000000000000000000000000000000000000000000
310
000000000000000000000000000000000000000000C3C3000000000000000000F5C3C3C3C3C3C300C3C3C3C3C3C3C3ECECECEC28F50000000000F528C3C3C3C3C30028C3C3C3C3C300ECECECEC28F50000000000F5C3C3C300C30000C3C3C300C30000ECECEC0028F500000000000000000000000000000000000000000000
310
00000000000000000000000000000000000000000000000000000000000000000000000000000000000000000000000000000000000000000000000000000000000000000000000000000000000000000000000000000000000000000000000000000000000000000000000000000000000000000000000000000000000000
310
000000000000000000000000000000000000C3C3C3DCC3C3C3000000000000000000F5C3BEC3C3BEBEC3C3BEBEC3C3BEC3C3ECECEC28F50000000000F5C3C3DCC3C3C3C3C3C3C3C3C3C3C3ECECECEC28F50000000000F5C3C3C3BEBEC3C3C3C3C3BEBEC3C3ECECEC0028F50000000000000000000000000000000000000000
310
00000000000000000000000000000000000000000000000000000000000000000000000000000000000000000000000000000000000000000000000000000000000000000000000000000000000000000000000000000000000000000000000000000000000000000000000000000000000000000000000000000000000000
310
0000000000000000000000000000000000000000C3C3C3C3C3C30F000000000000000000F528BEC3C3C3C3C3C3BEBEC3C3C3C3C3ECECECECF50000000000F528C3C3C3C3C3C328C3C3C3C3C3C3ECECECECECF50000000000F5C3C3C3C3C3BEC3C3C3C3C3C3BEC3ECECECEC28F5000000000000000000000000000000000000
310
00000000000000000000000000000000000000000000000000000000000000000000000000000000000000000000000000000000000000000000000000000000000000000000000000000000000000000000000000000000000000000000000000000000000000000000000000000000000000000000000000000000000000
310
0000000000000000000000000000000000000000000000C300C3000000000000000000000000F528C3C3C3C3C3C3C3C300C300C3C3C3ECECECECF50000000000F5C3C3C3C3C3C3C3C3C3C3C3C3C3C3C3ECECECECF50000000000F5C3C300C3C3C3C3C3C300C3C3C3C3ECECECEC28F500000000000000000000000000000000
310
00000000000000000000000000000000000000000000000000000000000000000000000000000000000000000000000000000000000000000000000000000000000000000000000000000000000000000000000000000000000000000000000000000000000000000000000000000000000000000000000000000000000000
310
00000000000000000000000000000000000000000000000000000000000000000000000000000000F5ECECECECECC3C3BEECECECECF5C3C328282828F50000000000F5ECECECECC3C3C3ECECECECECF5C3C328282828F50000000000F5ECECECBEBEBEBEECECECBEBEC3BE2828282828F50000000000000000000000000000
310
00000000000000000000000000000000000000000000000000000000000000000000000000000000000000000000000000000000000000000000000000000000000000000000000000000000000000000000000000000000000000000000000000000000000000000000000000000000000000000000000000000000000000
310
000000000000000000000000000000000000000000000000000000000000000000000000000000000000F5ECECECEC28282828ECECEC28F5F52828282828F50000000000F5ECECECEC28282828ECECEC28F5282828282828F50000000000F5ECECECEC282828ECECEC28F528282828282828F5000000000000000000000000
310
00000000000000000000000000000000000000000000000000000000000000000000000000000000000000000000000000000000000000000000000000000000000000000000000000000000000000000000000000000000000000000000000000000000000000000000000000000000000000000000000000000000000000
310
000000000000000000000000000000000000000000F5F5F5F5F5F5F5F5F5F5F5F5F5F5F5F5F5F5F5F5F50000F5F5F5F5F5F5F5F5F5F5F5F5F5F5F5F5F5F5F5F5F50000000000F5F5F5F5F5F5F5F5F5F5F5F5F5F5F5F5F5F5F5F5F50000000000F5F5F5F5F5F5F5F5F5F5F5F5F5F5F5F5F5F5F5F5F500000000000000000000
310
00000000000000000000000000000000000000000000000000000000000000000000000000000000000000000000000000000000000000000000000000000000000000000000000000000000000000000000000000000000000000000000000000000000000000000000000000000000000000000000000000000000000000
310
0000000000000000000000000000000000000000000000F5F5F528C3C32828C3C328C3C3282828ECECF5F5280000F5282828282828282828282828282828ECECECECF50000000000F5282828282828282828282828282828EC28ECECF50000000000F5282828282828282828282828282828EC28EC28F50000000000000000
310
00000000000000000000000000000000000000000000000000000000000000000000000000000000000000000000000000000000000000000000000000000000000000000000000000000000000000000000000000000000000000000000000000000000000000000000000000000000000000000000000000000000000000
310
00000000000000000000000000000000000000000000000000F528C3F5C3C3C3C3C3C300C3C3C3C328ECF528EC280000F5280000000000000000000000000028ECECECECF50000000000F5280000000000000000000000000028ECECECECF50000000000F5280000000000000000000000000028EC28ECECF5000000000000
310
00000000000000000000000000000000000000000000000000000000000000000000000000000000000000000000000000000000000000000000000000000000000000000000000000000000000000000000000000000000000000000000000000000000000000000000000000000000000000000000000000000000000000
310
000000000000000000000000000000000000000000000000000000F528C3C3F500C3C3C3C3BEC3C3C300F5F5ECEC28280000F52800C3C3000000C3C30000C30000ECECECEC28F50000000000F52800C3C30000C3C30000C3C30000ECECECEC28F50000000000F52800C3C30000000000C3C300000028ECECEC28F500000000
310
00000000000000000000000000000000000000000000000000000000000000000000000000000000000000000000000000000000000000000000000000000000000000000000000000000000000000000000000000000000000000000000000000000000000000000000000000000000000000000000000000000000000000
310
0000000000000000000000000000000000000000000000000000000000F52800C3C3F5F5C3C3C3C3C3C3C3F52828282828280000F528C3DCBEC3C3C3DCC3C3BEC3C3C32828282828F50000000000F528C3DCC3C3C3DCC3C3BEBEC3C3C32828282828F50000000000F528C3DCDCC3C300BEBEBEC3C3C300ECECECEC28F50000
310
00000000000000000000000000000000000000000000000000000000000000000000000000000000000000000000000000000000000000000000000000000000000000000000000000000000000000000000000000000000000000000000000000000000000000000000000000000000000000000000000000000000000000
310
00000000000000000000000000000000000000000000000000000000000000F52800ECEC0000F500C3BEBEBEF5C3ECECECEC00F50000F528C3DCBEC3C3C3DCC3C3C3C3C3C32800000028F50000000000F528C3DCC3C3C3DCC3C3BEBEBEC3C32800000028F50000000000F528C3DCDCC3C3C3C3C3C3C3C3C3002800000028F5
310
00000000000000000000000000000000000000000000000000000000000000000000000000000000000000000000000000000000000000000000000000000000000000000000000000000000000000000000000000000000000000000000000000000000000000000000000000000000000000000000000000000000000000
310
000000000000000000000000000000000000000000000000000000000000000000F52828ECEC2828ECF5F528F5F52828ECECEC0000F50000F528C3C3BEC3C3C3C3C3C3BEBEBEC32800000028F50000000000F528C3C3C3C3C3C3C3C3BEBEBEBEC32800000028F50000000000F528C3C3C3C3C3C3BEBEBEBEBEC300ECEC0000
310
28F50000000000000000000000000000000000000000000000000000000000000000000000000000000000000000000000000000000000000000000000000000000000000000000000000000000000000000000000000000000000000000000000000000000000000000000000000000000000000000000000000000000000
310
0000000000000000000000000000000000000000000000000000000000000000000000F5282828282828282828F5282828282828282828280000F52800ECBEC30000C3C3C3C3C3C3C3ECECECEC28F50000000000F52800C3C3C300C3C3C3C3BEC3C3C3ECECECEC28F50000000000F52800C3C3C30000C3BEBEC3BEC300ECEC
310
EC0028F5000000000000000000000000000000000000000000000000000000000000000000000000000000000000000000000000000000000000000000000000000000000000000000000000000000000000000000000000000000000000000000000000000000000000000000000000000000000000000000000000000000
310
00000000000000000000000000000000000000000000000000000000000000000000000000F528C3C3C3C3C3C3F5F500F5F5C300ECECECEC00F50000F52800C3C30000ECECECC3C3C3C3C3ECECECEC28F50000000000F528ECC3C30000ECEC00C3C3C3C3C3ECECECEC28F50000000000F52800C3C3000000C3C3C3C3C3C300
310
ECECEC0028F500000000000000000000000000000000000000000000000000000000000000000000000000000000000000000000000000000000000000000000000000000000000000000000000000000000000000000000000000000000000000000000000000000000000000000000000000000000000000000000000000
310
000000000000000000000000000000000000000000000000000000000000000000000000000000F528C3C3BE00C3F5C3C3BEC3C3F5C3ECECEC0000F50000F52800ECEC0000ECECECBEBEBEBEC3ECECEC0028F50000000000F528ECECEC0000ECECC3BEBEBEC3C3ECECEC0028F50000000000F52800ECECEC00C3BEBEBEBEC3
310
C300ECECEC0028F50000000000000000000000000000000000000000000000000000000000000000000000000000000000000000000000000000000000000000000000000000000000000000000000000000000000000000000000000000000000000000000000000000000000000000000000000000000000000000000000
310
0000000000000000000000000000000000000000000000000000000000000000000000000000000000F52800C3C3F5F5C3C3C3C3C3C3C3F5ECEC282828280000F5280000000000000000BEBEBEBE28ECEC282828F50000000000F5280000000000000000BEBEBEBEBEEC28282828F50000000000F528000000000028282828
310
28282800EC28282828F5000000000000000000000000000000000000000000000000000000000000000000000000000000000000000000000000000000000000000000000000000000000000000000000000000000000000000000000000000000000000000000000000000000000000000000000000000000000000000000
310
00000000000000000000000000000000000000000000000000000000000000000000000000000000000000F52800ECF50000EC00C3BEBEC3C3C3F5F5ECECEC280000F5280000000000000000000000000028ECECECECF50000000000F52800000000000000000000000000ECECECECECF50000000000F52800000000000000
310
000000000000ECECECEC28F500000000000000000000000000000000000000000000000000000000000000000000000000000000000000000000000000000000000000000000000000000000000000000000000000000000000000000000000000000000000000000000000000000000000000000000000000000000000000
310
000000000000000000000000000000000000000000000000000000000000000000000000000000000000000000F52800F5EC0000ECEC28BEBEBE280028ECF5ECEC280000F528000000000000000000000000002828282828F50000000000F528000000000000000000000000002828282828F50000000000F5280000000000
310
00000000000000002828282828F50000000000000000000000000000000000000000000000000000000000000000000000000000000000000000000000000000000000000000000000000000000000000000000000000000000000000000000000000000000000000000000000000000000000000000000000000000000000
310
0000000000000000000000000000000000000000000000000000000000000000000000000000000000000000000000F5F5F5ECEC282828282828C3282828282828F5F5F50000F5ECECECEC282828282828282828282828282828F50000000000F5ECECECEC282828282828282828282828282828F50000000000F5ECECECEC
310
282828282828282828282828282828F5000000000000000000000000000000000000000000000000000000000000000000000000000000000000000000000000000000000000000000000000000000000000000000000000000000000000000000000000000000000000000000000000000000000000000000000000000000
310
00000000000000000000000000000000000000000000000000000000000000000000000000000000000000000000000000F5F5F5F5F5F5F5F5F5F5F5F5F5F5F5F5F5F5F5F5F50000F5F5F5F5F5F5F5F528F5F5F5F5F5F528F5F528F5F50000000000F5F5F5F5F5F5F5F5F5F5F5F5F5F5F528F528F5F5F50000000000F5F5F5
310
F5F5F5F5F528F5F5F5F5F5F528F528F5F5F500000000000000000000000000000000000000000000000000000000000000000000000000000000000000000000000000000000000000000000000000000000000000000000000000000000000000000000000000000000000000000000000000000000000000000000000000
310
0000000000000000000000000000000000000000000000000000000000000000000000000000000000000000000000000000000000000000000000000000000000000000000000000000F5280028282828282800000000000028ECECECECF50000000000F528002828280F282800000000000028EC28ECECF50000000000F5
310
282828282828282800000000000028EC28ECECF50000000000000000000000000000000000000000000000000000000000000000000000000000000000000000000000000000000000000000000000000000000000000000000000000000000000000000000000000000000000000000000000000000000000000000000000
310
00000000000000000000000000000000000000000000000000000000000000000000000000000000000000000000000000000000000000000000000000000000000000000000000000000000F52800C3C3C30FBE2800000000000028ECECECECF50000000000F52800C3C3C30FBE0000000000000028ECECECECF500000000
310
00F5282828000000002800000000000028EC28ECECF5000000000000000000000000000000000000000000000000000000000000000000000000000000000000000000000000000000000000000000000000000000000000000000000000000000000000000000000000000000000000000000000000000000000000000000
310
000000000000000000000000000000000000000000000000000000000000000000000000000000000000000000000000000000000000000000000000000000000000000000000000000000000000F52800C3BEC3C3BEC3000000000000ECECECEC28F50000000000F52800C3BEC3C3BEC3000000000000ECECECEC28F50000
310
000000F52828C3C30000002800000000000028ECECEC28F500000000000000000000000000000000000000000000000000000000000000000000000000000000000000000000000000000000000000000000000000000000000000000000000000000000000000000000000000000000000000000000000000000000000000
310
0000000000000000000000000000000000000000000000000000000000000000000000000000000000000000000000000000000000000000000000000000000000000000000000000000000000000000F52800C3C3C3C3C3280000000000002828282828F50000000000F52800C3ECC3C3C3000000000000002828282828F5
310
0000000000F52828C3C300000028000000000000ECECECEC28F50000000000000000000000000000000000000000000000000000000000000000000000000000000000000000000000000000000000000000000000000000000000000000000000000000000000000000000000000000000000000000000000000000000000
310
00000000000000000000000000000000000000000000000000000000000000000000000000000000000000000000000000000000000000000000000000000000000000000000000000000000000000000000F52800C3BEBE0000280000000000002800000028F50000000000F52800C3BEBE00000000000000000028000000
310
28F50000000000F52828C3C3000000280000000000002800000028F5000000000000000000000000000000000000000000000000000000000000000000000000000000000000000000000000000000000000000000000000000000000000000000000000000000000000000000000000000000000000000000000000000000
310
000000000000000000000000000000000000000000000000000000000000000000000000000000000000000000000000000000000000000000000000000000000000000000000000000000000000000000000000F52800C3C3C30000280000000000002800000028F50000000000F52800C3C3C30000000000000000002800
310
000028F50000000000F52828C3C3C30000280000000000002800000028F500000000000000000000000000000000000000000000000000000000000000000000000000000000000000000000000000000000000000000000000000000000000000000000000000000000000000000000000000000000000000000000000000
310
0000000000000000000000000000000000000000000000000000000000000000000000000000000000000000000000000000000000000000000000000000000000000000000000000000000000000000000000000000F52800C3C3BE000028000000000000ECECECEC28F50000000000F52800C3C3BE000000000000000000
310
ECECECEC28F50000000000F52828C3C3C3000028000000000000ECEC000028F50000000000000000000000000000000000000000000000000000000000000000000000000000000000000000000000000000000000000000000000000000000000000000000000000000000000000000000000000000000000000000000000
310
00000000000000000000000000000000000000000000000000000000000000000000000000000000000000000000000000000000000000000000000000000000000000000000000000000000000000000000000000000000F52800C3C3C3C30028000000000000ECECECEC28F50000000000F52800C3C3C3C3000000000000
310
0000ECECECEC28F50000000000F52828C3C3C3000028000000000000ECECEC0028F5000000000000000000000000000000000000000000000000000000000000000000000000000000000000000000000000000000000000000000000000000000000000000000000000000000000000000000000000000000000000000000
310
000000000000000000000000000000000000000000000000000000000000000000000000000000000000000000000000000000000000000000000000000000000000000000000000000000000000000000000000000000000000F5ECECC3C3DC280028000000000000ECECEC0028F50000000000F5ECECC3C3DC2800000000
310
00000000ECECEC0028F50000000000F5280000C3C3000028000000000000ECECEC0028F500000000000000000000000000000000000000000000000000000000000000000000000000000000000000000000000000000000000000000000000000000000000000000000000000000000000000000000000000000000000000
310
0000000000000000000000000000000000000000000000000000000000000000000000000000000000000000000000000000000000000000000000000000000000000000000000000000000000000000000000000000000000000000F5280028C3C3000028000000000000ECECECECECF50000000000F5280028C3C3000000
310
000000000000ECECECEC28F50000000000F5280000C300000028000000000000ECECECEC28F50000000000000000000000000000000000000000000000000000000000000000000000000000000000000000000000000000000000000000000000000000000000000000000000000000000000000000000000000000000000
310
00000000000000000000000000000000000000000000000000000000000000000000000000000000000000000000000000000000000000000000000000000000000000000000000000000000000000000000000000000000000000000000F5ECECC3BEDC00002800000000000028ECECECECF50000000000F5ECECC3C3DC00
310
000000000000000028ECECEC28F50000000000F5ECECC3DC00000028000000000000ECECECEC28F5000000000000000000000000000000000000000000000000000000000000000000000000000000000000000000000000000000000000000000000000000000000000000000000000000000000000000000000000000000
310
000000000000000000000000000000000000000000000000000000000000000000000000000000000000000000000000000000000000000000000000000000000000000000000000000000000000000000000000000000000000000000000000F52800C3C3DC2800280000000000002828282828F50000000000F52800C3C3
310
DC2800000000000000002828282828F50000000000F52828C3DCC30000280000000000002828282828F500000000000000000000000000000000000000000000000000000000000000000000000000000000000000000000000000000000000000000000000000000000000000000000000000000000000000000000000000
310
0000000000000000000000000000000000000000000000000000000000000000000000000000000000000000000000000000000000000000000000000000000000000000000000000000000000000000000000000000000000000000000000000000F5ECECECC3C32828282828282828282828282828F50000000000F5ECEC
310
ECC3C32828282828282828282828282828F50000000000F5ECECECC3282828282828282828282828282828F50000000000000000000000000000000000000000000000000000000000000000000000000000000000000000000000000000000000000000000000000000000000000000000000000000000000000000000000
310
00000000000000000000000000000000000000000000000000000000000000000000000000000000000000000000000000000000000000000000000000000000000000000000000000000000000000000000000000000000000000000000000000000000F5F5F5F5F5F5F5F5F5F5F5F5F5F5F528F5F528F5F50000000000F5
310
F5F5F5F5F5F5F5F5F5F5F5F5F5F528F528F5F5F50000000000F5F5F5F5F5F5F5F5F5F5F5F5F5F5F5F5F5F5F5F5F5000000000000000000000000000000000000000000000000000000000000000000000000000000000000000000000000000000000000000000000000000000000000000000000000000000000000000000
310
000000000000000000000000000000000000000000000000000000000000000000000000000000000000000000000000000000000000000000000000000000000000000000000000000000000000000000000000000000000000000000000000000000000000F5280000000000000000000000000028ECECECECF500000000
310
00F5280000000000000000000000000028EC28ECECF50000000000F5280000000000000000000000000028EC28ECECF500000000000000000000000000000000000000000000000000000000000000000000000000000000000000000000000000000000000000000000000000000000000000000000000000000000000000
310
0000000000000000000000000000000000000000000000000000000000000000000000000000000000000000000000000000000000000000000000000000000000000000000000000000000000000000000000000000000000000000000000000000000000000000F5280000000000000000000000000028ECECECECF50000
310
000000F5280000000000000000000000000028ECECECECF50000000000F5280000000000000000000000000028EC28ECECF50000000000000000000000000000000000000000000000000000000000000000000000000000000000000000000000000000000000000000000000000000000000000000000000000000000000
310
00000000000000000000000000000000000000000000000000000000000000000000000000000000000000000000000000000000000000000000000000000000000000000000000000000000000000000000000000000000000000000000000000000000000000000000F5280FC30FC3C3C30FC3C300C3C3C3ECECECEC28F5
310
0000000000F528C3C3C3C3C3C3BEC3C300C3C300ECECECEC28F50000000000F5280000C3C3C3C3BEC3C30FC3C300ECECECEC28F5000000000000000000000000000000000000000000000000000000000000000000000000000000000000000000000000000000000000000000000000000000000000000000000000000000
310
000000000000000000000000000000000000000000000000000000000000000000000000000000000000000000000000000000000000000000000000000000000000000000000000000000000000000000000000000000000000000000000000000000000000000000000000F528BEBEC3C3BE0F0FC3C3BE0FBEC328282828
310
28F50000000000F528DCC3C3C3BE0FBEC3C3BE0FC3C32828282828F50000000000F5280000C3C3BE0FBEC3C30F0FC3C3ECECECEC28F500000000000000000000000000000000000000000000000000000000000000000000000000000000000000000000000000000000000000000000000000000000000000000000000000
310
0000000000000000000000000000000000000000000000000000000000000000000000000000000000000000000000000000000000000000000000000000000000000000000000000000000000000000000000000000000000000000000000000000000000000000000000000000F528BEC3ECECC3C3C3C3C3C3C3C3C32800
310
000028F50000000000F528C3C3ECC3C3C3C3C3C3C3C3C3C32800000028F50000000000F52800ECC3C3C3C3C3C3C3C3C3C3002800000028F50000000000000000000000000000000000000000000000000000000000000000000000000000000000000000000000000000000000000000000000000000000000000000000000
310
00000000000000000000000000000000000000000000000000000000000000000000000000000000000000000000000000000000000000000000000000000000000000000000000000000000000000000000000000000000000000000000000000000000000000000000000000000000F5ECECECECECBEC3F5BE28BEC3BEC3
310
2800000028F50000000000F5ECECECECECBEC3BEBEC3BEC3BEC32800000028F50000000000F5ECECECECECBEC3BEBEC3C3F5BE28ECEC000028F5000000000000000000000000000000000000000000000000000000000000000000000000000000000000000000000000000000000000000000000000000000000000000000
310
000000000000000000000000000000000000000000000000000000000000000000000000000000000000000000000000000000000000000000000000000000000000000000000000000000000000000000000000000000000000000000000000000000000000000000000000000000000000F5ECECECECEC28282828282828
310
2828ECECECEC28F50000000000F5ECECECEC28282828282828282828ECECECEC28F50000000000F5ECECECEC28282828282828282828ECEC000028F500000000000000000000000000000000000000000000000000000000000000000000000000000000000000000000000000000000000000000000000000000000000000
310
0000000000000000000000000000000000000000000000000000000000000000000000000000000000000000000000000000000000000000000000000000000000000000000000000000000000000000000000000000000000000000000000000000000000000000000000000000000000000000F528000000000000000000
310
00000000ECECECEC28F50000000000F52800000000000000000000000000ECECECEC28F50000000000F52800000000000000000000000000ECECEC0028F50000000000000000000000000000000000000000000000000000000000000000000000000000000000000000000000000000000000000000000000000000000000
310
00000000000000000000000000000000000000000000000000000000000000000000000000000000000000000000000000000000000000000000000000000000000000000000000000000000000000000000000000000000000000000000000000000000000000000000000000000000000000000000F5280FC30FC3C3C30F
310
C3C300C3C300ECECEC0028F50000000000F5280FC30FC3C3C3BEC3C300C3C300ECECEC0028F50000000000F52800000FC3C3C3BEC3C3C3C3C300ECECEC0028F5000000000000000000000000000000000000000000000000000000000000000000000000000000000000000000000000000000000000000000000000000000
310
000000000000000000000000000000000000000000000000000000000000000000000000000000000000000000000000000000000000000000000000000000000000000000000000000000000000000000000000000000000000000000000000000000000000000000000000000000000000000000000000F5280FC30FC300
310
0F0FC3C3000F00C3ECECECECECF50000000000F528C3C3C3C3000FBEC3C3000F00C3ECECECEC28F50000000000F5280000C3C3000FBEC3C3C30FC3C3ECECECEC28F500000000000000000000000000000000000000000000000000000000000000000000000000000000000000000000000000000000000000000000000000
310
0000000000000000000000000000000000000000000000000000000000000000000000000000000000000000000000000000000000000000000000000000000000000000000000000000000000000000000000000000000000000000000000000000000000000000000000000000000000000000000000000000F528BEBEC3
310
C3C3C3C3C3C3C3C3C3C328ECECECECF50000000000F528C3C3C3C3C3C3C3C3C3C3C3C3C328ECECECECF50000000000F5280000C3C3C3C3C3C3C3C3C3C3C3ECECECECECF50000000000000000000000000000000000000000000000000000000000000000000000000000000000000000000000000000000000000000000000
310
00000000000000000000000000000000000000000000000000000000000000000000000000000000000000000000000000000000000000000000000000000000000000000000000000000000000000000000000000000000000000000000000000000000000000000000000000000000000000000000000000000000F528EC
310
ECECECBEC3C3C300C3C3C3C32828282828F50000000000F5ECECC3ECC3C3C3C3C3C3C3C3C3C32828282828F50000000000F52800ECC3ECC3C3C3C3C3C3C3C30028282828ECF5000000000000000000000000000000000000000000000000000000000000000000000000000000000000000000000000000000000000000000
310
000000000000000000000000000000000000000000000000000000000000000000000000000000000000000000000000000000000000000000000000000000000000000000000000000000000000000000000000000000000000000000000000000000000000000000000000000000000000000000000000000000000000F5
310
ECECECECEC28282828282828BEBE2828282828F50000000000F5ECECECEC2828282828282828BE282828282828F50000000000F5ECECECEC2828282828282828BE282828282828F500000000000000000000000000000000000000000000000000000000000000000000000000000000000000000000000000000000000000
310
00000000000000000000000000000000000000000000000000000000000000000000000000000000000000000000000000000000000000000000000000000000000000000000000000000000000000000000000000000000000000000000000000000000000000000000000000000000000000000000000000000000000000
310
00F5F5F5F5F5F5F5F5F5F5F5F5F5F5F528F5F528F5F50000000000F5F5F5F5F5F5F5F5F5F5F5F5F5F5F528F528F5F5F50000000000F5F5F5F5F5F5F5F5F5F5F5F5F5F5F528F528F5F5F50000000000000000000000000000000000000000000000000000000000000000000000000000000000000000000000000000000000
310
00000000000000000000000000000000000000000000000000000000000000000000000000000000000000000000000000000000000000000000000000000000000000000000000000000000000000000000000000000000000000000000000000000000000000000000000000000000000000000000000000000000000000
310
000000F5280000000000000000000000000028ECECECECF50000000000F5280000000000000000000000000028EC28ECECF50000000000F5280000000000000000000000000028EC28ECECF5000000000000000000000000000000000000000000000000000000000000000000000000000000000000000000000000000000
310
00000000000000000000000000000000000000000000000000000000000000000000000000000000000000000000000000000000000000000000000000000000000000000000000000000000000000000000000000000000000000000000000000000000000000000000000000000000000000000000000000000000000000
310
0000000000F5280F0F0F0F000F0F0000000F000028ECECECECF50000000000F5280F000F0F000F0000000F0F000028ECECECECF50000000000F52800000F00000F0000000F0F000028EC28ECECF500000000000000000000000000000000000000000000000000000000000000000000000000000000000000000000000000
310
00000000000000000000000000000000000000000000000000000000000000000000000000000000000000000000000000000000000000000000000000000000000000000000000000000000000000000000000000000000000000000000000000000000000000000000000000000000000000000000000000000000000000
310
00000000000000F5280FC30FC3C3C3F5C3C300C3C3C3ECECECEC28F50000000000F528C3C3C3C3C3C3BEC3C30FC3C300ECECECEC28F50000000000F5280000C3C3C3C3C3C3C30FC3C300ECECECEC28F50000000000000000000000000000000000000000000000000000000000000000000000000000000000000000000000
310
00000000000000000000000000000000000000000000000000000000000000000000000000000000000000000000000000000000000000000000000000000000000000000000000000000000000000000000000000000000000000000000000000000000000000000000000000000000000000000000000000000000000000
310
000000000000000000F528BEBEC3F5BE0F0FC3C3BE0FBEC3C328282828F50000000000F528F5C3F5C3BE0FBEC3C30F0FC3C3C328282828F50000000000F5280000F5C3BEF5BEC3BE0F0FC3C3ECECECEC28F5000000000000000000000000000000000000000000000000000000000000000000000000000000000000000000
310
00000000000000000000000000000000000000000000000000000000000000000000000000000000000000000000000000000000000000000000000000000000000000000000000000000000000000000000000000000000000000000000000000000000000000000000000000000000000000000000000000000000000000
310
0000000000000000000000F528BEC3ECECC3C3C3C3C3C3C3C3C32800000028F50000000000F5ECC3C3ECC3C3C3C3C3C3C3C3C3C32800000028F50000000000F52800ECC3C3C3C3C3C3C3C3C3C3002800000028F500000000000000000000000000000000000000000000000000000000000000000000000000000000000000
310
00000000000000000000000000000000000000000000000000000000000000000000000000000000000000000000000000000000000000000000000000000000000000000000000000000000000000000000000000000000000000000000000000000000000000000000000000000000000000000000000000000000000000
310
00000000000000000000000000F5ECECECECECBEF5F5BE28BEF5BEC32800000028F50000000000F5ECECECECECBEF5BEBEC3F5F5BEC32800000028F50000000000F5ECECECEC28BEF5BEBEBEF5F5BE28ECEC000028F50000000000000000000000000000000000000000000000000000000000000000000000000000000000
310
00000000000000000000000000000000000000000000000000000000000000000000000000000000000000000000000000000000000000000000000000000000000000000000000000000000000000000000000000000000000000000000000000000000000000000000000000000000000000000000000000000000000000
310
000000000000000000000000000000F5ECECECECEC282828282828282828ECECECEC28F50000000000F5ECECECEC28282828282828282828ECECECEC28F50000000000F5ECECECEC28282828282828282828ECEC000028F5000000000000000000000000000000000000000000000000000000000000000000000000000000
310
00000000000000000000000000000000000000000000000000000000000000000000000000000000000000000000000000000000000000000000000000000000000000000000000000000000000000000000000000000000000000000000000000000000000000000000000000000000000000000000000000000000000000
310
0000000000000000000000000000000000F52800000000000000000000000000ECECECEC28F50000000000F52800000000000000000000000000ECECECEC28F50000000000F52800000000000000000000000000ECECEC0028F500000000000000000000000000000000000000000000000000000000000000000000000000
310
00000000000000000000000000000000000000000000000000000000000000000000000000000000000000000000000000000000000000000000000000000000000000000000000000000000000000000000000000000000000000000000000000000000000000000000000000000000000000000000000000000000000000
310
00000000000000000000000000000000000000F5280F0F0F0FC30F0FC3C3000FC3C3ECECEC0028F50000000000F5280FC30F0FC30FBEC3C3000FC300ECECEC0028F50000000000F52800000FC3C30FBEC3C30F0FC300ECECEC0028F50000000000000000000000000000000000000000000000000000000000000000000000
310
00000000000000000000000000000000000000000000000000000000000000000000000000000000000000000000000000000000000000000000000000000000000000000000000000000000000000000000000000000000000000000000000000000000000000000000000000000000000000000000000000000000000000
310
000000000000000000000000000000000000000000F5280F0F0F0F00F5F5C3C3000F00C3ECECECECECF50000000000F5280FC30F0FBEF5BEC3C3F5F5BEC3ECECECECECF50000000000F52800000FC300F5BEC3C30F0FC3C3ECECECEC28F5000000000000000000000000000000000000000000000000000000000000000000
310
00000000000000000000000000000000000000000000000000000000000000000000000000000000000000000000000000000000000000000000000000000000000000000000000000000000000000000000000000000000000000000000000000000000000000000000000000000000000000000000000000000000000000
310
0000000000000000000000000000000000000000000000F528F5BEC3F5C3F5F5C3C3C3F5C3C328ECECECECF50000000000F528F5C3F5C3C3F5C3C3C3C3F5C3C328ECECECECF50000000000F5280000F5C3C3F5C3C3C3F5F5C3C3ECECECECECF500000000000000000000000000000000000000000000000000000000000000
310
00000000000000000000000000000000000000000000000000000000000000000000000000000000000000000000000000000000000000000000000000000000000000000000000000000000000000000000000000000000000000000000000000000000000000000000000000000000000000000000000000000000000000
310
00000000000000000000000000000000000000000000000000F528ECECECECBEF5F5C300C3F5C3C32828282828F50000000000F5ECECECECECC3F5C3BEC3C3F5C3C32828282828F50000000000F52800ECC3ECC3F5C3BEC3F5F5BE002828282828F50000000000000000000000000000000000000000000000000000000000
310
00000000000000000000000000000000000000000000000000000000000000000000000000000000000000000000000000000000000000000000000000000000000000000000000000000000000000000000000000000000000000000000000000000000000000000000000000000000000000000000000000000000000000
310
000000000000000000000000000000000000000000000000000000F5ECECECECEC28282828282828BEBE2828282828F50000000000F5ECECECEC2828282828282828BE282828282828F50000000000F5ECECECEC2828282828282828BE282828282828F5000000000000000000000000000000000000000000000000000000
310
00000000000000000000000000000000000000000000000000000000000000000000000000000000000000000000000000000000000000000000000000000000000000000000000000000000000000000000000000000000000000000000000000000000000000000000000000000000000000000000000000000000000000
310
0000000000000000000000000000000000000000000000000000000000F5F5F5F5F5F5F5F5F5F5F5F5F5F5F5F5F5F5F5F5F50000000000F5F5F5F5F5F5F5F5F5F5F5F5F5F5F5F5F5F5F5F5F50000000000F5F5F5F5F5F5F5F5F5F5F5F5F5F5F5F5F5F5F5F5F500000000000000000000000000000000000000000000000000
310
00000000000000000000000000000000000000000000000000000000000000000000000000000000000000000000000000000000000000000000000000000000000000000000000000000000000000000000000000000000000000000000000000000000000000000000000000000000000000000000000000000000000000
310
00000000000000000000000000000000000000000000000000000000000000000000000000000000000000000000000000000000000000000000000000000000000000000000000000000000000000000000000000000000000000000000000000000000000000000000000000000000000000000000000000000000000000
310
00000000000000000000000000000000000000000000000000000000000000000000000000000000000000000000000000000000000000000000000000000000000000000000000000000000000000000000000000000000000000000000000000000000000000000000000000000000000000000000000000000000000000
310
00000000000000000000000000000000000000000000000000000000000000000000000000000000000000000000000000000000000000000000000000000000000000000000000000000000000000000000000000000000000000000000000000000000000000000000000000000000000000000000000000000000000000
310
00000000000000000000000000000000000000000000000000000000000000000000000000000000000000000000000000000000000000000000000000000000000000000000000000000000000000000000000000000000000000000000000000000000000000000000000000000000000000000000000000000000000000
310
00000000000000000000000000000000000000000000000000000000000000000000000000000000000000000000000000000000000000000000000000000000000000000000000000000000000000000000000000000000000000000000000000000000000000000000000000000000000000000000000000000000000000
310
00000000000000000000000000000000000000000000000000000000000000000000000000000000000000000000000000000000000000000000000000000000000000000000000000000000000000000000000000000000000000000000000000000000000000000000000000000000000000000000000000000000000000
310
00000000000000000000000000000000000000000000000000000000000000000000000000000000000000000000000000000000000000000000000000000000000000000000000000000000000000000000000000000000000000000000000000000000000000000000000000000000000000000000000000000000000000
310
00000000000000000000000000000000000000000000000000000000000000000000000000000000000000000000000000000000000000000000000000000000000000000000000000000000000000000000000000000000000000000000000000000000000000000000000000000000000000000000000000000000000000
310
00000000000000000000000000000000000000000000000000000000000000000000000000000000000000000000000000000000000000000000000000000000000000000000000000000000000000000000000000000000000000000000000000000000000000000000000000000000000000000000000000000000000000
310
00000000000000000000000000000000000000000000000000000000000000000000000000000000000000000000000000000000000000000000000000000000000000000000000000000000000000000000000000000000000000000000000000000000000000000000000000000000000000000000000000000000000000
310
00000000000000000000000000000000000000000000000000000000000000000000000000000000000000000000000000000000000000000000000000000000000000000000000000000000000000000000000000000000000000000000000000000000000000000000000000000000000000000000000000000000000000
310
00000000000000000000000000000000000000000000000000000000000000000000000000000000000000000000000000000000000000000000000000000000000000000000000000000000000000000000000000000000000000000000000000000000000000000000000000000000000000000000000000000000000000
310
00000000000000000000000000000000000000000000000000000000000000000000000000000000000000000000000000000000000000000000000000000000000000000000000000000000000000000000000000000000000000000000000000000000000000000000000000000000000000000000000000000000000000
310
00000000000000000000000000000000000000000000000000000000000000000000000000000000000000000000000000000000000000000000000000000000000000000000000000000000000000000000000000000000000000000000000000000000000000000000000000000000000000000000000000000000000000
310
00000000000000000000000000000000000000000000000000000000000000000000000000000000000000000000000000000000000000000000000000000000000000000000000000000000000000000000000000000000000000000000000000000000000000000000000000000000000000000000000000000000000000
310
00000000000000000000000000000000000000000000000000000000000000000000000000000000000000000000000000000000000000000000000000000000000000000000000000000000000000000000000000000000000000000000000000000000000000000000000000000000000000000000000000000000000000
310
00000000000000000000000000000000000000000000000000000000000000000000000000000000000000000000000000000000000000000000000000000000000000000000000000000000000000000000000000000000000000000000000000000000000000000000000000000000000000000000000000000000000000
310
00000000000000000000000000000000000000000000000000000000000000000000000000000000000000000000000000000000000000000000000000000000000000000000000000000000000000000000000000000000000000000000000000000000000000000000000000000000000000000000000000000000000000
310
00000000000000000000000000000000000000000000000000000000000000000000000000000000000000000000000000000000000000000000000000000000000000000000000000000000000000000000000000000000000000000000000000000000000000000000000000000000000000000000000000000000000000
310
00000000000000000000000000000000000000000000000000000000000000000000000000000000000000000000000000000000000000000000000000000000000000000000000000000000000000000000000000000000000000000000000000000000000000000000000000000000000000000000000000000000000000
310
00000000000000000000000000000000000000000000000000000000000000000000000000000000000000000000000000000000000000000000000000000000000000000000000000000000000000000000000000000000000000000000000000000000000000000000000000000000000000000000000000000000000000
310
00000000000000000000000000000000000000000000000000000000000000000000000000000000000000000000000000000000000000000000000000000000000000000000000000000000000000000000000000000000000000000000000000000000000000000000000000000000000000000000000000000000000000
310
00000000000000000000000000000000000000000000000000000000000000000000000000000000000000000000000000000000000000000000000000000000000000000000000000000000000000000000000000000000000000000000000000000000000000000000000000000000000000000000000000000000000000
310
00000000000000000000000000000000000000000000000000000000000000000000000000000000000000000000000000000000000000000000000000000000000000000000000000000000000000000000000000000000000000000000000000000000000000000000000000000000000000000000000000000000000000
310
00000000000000000000000000000000000000000000000000000000000000000000000000000000000000000000000000000000000000000000000000000000000000000000000000000000000000000000000000000000000000000000000000000000000000000000000000000000000000000000000000000000000000
310
00000000000000000000000000000000000000000000000000000000000000000000000000000000000000000000000000000000000000000000000000000000000000000000000000000000000000000000000000000000000000000000000000000000000000000000000000000000000000000000000000000000000000
310
00000000000000000000000000000000000000000000000000000000000000000000000000000000000000000000000000000000000000000000000000000000000000000000000000000000000000000000000000000000000000000000000000000000000000000000000000000000000000000000000000000000000000
310
00000000000000000000000000000000000000000000000000000000000000000000000000000000000000000000000000000000000000000000000000000000000000000000000000000000000000000000000000000000000000000000000000000000000000000000000000000000000000000000000000000000000000
310
00000000000000000000000000000000000000000000000000000000000000000000000000000000000000000000000000000000000000000000000000000000000000000000000000000000000000000000000000000000000000000000000000000000000000000000000000000000000000000000000000000000000000
310
000000000000000000000000000000000000000000000000000000000000000000000000000000000000000000000000000000000000000000000000000000000000
  0
XRECORD
  5
145A2
102
{ACAD_REACTORS
330
145A1
102
}
330
145A1
100
AcDbXrecord
280
     1
102
SHADEPLOT
 70
     0
102
SHADEPLOTRESLEVEL
 70
     2
102
SHADEPLOTCUSTOMDPI
 70
   300
  0
XRECORD
  5
145A4
102
{ACAD_REACTORS
330
3DB1
102
}
330
3DB1
100
AcDbXrecord
280
     1
102
MATERIAL
148
0.0
149
0.0
149
0.0
 93
        0
 94
      127
282
     0
 72
     0
 77
     0
171
     0
175
     0
179
     0
273
     0
  0
XRECORD
  5
3DB3
102
{ACAD_REACTORS
330
3DB1
102
}
330
3DB1
100
AcDbXrecord
280
     1
270
     1
271
     1
  0
XRECORD
  5
3DB2
102
{ACAD_REACTORS
330
3DB1
102
}
330
3DB1
100
AcDbXrecord
280
     1
270
     1
271
     1
  0
XRECORD
  5
3DB6
102
{ACAD_REACTORS
330
3DB1
102
}
330
3DB1
100
AcDbXrecord
280
     1
270
     1
271
     1
  0
XRECORD
  5
3DB5
102
{ACAD_REACTORS
330
3DB1
102
}
330
3DB1
100
AcDbXrecord
280
     1
270
     1
271
     1
  0
XRECORD
  5
3DB7
102
{ACAD_REACTORS
330
3DB1
102
}
330
3DB1
100
AcDbXrecord
280
     1
270
     1
271
     1
  0
XRECORD
  5
3DB4
102
{ACAD_REACTORS
330
3DB1
102
}
330
3DB1
100
AcDbXrecord
280
     1
270
     1
271
     1
  0
XRECORD
  5
145A3
102
{ACAD_REACTORS
330
3DA9
102
}
330
3DA9
100
AcDbXrecord
280
     1
102
MATERIAL
148
0.0
149
0.0
149
0.0
 93
        0
 94
      127
282
     0
 72
     0
 77
     0
171
     0
175
     0
179
     0
273
     0
  0
XRECORD
  5
3DAB
102
{ACAD_REACTORS
330
3DA9
102
}
330
3DA9
100
AcDbXrecord
280
     1
270
     1
271
     1
  0
XRECORD
  5
3DAA
102
{ACAD_REACTORS
330
3DA9
102
}
330
3DA9
100
AcDbXrecord
280
     1
270
     1
271
     1
  0
XRECORD
  5
3DAE
102
{ACAD_REACTORS
330
3DA9
102
}
330
3DA9
100
AcDbXrecord
280
     1
270
     1
271
     1
  0
XRECORD
  5
3DAD
102
{ACAD_REACTORS
330
3DA9
102
}
330
3DA9
100
AcDbXrecord
280
     1
270
     1
271
     1
  0
XRECORD
  5
3DAF
102
{ACAD_REACTORS
330
3DA9
102
}
330
3DA9
100
AcDbXrecord
280
     1
270
     1
271
     1
  0
XRECORD
  5
3DAC
102
{ACAD_REACTORS
330
3DA9
102
}
330
3DA9
100
AcDbXrecord
280
     1
270
     1
271
     1
  0
XRECORD
  5
145A5
102
{ACAD_REACTORS
330
3DB9
102
}
330
3DB9
100
AcDbXrecord
280
     1
102
MATERIAL
148
0.0
149
0.0
149
0.0
 93
        0
 94
      127
282
     0
 72
     0
 77
     0
171
     0
175
     0
179
     0
273
     0
  0
XRECORD
  5
3DBB
102
{ACAD_REACTORS
330
3DB9
102
}
330
3DB9
100
AcDbXrecord
280
     1
270
     1
271
     1
  0
XRECORD
  5
3DBA
102
{ACAD_REACTORS
330
3DB9
102
}
330
3DB9
100
AcDbXrecord
280
     1
270
     1
271
     1
  0
XRECORD
  5
3DBE
102
{ACAD_REACTORS
330
3DB9
102
}
330
3DB9
100
AcDbXrecord
280
     1
270
     1
271
     1
  0
XRECORD
  5
3DBD
102
{ACAD_REACTORS
330
3DB9
102
}
330
3DB9
100
AcDbXrecord
280
     1
270
     1
271
     1
  0
XRECORD
  5
3DBF
102
{ACAD_REACTORS
330
3DB9
102
}
330
3DB9
100
AcDbXrecord
280
     1
270
     1
271
     1
  0
XRECORD
  5
3DBC
102
{ACAD_REACTORS
330
3DB9
102
}
330
3DB9
100
AcDbXrecord
280
     1
270
     1
271
     1
  0
XRECORD
  5
1459C
102
{ACAD_REACTORS
330
1459B
102
}
330
1459B
100
AcDbXrecord
280
     1
102
ACAD_ROUNDTRIP_2012_MLEADER_STYLE
298
     1
  0
CELLSTYLEMAP
  5
1459A
102
{ACAD_REACTORS
330
14599
102
}
330
14599
100
AcDbCellStyleMap
 90
        3
300
CELLSTYLE
  1
TABLEFORMAT_BEGIN
 90
        5
170
     1
 91
        0
 92
    32768
 62
   257
 93
        1
300
CONTENTFORMAT
  1
CONTENTFORMAT_BEGIN
 90
        0
 91
        0
 92
        4
 93
        0
300

 40
0.0
140
1.0
 94
        5
 62
     0
340
7
144
0.25
309
CONTENTFORMAT_END
171
     0
 94
        6
 95
        1
302
GRIDFORMAT
  1
GRIDFORMAT_BEGIN
 90
        0
 91
        1
 62
     0
 92
       -2
340
0
 93
        0
 40
0.045
309
GRIDFORMAT_END
 95
        2
302
GRIDFORMAT
  1
GRIDFORMAT_BEGIN
 90
        0
 91
        1
 62
     0
 92
       -2
340
0
 93
        0
 40
0.045
309
GRIDFORMAT_END
 95
        4
302
GRIDFORMAT
  1
GRIDFORMAT_BEGIN
 90
        0
 91
        1
 62
     0
 92
       -2
340
0
 93
        0
 40
0.045
309
GRIDFORMAT_END
 95
        8
302
GRIDFORMAT
  1
GRIDFORMAT_BEGIN
 90
        0
 91
        1
 62
     0
 92
       -2
340
0
 93
        0
 40
0.045
309
GRIDFORMAT_END
 95
       16
302
GRIDFORMAT
  1
GRIDFORMAT_BEGIN
 90
        0
 91
        1
 62
     0
 92
       -2
340
0
 93
        0
 40
0.045
309
GRIDFORMAT_END
 95
       32
302
GRIDFORMAT
  1
GRIDFORMAT_BEGIN
 90
        0
 91
        1
 62
     0
 92
       -2
340
0
 93
        0
 40
0.045
309
GRIDFORMAT_END
309
TABLEFORMAT_END
  1
CELLSTYLE_BEGIN
 90
        1
 91
        1
300
_TITLE
309
CELLSTYLE_END
300
CELLSTYLE
  1
TABLEFORMAT_BEGIN
 90
        5
170
     1
 91
        0
 92
        0
 62
   257
 93
        1
300
CONTENTFORMAT
  1
CONTENTFORMAT_BEGIN
 90
        0
 91
        0
 92
        4
 93
        0
300

 40
0.0
140
1.0
 94
        5
 62
     0
340
7
144
0.18
309
CONTENTFORMAT_END
171
     0
 94
        6
 95
        1
302
GRIDFORMAT
  1
GRIDFORMAT_BEGIN
 90
        0
 91
        1
 62
     0
 92
       -2
340
0
 93
        0
 40
0.045
309
GRIDFORMAT_END
 95
        2
302
GRIDFORMAT
  1
GRIDFORMAT_BEGIN
 90
        0
 91
        1
 62
     0
 92
       -2
340
0
 93
        0
 40
0.045
309
GRIDFORMAT_END
 95
        4
302
GRIDFORMAT
  1
GRIDFORMAT_BEGIN
 90
        0
 91
        1
 62
     0
 92
       -2
340
0
 93
        0
 40
0.045
309
GRIDFORMAT_END
 95
        8
302
GRIDFORMAT
  1
GRIDFORMAT_BEGIN
 90
        0
 91
        1
 62
     0
 92
       -2
340
0
 93
        0
 40
0.045
309
GRIDFORMAT_END
 95
       16
302
GRIDFORMAT
  1
GRIDFORMAT_BEGIN
 90
        0
 91
        1
 62
     0
 92
       -2
340
0
 93
        0
 40
0.045
309
GRIDFORMAT_END
 95
       32
302
GRIDFORMAT
  1
GRIDFORMAT_BEGIN
 90
        0
 91
        1
 62
     0
 92
       -2
340
0
 93
        0
 40
0.045
309
GRIDFORMAT_END
309
TABLEFORMAT_END
  1
CELLSTYLE_BEGIN
 90
        2
 91
        1
300
_HEADER
309
CELLSTYLE_END
300
CELLSTYLE
  1
TABLEFORMAT_BEGIN
 90
        5
170
     1
 91
        0
 92
        0
 62
   257
 93
        1
300
CONTENTFORMAT
  1
CONTENTFORMAT_BEGIN
 90
        0
 91
        0
 92
        4
 93
        0
300

 40
0.0
140
1.0
 94
        2
 62
     0
340
7
144
0.18
309
CONTENTFORMAT_END
171
     0
 94
        6
 95
        1
302
GRIDFORMAT
  1
GRIDFORMAT_BEGIN
 90
        0
 91
        1
 62
     0
 92
       -2
340
0
 93
        0
 40
0.045
309
GRIDFORMAT_END
 95
        2
302
GRIDFORMAT
  1
GRIDFORMAT_BEGIN
 90
        0
 91
        1
 62
     0
 92
       -2
340
0
 93
        0
 40
0.045
309
GRIDFORMAT_END
 95
        4
302
GRIDFORMAT
  1
GRIDFORMAT_BEGIN
 90
        0
 91
        1
 62
     0
 92
       -2
340
0
 93
        0
 40
0.045
309
GRIDFORMAT_END
 95
        8
302
GRIDFORMAT
  1
GRIDFORMAT_BEGIN
 90
        0
 91
        1
 62
     0
 92
       -2
340
0
 93
        0
 40
0.045
309
GRIDFORMAT_END
 95
       16
302
GRIDFORMAT
  1
GRIDFORMAT_BEGIN
 90
        0
 91
        1
 62
     0
 92
       -2
340
0
 93
        0
 40
0.045
309
GRIDFORMAT_END
 95
       32
302
GRIDFORMAT
  1
GRIDFORMAT_BEGIN
 90
        0
 91
        1
 62
     0
 92
       -2
340
0
 93
        0
 40
0.045
309
GRIDFORMAT_END
309
TABLEFORMAT_END
  1
CELLSTYLE_BEGIN
 90
        3
 91
        2
300
_DATA
309
CELLSTYLE_END
  0
XRECORD
  5
1459F
102
{ACAD_REACTORS
330
14599
102
}
330
14599
100
AcDbXrecord
280
     1
102
ACAD_ROUNDTRIP_PRE2007_TABLESTYLE
 90
        4
 91
        0
  1

 92
        4
 93
        0
  2

 94
        4
 95
        0
  3

  0
XRECORD
  5
145B1
102
{ACAD_REACTORS
330
145B0
102
}
330
145B0
100
AcDbXrecord
280
     1
102
RTVSPropertyOp0
 70
     1
102
RTVSPropertyOp1
 70
     1
102
RTVSPropertyOp2
 70
     1
102
RTVSPropertyOp3
 70
     1
102
RTVSPropertyOp4
 70
     1
102
RTVSPropertyOp5
 70
     1
102
RTVSPropertyOp6
 70
     1
102
RTVSPropertyOp7
 70
     1
102
RTVSPropertyOp8
 70
     1
102
RTVSPropertyOp9
 70
     1
102
RTVSPropertyOp10
 70
     1
102
RTVSPropertyOp11
 70
     1
102
RTVSPropertyOp12
 70
     1
102
RTVSPropertyOp13
 70
     1
102
RTVSPropertyOp14
 70
     1
102
RTVSPropertyOp15
 70
     1
102
RTVSPropertyOp16
 70
     1
102
RTVSPropertyOp17
 70
     1
102
RTVSPropertyOp18
 70
     1
102
RTVSPropertyOp19
 70
     1
102
RTVSPropertyOp20
 70
     1
102
RTVSPropertyOp21
 70
     1
102
RTVSPropertyOp22
 70
     1
102
RTVSPropertyOp23
 70
     1
102
RTVSPropertyOp24
 70
     1
102
RTVSPropertyOp25
 70
     1
102
RTVSPropertyOp26
 70
     1
102
RTVSPropertyOp27
 70
     1
102
RTVSPropertyOp28
 70
     1
102
RTVSPropertyOp29
 70
     1
102
RTVSPropertyOp30
 70
     1
102
RTVSPropertyOp31
 70
     1
102
RTVSPropertyOp32
 70
     1
  0
XRECORD
  5
145AF
102
{ACAD_REACTORS
330
145AE
102
}
330
145AE
100
AcDbXrecord
280
     1
102
RTVSPropertyOp0
 70
     1
102
RTVSPropertyOp1
 70
     1
102
RTVSPropertyOp2
 70
     1
102
RTVSPropertyOp3
 70
     1
102
RTVSPropertyOp4
 70
     1
102
RTVSPropertyOp5
 70
     1
102
RTVSPropertyOp6
 70
     1
102
RTVSPropertyOp7
 70
     1
102
RTVSPropertyOp8
 70
     1
102
RTVSPropertyOp9
 70
     1
102
RTVSPropertyOp10
 70
     1
102
RTVSPropertyOp11
 70
     1
102
RTVSPropertyOp12
 70
     1
102
RTVSPropertyOp13
 70
     1
102
RTVSPropertyOp14
 70
     1
102
RTVSPropertyOp15
 70
     1
102
RTVSPropertyOp16
 70
     1
102
RTVSPropertyOp17
 70
     1
102
RTVSPropertyOp18
 70
     1
102
RTVSPropertyOp19
 70
     1
102
RTVSPropertyOp20
 70
     1
102
RTVSPropertyOp21
 70
     1
102
RTVSPropertyOp22
 70
     1
102
RTVSPropertyOp23
 70
     1
102
RTVSPropertyOp24
 70
     1
102
RTVSPropertyOp25
 70
     1
102
RTVSPropertyOp26
 70
     1
102
RTVSPropertyOp27
 70
     1
102
RTVSPropertyOp28
 70
     1
102
RTVSPropertyOp29
 70
     1
102
RTVSPropertyOp30
 70
     1
102
RTVSPropertyOp31
 70
     1
102
RTVSPropertyOp32
 70
     1
  0
XRECORD
  5
145BD
102
{ACAD_REACTORS
330
145BC
102
}
330
145BC
100
AcDbXrecord
280
     1
102
RTVSPropertyOp0
 70
     1
102
RTVSPropertyOp1
 70
     1
102
RTVSPropertyOp2
 70
     1
102
RTVSPropertyOp3
 70
     1
102
RTVSPropertyOp4
 70
     1
102
RTVSPropertyOp5
 70
     1
102
RTVSPropertyOp6
 70
     1
102
RTVSPropertyOp7
 70
     1
102
RTVSPropertyOp8
 70
     1
102
RTVSPropertyOp9
 70
     1
102
RTVSPropertyOp10
 70
     1
102
RTVSPropertyOp11
 70
     1
102
RTVSPropertyOp12
 70
     1
102
RTVSPropertyOp13
 70
     1
102
RTVSPropertyOp14
 70
     1
102
RTVSPropertyOp15
 70
     1
102
RTVSPropertyOp16
 70
     1
102
RTVSPropertyOp17
 70
     1
102
RTVSPropertyOp18
 70
     1
102
RTVSPropertyOp19
 70
     1
102
RTVSPropertyOp20
 70
     1
102
RTVSPropertyOp21
 70
     1
102
RTVSPropertyOp22
 70
     1
102
RTVSPropertyOp23
 70
     1
102
RTVSPropertyOp24
 70
     1
102
RTVSPropertyOp25
 70
     1
102
RTVSPropertyOp26
 70
     1
102
RTVSPropertyOp27
 70
     1
102
RTVSPropertyOp28
 70
     1
102
RTVSPropertyOp29
 70
     1
102
RTVSPropertyOp30
 70
     1
102
RTVSPropertyOp31
 70
     1
102
RTVSPropertyOp32
 70
     1
  0
XRECORD
  5
145C5
102
{ACAD_REACTORS
330
145C4
102
}
330
145C4
100
AcDbXrecord
280
     1
102
RTVSPropertyOp0
 70
     1
102
RTVSPropertyOp1
 70
     1
102
RTVSPropertyOp2
 70
     1
102
RTVSPropertyOp3
 70
     1
102
RTVSPropertyOp4
 70
     1
102
RTVSPropertyOp5
 70
     1
102
RTVSPropertyOp6
 70
     1
102
RTVSPropertyOp7
 70
     1
102
RTVSPropertyOp8
 70
     1
102
RTVSPropertyOp9
 70
     1
102
RTVSPropertyOp10
 70
     1
102
RTVSPropertyOp11
 70
     1
102
RTVSPropertyOp12
 70
     1
102
RTVSPropertyOp13
 70
     1
102
RTVSPropertyOp14
 70
     1
102
RTVSPropertyOp15
 70
     1
102
RTVSPropertyOp16
 70
     1
102
RTVSPropertyOp17
 70
     1
102
RTVSPropertyOp18
 70
     1
102
RTVSPropertyOp19
 70
     1
102
RTVSPropertyOp20
 70
     1
102
RTVSPropertyOp21
 70
     1
102
RTVSPropertyOp22
 70
     1
102
RTVSPropertyOp23
 70
     1
102
RTVSPropertyOp24
 70
     1
102
RTVSPropertyOp25
 70
     1
102
RTVSPropertyOp26
 70
     1
102
RTVSPropertyOp27
 70
     1
102
RTVSPropertyOp28
 70
     1
102
RTVSPropertyOp29
 70
     1
102
RTVSPropertyOp30
 70
     1
102
RTVSPropertyOp31
 70
     1
102
RTVSPropertyOp32
 70
     1
  0
XRECORD
  5
145B7
102
{ACAD_REACTORS
330
145B6
102
}
330
145B6
100
AcDbXrecord
280
     1
102
RTVSPropertyOp0
 70
     1
102
RTVSPropertyOp1
 70
     1
102
RTVSPropertyOp2
 70
     1
102
RTVSPropertyOp3
 70
     1
102
RTVSPropertyOp4
 70
     1
102
RTVSPropertyOp5
 70
     1
102
RTVSPropertyOp6
 70
     1
102
RTVSPropertyOp7
 70
     1
102
RTVSPropertyOp8
 70
     1
102
RTVSPropertyOp9
 70
     1
102
RTVSPropertyOp10
 70
     1
102
RTVSPropertyOp11
 70
     1
102
RTVSPropertyOp12
 70
     1
102
RTVSPropertyOp13
 70
     1
102
RTVSPropertyOp14
 70
     1
102
RTVSPropertyOp15
 70
     1
102
RTVSPropertyOp16
 70
     1
102
RTVSPropertyOp17
 70
     1
102
RTVSPropertyOp18
 70
     1
102
RTVSPropertyOp19
 70
     1
102
RTVSPropertyOp20
 70
     1
102
RTVSPropertyOp21
 70
     1
102
RTVSPropertyOp22
 70
     1
102
RTVSPropertyOp23
 70
     1
102
RTVSPropertyOp24
 70
     1
102
RTVSPropertyOp25
 70
     1
102
RTVSPropertyOp26
 70
     1
102
RTVSPropertyOp27
 70
     1
102
RTVSPropertyOp28
 70
     1
102
RTVSPropertyOp29
 70
     1
102
RTVSPropertyOp30
 70
     1
102
RTVSPropertyOp31
 70
     1
102
RTVSPropertyOp32
 70
     1
  0
XRECORD
  5
145BB
102
{ACAD_REACTORS
330
145BA
102
}
330
145BA
100
AcDbXrecord
280
     1
102
RTVSPropertyOp0
 70
     1
102
RTVSPropertyOp1
 70
     1
102
RTVSPropertyOp2
 70
     1
102
RTVSPropertyOp3
 70
     1
102
RTVSPropertyOp4
 70
     1
102
RTVSPropertyOp5
 70
     1
102
RTVSPropertyOp6
 70
     1
102
RTVSPropertyOp7
 70
     1
102
RTVSPropertyOp8
 70
     1
102
RTVSPropertyOp9
 70
     1
102
RTVSPropertyOp10
 70
     1
102
RTVSPropertyOp11
 70
     1
102
RTVSPropertyOp12
 70
     1
102
RTVSPropertyOp13
 70
     1
102
RTVSPropertyOp14
 70
     1
102
RTVSPropertyOp15
 70
     1
102
RTVSPropertyOp16
 70
     1
102
RTVSPropertyOp17
 70
     1
102
RTVSPropertyOp18
 70
     1
102
RTVSPropertyOp19
 70
     1
102
RTVSPropertyOp20
 70
     1
102
RTVSPropertyOp21
 70
     1
102
RTVSPropertyOp22
 70
     1
102
RTVSPropertyOp23
 70
     1
102
RTVSPropertyOp24
 70
     1
102
RTVSPropertyOp25
 70
     1
102
RTVSPropertyOp26
 70
     1
102
RTVSPropertyOp27
 70
     1
102
RTVSPropertyOp28
 70
     1
102
RTVSPropertyOp29
 70
     1
102
RTVSPropertyOp30
 70
     1
102
RTVSPropertyOp31
 70
     1
102
RTVSPropertyOp32
 70
     1
  0
XRECORD
  5
145D5
102
{ACAD_REACTORS
330
145D4
102
}
330
145D4
100
AcDbXrecord
280
     1
102
RTVSPropertyOp0
 70
     0
102
RTVSPropertyOp1
 70
     0
102
RTVSPropertyOp2
 70
     0
102
RTVSPropertyOp3
 70
     0
102
RTVSPropertyOp4
 70
     0
102
RTVSPropertyOp5
 70
     0
102
RTVSPropertyOp6
 70
     0
102
RTVSPropertyOp7
 70
     0
102
RTVSPropertyOp8
 70
     0
102
RTVSPropertyOp9
 70
     0
102
RTVSPropertyOp10
 70
     0
102
RTVSPropertyOp11
 70
     0
102
RTVSPropertyOp12
 70
     0
102
RTVSPropertyOp13
 70
     0
102
RTVSPropertyOp14
 70
     2
102
RTVSPropertyOp15
 70
     0
102
RTVSPropertyOp16
 70
     0
102
RTVSPropertyOp17
 70
     0
102
RTVSPropertyOp18
 70
     0
102
RTVSPropertyOp19
 70
     0
102
RTVSPropertyOp20
 70
     0
102
RTVSPropertyOp21
 70
     0
102
RTVSPropertyOp22
 70
     0
102
RTVSPropertyOp23
 70
     0
102
RTVSPropertyOp24
 70
     0
102
RTVSPropertyOp25
 70
     0
102
RTVSPropertyOp26
 70
     0
102
RTVSPropertyOp27
 70
     0
102
RTVSPropertyOp28
 70
     1
102
RTVSPropertyOp29
 70
     1
102
RTVSPropertyOp30
 70
     1
102
RTVSPropertyOp31
 70
     1
102
RTVSPropertyOp32
 70
     1
  0
XRECORD
  5
145C3
102
{ACAD_REACTORS
330
145C2
102
}
330
145C2
100
AcDbXrecord
280
     1
102
RTVSPropertyOp0
 70
     1
102
RTVSPropertyOp1
 70
     1
102
RTVSPropertyOp2
 70
     1
102
RTVSPropertyOp3
 70
     1
102
RTVSPropertyOp4
 70
     1
102
RTVSPropertyOp5
 70
     1
102
RTVSPropertyOp6
 70
     1
102
RTVSPropertyOp7
 70
     1
102
RTVSPropertyOp8
 70
     1
102
RTVSPropertyOp9
 70
     1
102
RTVSPropertyOp10
 70
     1
102
RTVSPropertyOp11
 70
     1
102
RTVSPropertyOp12
 70
     1
102
RTVSPropertyOp13
 70
     1
102
RTVSPropertyOp14
 70
     1
102
RTVSPropertyOp15
 70
     1
102
RTVSPropertyOp16
 70
     1
102
RTVSPropertyOp17
 70
     1
102
RTVSPropertyOp18
 70
     1
102
RTVSPropertyOp19
 70
     1
102
RTVSPropertyOp20
 70
     1
102
RTVSPropertyOp21
 70
     1
102
RTVSPropertyOp22
 70
     1
102
RTVSPropertyOp23
 70
     1
102
RTVSPropertyOp24
 70
     1
102
RTVSPropertyOp25
 70
     1
102
RTVSPropertyOp26
 70
     1
102
RTVSPropertyOp27
 70
     1
102
RTVSPropertyOp28
 70
     1
102
RTVSPropertyOp29
 70
     1
102
RTVSPropertyOp30
 70
     1
102
RTVSPropertyOp31
 70
     1
102
RTVSPropertyOp32
 70
     1
  0
XRECORD
  5
145A7
102
{ACAD_REACTORS
330
145A6
102
}
330
145A6
100
AcDbXrecord
280
     1
102
RTVSPropertyOp0
 70
     1
102
RTVSPropertyOp1
 70
     1
102
RTVSPropertyOp2
 70
     1
102
RTVSPropertyOp3
 70
     1
102
RTVSPropertyOp4
 70
     1
102
RTVSPropertyOp5
 70
     1
102
RTVSPropertyOp6
 70
     1
102
RTVSPropertyOp7
 70
     1
102
RTVSPropertyOp8
 70
     1
102
RTVSPropertyOp9
 70
     1
102
RTVSPropertyOp10
 70
     1
102
RTVSPropertyOp11
 70
     1
102
RTVSPropertyOp12
 70
     1
102
RTVSPropertyOp13
 70
     1
102
RTVSPropertyOp14
 70
     1
102
RTVSPropertyOp15
 70
     1
102
RTVSPropertyOp16
 70
     1
102
RTVSPropertyOp17
 70
     1
102
RTVSPropertyOp18
 70
     1
102
RTVSPropertyOp19
 70
     1
102
RTVSPropertyOp20
 70
     1
102
RTVSPropertyOp21
 70
     1
102
RTVSPropertyOp22
 70
     1
102
RTVSPropertyOp23
 70
     1
102
RTVSPropertyOp24
 70
     1
102
RTVSPropertyOp25
 70
     1
102
RTVSPropertyOp26
 70
     1
102
RTVSPropertyOp27
 70
     1
102
RTVSPropertyOp28
 70
     1
102
RTVSPropertyOp29
 70
     1
102
RTVSPropertyOp30
 70
     1
102
RTVSPropertyOp31
 70
     1
102
RTVSPropertyOp32
 70
     1
  0
XRECORD
  5
145A9
102
{ACAD_REACTORS
330
145A8
102
}
330
145A8
100
AcDbXrecord
280
     1
102
RTVSPropertyOp0
 70
     1
102
RTVSPropertyOp1
 70
     1
102
RTVSPropertyOp2
 70
     1
102
RTVSPropertyOp3
 70
     1
102
RTVSPropertyOp4
 70
     1
102
RTVSPropertyOp5
 70
     1
102
RTVSPropertyOp6
 70
     1
102
RTVSPropertyOp7
 70
     1
102
RTVSPropertyOp8
 70
     1
102
RTVSPropertyOp9
 70
     1
102
RTVSPropertyOp10
 70
     1
102
RTVSPropertyOp11
 70
     1
102
RTVSPropertyOp12
 70
     1
102
RTVSPropertyOp13
 70
     1
102
RTVSPropertyOp14
 70
     1
102
RTVSPropertyOp15
 70
     1
102
RTVSPropertyOp16
 70
     1
102
RTVSPropertyOp17
 70
     1
102
RTVSPropertyOp18
 70
     1
102
RTVSPropertyOp19
 70
     1
102
RTVSPropertyOp20
 70
     1
102
RTVSPropertyOp21
 70
     1
102
RTVSPropertyOp22
 70
     1
102
RTVSPropertyOp23
 70
     1
102
RTVSPropertyOp24
 70
     1
102
RTVSPropertyOp25
 70
     1
102
RTVSPropertyOp26
 70
     1
102
RTVSPropertyOp27
 70
     1
102
RTVSPropertyOp28
 70
     1
102
RTVSPropertyOp29
 70
     1
102
RTVSPropertyOp30
 70
     1
102
RTVSPropertyOp31
 70
     1
102
RTVSPropertyOp32
 70
     1
  0
XRECORD
  5
145AB
102
{ACAD_REACTORS
330
145AA
102
}
330
145AA
100
AcDbXrecord
280
     1
102
RTVSPropertyOp0
 70
     1
102
RTVSPropertyOp1
 70
     1
102
RTVSPropertyOp2
 70
     1
102
RTVSPropertyOp3
 70
     1
102
RTVSPropertyOp4
 70
     1
102
RTVSPropertyOp5
 70
     1
102
RTVSPropertyOp6
 70
     1
102
RTVSPropertyOp7
 70
     1
102
RTVSPropertyOp8
 70
     1
102
RTVSPropertyOp9
 70
     1
102
RTVSPropertyOp10
 70
     1
102
RTVSPropertyOp11
 70
     1
102
RTVSPropertyOp12
 70
     1
102
RTVSPropertyOp13
 70
     1
102
RTVSPropertyOp14
 70
     1
102
RTVSPropertyOp15
 70
     1
102
RTVSPropertyOp16
 70
     1
102
RTVSPropertyOp17
 70
     1
102
RTVSPropertyOp18
 70
     1
102
RTVSPropertyOp19
 70
     1
102
RTVSPropertyOp20
 70
     1
102
RTVSPropertyOp21
 70
     1
102
RTVSPropertyOp22
 70
     1
102
RTVSPropertyOp23
 70
     1
102
RTVSPropertyOp24
 70
     1
102
RTVSPropertyOp25
 70
     1
102
RTVSPropertyOp26
 70
     1
102
RTVSPropertyOp27
 70
     1
102
RTVSPropertyOp28
 70
     1
102
RTVSPropertyOp29
 70
     1
102
RTVSPropertyOp30
 70
     1
102
RTVSPropertyOp31
 70
     1
102
RTVSPropertyOp32
 70
     1
  0
XRECORD
  5
145AD
102
{ACAD_REACTORS
330
145AC
102
}
330
145AC
100
AcDbXrecord
280
     1
102
RTVSPropertyOp0
 70
     1
102
RTVSPropertyOp1
 70
     1
102
RTVSPropertyOp2
 70
     1
102
RTVSPropertyOp3
 70
     1
102
RTVSPropertyOp4
 70
     1
102
RTVSPropertyOp5
 70
     1
102
RTVSPropertyOp6
 70
     1
102
RTVSPropertyOp7
 70
     1
102
RTVSPropertyOp8
 70
     1
102
RTVSPropertyOp9
 70
     1
102
RTVSPropertyOp10
 70
     1
102
RTVSPropertyOp11
 70
     1
102
RTVSPropertyOp12
 70
     1
102
RTVSPropertyOp13
 70
     1
102
RTVSPropertyOp14
 70
     1
102
RTVSPropertyOp15
 70
     1
102
RTVSPropertyOp16
 70
     1
102
RTVSPropertyOp17
 70
     1
102
RTVSPropertyOp18
 70
     1
102
RTVSPropertyOp19
 70
     1
102
RTVSPropertyOp20
 70
     1
102
RTVSPropertyOp21
 70
     1
102
RTVSPropertyOp22
 70
     1
102
RTVSPropertyOp23
 70
     1
102
RTVSPropertyOp24
 70
     1
102
RTVSPropertyOp25
 70
     1
102
RTVSPropertyOp26
 70
     1
102
RTVSPropertyOp27
 70
     1
102
RTVSPropertyOp28
 70
     1
102
RTVSPropertyOp29
 70
     1
102
RTVSPropertyOp30
 70
     1
102
RTVSPropertyOp31
 70
     1
102
RTVSPropertyOp32
 70
     1
  0
XRECORD
  5
145B5
102
{ACAD_REACTORS
330
145B4
102
}
330
145B4
100
AcDbXrecord
280
     1
102
RTVSPropertyOp0
 70
     1
102
RTVSPropertyOp1
 70
     1
102
RTVSPropertyOp2
 70
     1
102
RTVSPropertyOp3
 70
     1
102
RTVSPropertyOp4
 70
     1
102
RTVSPropertyOp5
 70
     1
102
RTVSPropertyOp6
 70
     1
102
RTVSPropertyOp7
 70
     1
102
RTVSPropertyOp8
 70
     1
102
RTVSPropertyOp9
 70
     1
102
RTVSPropertyOp10
 70
     1
102
RTVSPropertyOp11
 70
     1
102
RTVSPropertyOp12
 70
     1
102
RTVSPropertyOp13
 70
     1
102
RTVSPropertyOp14
 70
     1
102
RTVSPropertyOp15
 70
     1
102
RTVSPropertyOp16
 70
     1
102
RTVSPropertyOp17
 70
     1
102
RTVSPropertyOp18
 70
     1
102
RTVSPropertyOp19
 70
     1
102
RTVSPropertyOp20
 70
     1
102
RTVSPropertyOp21
 70
     1
102
RTVSPropertyOp22
 70
     1
102
RTVSPropertyOp23
 70
     1
102
RTVSPropertyOp24
 70
     1
102
RTVSPropertyOp25
 70
     1
102
RTVSPropertyOp26
 70
     1
102
RTVSPropertyOp27
 70
     1
102
RTVSPropertyOp28
 70
     1
102
RTVSPropertyOp29
 70
     1
102
RTVSPropertyOp30
 70
     1
102
RTVSPropertyOp31
 70
     1
102
RTVSPropertyOp32
 70
     1
  0
XRECORD
  5
145D1
102
{ACAD_REACTORS
330
145D0
102
}
330
145D0
100
AcDbXrecord
280
     1
102
RTVSPropertyOp0
 70
     0
102
RTVSPropertyOp1
 70
     0
102
RTVSPropertyOp2
 70
     0
102
RTVSPropertyOp3
 70
     0
102
RTVSPropertyOp4
 70
     0
102
RTVSPropertyOp5
 70
     0
102
RTVSPropertyOp6
 70
     0
102
RTVSPropertyOp7
 70
     0
102
RTVSPropertyOp8
 70
     0
102
RTVSPropertyOp9
 70
     0
102
RTVSPropertyOp10
 70
     0
102
RTVSPropertyOp11
 70
     0
102
RTVSPropertyOp12
 70
     0
102
RTVSPropertyOp13
 70
     0
102
RTVSPropertyOp14
 70
     2
102
RTVSPropertyOp15
 70
     0
102
RTVSPropertyOp16
 70
     0
102
RTVSPropertyOp17
 70
     0
102
RTVSPropertyOp18
 70
     0
102
RTVSPropertyOp19
 70
     0
102
RTVSPropertyOp20
 70
     0
102
RTVSPropertyOp21
 70
     0
102
RTVSPropertyOp22
 70
     0
102
RTVSPropertyOp23
 70
     0
102
RTVSPropertyOp24
 70
     0
102
RTVSPropertyOp25
 70
     0
102
RTVSPropertyOp26
 70
     0
102
RTVSPropertyOp27
 70
     0
102
RTVSPropertyOp28
 70
     1
102
RTVSPropertyOp29
 70
     1
102
RTVSPropertyOp30
 70
     1
102
RTVSPropertyOp31
 70
     1
102
RTVSPropertyOp32
 70
     1
  0
XRECORD
  5
145C1
102
{ACAD_REACTORS
330
145C0
102
}
330
145C0
100
AcDbXrecord
280
     1
102
RTVSPropertyOp0
 70
     1
102
RTVSPropertyOp1
 70
     1
102
RTVSPropertyOp2
 70
     1
102
RTVSPropertyOp3
 70
     1
102
RTVSPropertyOp4
 70
     1
102
RTVSPropertyOp5
 70
     1
102
RTVSPropertyOp6
 70
     1
102
RTVSPropertyOp7
 70
     1
102
RTVSPropertyOp8
 70
     1
102
RTVSPropertyOp9
 70
     1
102
RTVSPropertyOp10
 70
     1
102
RTVSPropertyOp11
 70
     1
102
RTVSPropertyOp12
 70
     1
102
RTVSPropertyOp13
 70
     1
102
RTVSPropertyOp14
 70
     1
102
RTVSPropertyOp15
 70
     1
102
RTVSPropertyOp16
 70
     1
102
RTVSPropertyOp17
 70
     1
102
RTVSPropertyOp18
 70
     1
102
RTVSPropertyOp19
 70
     1
102
RTVSPropertyOp20
 70
     1
102
RTVSPropertyOp21
 70
     1
102
RTVSPropertyOp22
 70
     1
102
RTVSPropertyOp23
 70
     1
102
RTVSPropertyOp24
 70
     1
102
RTVSPropertyOp25
 70
     1
102
RTVSPropertyOp26
 70
     1
102
RTVSPropertyOp27
 70
     1
102
RTVSPropertyOp28
 70
     1
102
RTVSPropertyOp29
 70
     1
102
RTVSPropertyOp30
 70
     1
102
RTVSPropertyOp31
 70
     1
102
RTVSPropertyOp32
 70
     1
  0
XRECORD
  5
145D3
102
{ACAD_REACTORS
330
145D2
102
}
330
145D2
100
AcDbXrecord
280
     1
102
RTVSPropertyOp0
 70
     0
102
RTVSPropertyOp1
 70
     0
102
RTVSPropertyOp2
 70
     0
102
RTVSPropertyOp3
 70
     0
102
RTVSPropertyOp4
 70
     0
102
RTVSPropertyOp5
 70
     0
102
RTVSPropertyOp6
 70
     0
102
RTVSPropertyOp7
 70
     0
102
RTVSPropertyOp8
 70
     0
102
RTVSPropertyOp9
 70
     0
102
RTVSPropertyOp10
 70
     0
102
RTVSPropertyOp11
 70
     0
102
RTVSPropertyOp12
 70
     0
102
RTVSPropertyOp13
 70
     0
102
RTVSPropertyOp14
 70
     2
102
RTVSPropertyOp15
 70
     0
102
RTVSPropertyOp16
 70
     0
102
RTVSPropertyOp17
 70
     0
102
RTVSPropertyOp18
 70
     0
102
RTVSPropertyOp19
 70
     0
102
RTVSPropertyOp20
 70
     0
102
RTVSPropertyOp21
 70
     0
102
RTVSPropertyOp22
 70
     0
102
RTVSPropertyOp23
 70
     0
102
RTVSPropertyOp24
 70
     0
102
RTVSPropertyOp25
 70
     0
102
RTVSPropertyOp26
 70
     0
102
RTVSPropertyOp27
 70
     0
102
RTVSPropertyOp28
 70
     1
102
RTVSPropertyOp29
 70
     1
102
RTVSPropertyOp30
 70
     1
102
RTVSPropertyOp31
 70
     1
102
RTVSPropertyOp32
 70
     1
  0
XRECORD
  5
145B9
102
{ACAD_REACTORS
330
145B8
102
}
330
145B8
100
AcDbXrecord
280
     1
102
RTVSPropertyOp0
 70
     1
102
RTVSPropertyOp1
 70
     1
102
RTVSPropertyOp2
 70
     1
102
RTVSPropertyOp3
 70
     1
102
RTVSPropertyOp4
 70
     1
102
RTVSPropertyOp5
 70
     1
102
RTVSPropertyOp6
 70
     1
102
RTVSPropertyOp7
 70
     1
102
RTVSPropertyOp8
 70
     1
102
RTVSPropertyOp9
 70
     1
102
RTVSPropertyOp10
 70
     1
102
RTVSPropertyOp11
 70
     1
102
RTVSPropertyOp12
 70
     1
102
RTVSPropertyOp13
 70
     1
102
RTVSPropertyOp14
 70
     1
102
RTVSPropertyOp15
 70
     1
102
RTVSPropertyOp16
 70
     1
102
RTVSPropertyOp17
 70
     1
102
RTVSPropertyOp18
 70
     1
102
RTVSPropertyOp19
 70
     1
102
RTVSPropertyOp20
 70
     1
102
RTVSPropertyOp21
 70
     1
102
RTVSPropertyOp22
 70
     1
102
RTVSPropertyOp23
 70
     1
102
RTVSPropertyOp24
 70
     1
102
RTVSPropertyOp25
 70
     1
102
RTVSPropertyOp26
 70
     1
102
RTVSPropertyOp27
 70
     1
102
RTVSPropertyOp28
 70
     1
102
RTVSPropertyOp29
 70
     1
102
RTVSPropertyOp30
 70
     1
102
RTVSPropertyOp31
 70
     1
102
RTVSPropertyOp32
 70
     1
  0
XRECORD
  5
145CF
102
{ACAD_REACTORS
330
145CE
102
}
330
145CE
100
AcDbXrecord
280
     1
102
RTVSPropertyOp0
 70
     1
102
RTVSPropertyOp1
 70
     1
102
RTVSPropertyOp2
 70
     1
102
RTVSPropertyOp3
 70
     1
102
RTVSPropertyOp4
 70
     1
102
RTVSPropertyOp5
 70
     1
102
RTVSPropertyOp6
 70
     1
102
RTVSPropertyOp7
 70
     1
102
RTVSPropertyOp8
 70
     1
102
RTVSPropertyOp9
 70
     1
102
RTVSPropertyOp10
 70
     1
102
RTVSPropertyOp11
 70
     1
102
RTVSPropertyOp12
 70
     1
102
RTVSPropertyOp13
 70
     1
102
RTVSPropertyOp14
 70
     1
102
RTVSPropertyOp15
 70
     1
102
RTVSPropertyOp16
 70
     1
102
RTVSPropertyOp17
 70
     1
102
RTVSPropertyOp18
 70
     1
102
RTVSPropertyOp19
 70
     1
102
RTVSPropertyOp20
 70
     1
102
RTVSPropertyOp21
 70
     1
102
RTVSPropertyOp22
 70
     1
102
RTVSPropertyOp23
 70
     1
102
RTVSPropertyOp24
 70
     1
102
RTVSPropertyOp25
 70
     1
102
RTVSPropertyOp26
 70
     1
102
RTVSPropertyOp27
 70
     1
102
RTVSPropertyOp28
 70
     1
102
RTVSPropertyOp29
 70
     1
102
RTVSPropertyOp30
 70
     1
102
RTVSPropertyOp31
 70
     1
102
RTVSPropertyOp32
 70
     1
  0
XRECORD
  5
145CD
102
{ACAD_REACTORS
330
145CC
102
}
330
145CC
100
AcDbXrecord
280
     1
102
RTVSPropertyOp0
 70
     1
102
RTVSPropertyOp1
 70
     1
102
RTVSPropertyOp2
 70
     1
102
RTVSPropertyOp3
 70
     1
102
RTVSPropertyOp4
 70
     1
102
RTVSPropertyOp5
 70
     1
102
RTVSPropertyOp6
 70
     1
102
RTVSPropertyOp7
 70
     1
102
RTVSPropertyOp8
 70
     1
102
RTVSPropertyOp9
 70
     1
102
RTVSPropertyOp10
 70
     1
102
RTVSPropertyOp11
 70
     1
102
RTVSPropertyOp12
 70
     1
102
RTVSPropertyOp13
 70
     1
102
RTVSPropertyOp14
 70
     1
102
RTVSPropertyOp15
 70
     1
102
RTVSPropertyOp16
 70
     1
102
RTVSPropertyOp17
 70
     1
102
RTVSPropertyOp18
 70
     1
102
RTVSPropertyOp19
 70
     1
102
RTVSPropertyOp20
 70
     1
102
RTVSPropertyOp21
 70
     1
102
RTVSPropertyOp22
 70
     1
102
RTVSPropertyOp23
 70
     1
102
RTVSPropertyOp24
 70
     1
102
RTVSPropertyOp25
 70
     1
102
RTVSPropertyOp26
 70
     1
102
RTVSPropertyOp27
 70
     1
102
RTVSPropertyOp28
 70
     1
102
RTVSPropertyOp29
 70
     1
102
RTVSPropertyOp30
 70
     1
102
RTVSPropertyOp31
 70
     1
102
RTVSPropertyOp32
 70
     1
  0
XRECORD
  5
145C7
102
{ACAD_REACTORS
330
145C6
102
}
330
145C6
100
AcDbXrecord
280
     1
102
RTVSPropertyOp0
 70
     1
102
RTVSPropertyOp1
 70
     1
102
RTVSPropertyOp2
 70
     1
102
RTVSPropertyOp3
 70
     1
102
RTVSPropertyOp4
 70
     1
102
RTVSPropertyOp5
 70
     1
102
RTVSPropertyOp6
 70
     1
102
RTVSPropertyOp7
 70
     1
102
RTVSPropertyOp8
 70
     1
102
RTVSPropertyOp9
 70
     1
102
RTVSPropertyOp10
 70
     1
102
RTVSPropertyOp11
 70
     1
102
RTVSPropertyOp12
 70
     1
102
RTVSPropertyOp13
 70
     1
102
RTVSPropertyOp14
 70
     1
102
RTVSPropertyOp15
 70
     1
102
RTVSPropertyOp16
 70
     1
102
RTVSPropertyOp17
 70
     1
102
RTVSPropertyOp18
 70
     1
102
RTVSPropertyOp19
 70
     1
102
RTVSPropertyOp20
 70
     1
102
RTVSPropertyOp21
 70
     1
102
RTVSPropertyOp22
 70
     1
102
RTVSPropertyOp23
 70
     1
102
RTVSPropertyOp24
 70
     1
102
RTVSPropertyOp25
 70
     1
102
RTVSPropertyOp26
 70
     1
102
RTVSPropertyOp27
 70
     1
102
RTVSPropertyOp28
 70
     1
102
RTVSPropertyOp29
 70
     1
102
RTVSPropertyOp30
 70
     1
102
RTVSPropertyOp31
 70
     1
102
RTVSPropertyOp32
 70
     1
  0
XRECORD
  5
145C9
102
{ACAD_REACTORS
330
145C8
102
}
330
145C8
100
AcDbXrecord
280
     1
102
RTVSPropertyOp0
 70
     1
102
RTVSPropertyOp1
 70
     1
102
RTVSPropertyOp2
 70
     1
102
RTVSPropertyOp3
 70
     1
102
RTVSPropertyOp4
 70
     1
102
RTVSPropertyOp5
 70
     1
102
RTVSPropertyOp6
 70
     1
102
RTVSPropertyOp7
 70
     1
102
RTVSPropertyOp8
 70
     1
102
RTVSPropertyOp9
 70
     1
102
RTVSPropertyOp10
 70
     1
102
RTVSPropertyOp11
 70
     1
102
RTVSPropertyOp12
 70
     1
102
RTVSPropertyOp13
 70
     1
102
RTVSPropertyOp14
 70
     1
102
RTVSPropertyOp15
 70
     1
102
RTVSPropertyOp16
 70
     1
102
RTVSPropertyOp17
 70
     1
102
RTVSPropertyOp18
 70
     1
102
RTVSPropertyOp19
 70
     1
102
RTVSPropertyOp20
 70
     1
102
RTVSPropertyOp21
 70
     1
102
RTVSPropertyOp22
 70
     1
102
RTVSPropertyOp23
 70
     1
102
RTVSPropertyOp24
 70
     1
102
RTVSPropertyOp25
 70
     1
102
RTVSPropertyOp26
 70
     1
102
RTVSPropertyOp27
 70
     1
102
RTVSPropertyOp28
 70
     1
102
RTVSPropertyOp29
 70
     1
102
RTVSPropertyOp30
 70
     1
102
RTVSPropertyOp31
 70
     1
102
RTVSPropertyOp32
 70
     1
  0
XRECORD
  5
145BF
102
{ACAD_REACTORS
330
145BE
102
}
330
145BE
100
AcDbXrecord
280
     1
102
RTVSPropertyOp0
 70
     1
102
RTVSPropertyOp1
 70
     1
102
RTVSPropertyOp2
 70
     1
102
RTVSPropertyOp3
 70
     1
102
RTVSPropertyOp4
 70
     1
102
RTVSPropertyOp5
 70
     1
102
RTVSPropertyOp6
 70
     1
102
RTVSPropertyOp7
 70
     1
102
RTVSPropertyOp8
 70
     1
102
RTVSPropertyOp9
 70
     1
102
RTVSPropertyOp10
 70
     1
102
RTVSPropertyOp11
 70
     1
102
RTVSPropertyOp12
 70
     1
102
RTVSPropertyOp13
 70
     1
102
RTVSPropertyOp14
 70
     1
102
RTVSPropertyOp15
 70
     1
102
RTVSPropertyOp16
 70
     1
102
RTVSPropertyOp17
 70
     1
102
RTVSPropertyOp18
 70
     1
102
RTVSPropertyOp19
 70
     1
102
RTVSPropertyOp20
 70
     1
102
RTVSPropertyOp21
 70
     1
102
RTVSPropertyOp22
 70
     1
102
RTVSPropertyOp23
 70
     1
102
RTVSPropertyOp24
 70
     1
102
RTVSPropertyOp25
 70
     1
102
RTVSPropertyOp26
 70
     1
102
RTVSPropertyOp27
 70
     1
102
RTVSPropertyOp28
 70
     1
102
RTVSPropertyOp29
 70
     1
102
RTVSPropertyOp30
 70
     1
102
RTVSPropertyOp31
 70
     1
102
RTVSPropertyOp32
 70
     1
  0
XRECORD
  5
145B3
102
{ACAD_REACTORS
330
145B2
102
}
330
145B2
100
AcDbXrecord
280
     1
102
RTVSPropertyOp0
 70
     1
102
RTVSPropertyOp1
 70
     1
102
RTVSPropertyOp2
 70
     1
102
RTVSPropertyOp3
 70
     1
102
RTVSPropertyOp4
 70
     1
102
RTVSPropertyOp5
 70
     1
102
RTVSPropertyOp6
 70
     1
102
RTVSPropertyOp7
 70
     1
102
RTVSPropertyOp8
 70
     1
102
RTVSPropertyOp9
 70
     1
102
RTVSPropertyOp10
 70
     1
102
RTVSPropertyOp11
 70
     1
102
RTVSPropertyOp12
 70
     1
102
RTVSPropertyOp13
 70
     1
102
RTVSPropertyOp14
 70
     1
102
RTVSPropertyOp15
 70
     1
102
RTVSPropertyOp16
 70
     1
102
RTVSPropertyOp17
 70
     1
102
RTVSPropertyOp18
 70
     1
102
RTVSPropertyOp19
 70
     1
102
RTVSPropertyOp20
 70
     1
102
RTVSPropertyOp21
 70
     1
102
RTVSPropertyOp22
 70
     1
102
RTVSPropertyOp23
 70
     1
102
RTVSPropertyOp24
 70
     1
102
RTVSPropertyOp25
 70
     1
102
RTVSPropertyOp26
 70
     1
102
RTVSPropertyOp27
 70
     1
102
RTVSPropertyOp28
 70
     1
102
RTVSPropertyOp29
 70
     1
102
RTVSPropertyOp30
 70
     1
102
RTVSPropertyOp31
 70
     1
102
RTVSPropertyOp32
 70
     1
  0
XRECORD
  5
145CB
102
{ACAD_REACTORS
330
145CA
102
}
330
145CA
100
AcDbXrecord
280
     1
102
RTVSPropertyOp0
 70
     1
102
RTVSPropertyOp1
 70
     1
102
RTVSPropertyOp2
 70
     1
102
RTVSPropertyOp3
 70
     1
102
RTVSPropertyOp4
 70
     1
102
RTVSPropertyOp5
 70
     1
102
RTVSPropertyOp6
 70
     1
102
RTVSPropertyOp7
 70
     1
102
RTVSPropertyOp8
 70
     1
102
RTVSPropertyOp9
 70
     1
102
RTVSPropertyOp10
 70
     1
102
RTVSPropertyOp11
 70
     1
102
RTVSPropertyOp12
 70
     1
102
RTVSPropertyOp13
 70
     1
102
RTVSPropertyOp14
 70
     1
102
RTVSPropertyOp15
 70
     1
102
RTVSPropertyOp16
 70
     1
102
RTVSPropertyOp17
 70
     1
102
RTVSPropertyOp18
 70
     1
102
RTVSPropertyOp19
 70
     1
102
RTVSPropertyOp20
 70
     1
102
RTVSPropertyOp21
 70
     1
102
RTVSPropertyOp22
 70
     1
102
RTVSPropertyOp23
 70
     1
102
RTVSPropertyOp24
 70
     1
102
RTVSPropertyOp25
 70
     1
102
RTVSPropertyOp26
 70
     1
102
RTVSPropertyOp27
 70
     1
102
RTVSPropertyOp28
 70
     1
102
RTVSPropertyOp29
 70
     1
102
RTVSPropertyOp30
 70
     1
102
RTVSPropertyOp31
 70
     1
102
RTVSPropertyOp32
 70
     1
  0
ENDSEC
  0
EOF
