  0
SECTION
  2
HEADER
  9
$ACADVER
  1
AC1015
  9
$ACADMAINTVER
 70
    20
  9
$DWGCODEPAGE
  3
ANSI_932
  9
$INSBASE
 10
0.0
 20
0.0
 30
0.0
  9
$EXTMIN
 10
-0.22692002974145
 20
-0.090202771472832
 30
-0.0000000000000053
  9
$EXTMAX
 10
1680.052541039491
 20
1188.282888617504
 30
0.0000000000000099
  9
$LIMMIN
 10
0.0
 20
0.0
  9
$LIMMAX
 10
1680.0
 20
1188.0
  9
$ORTHOMODE
 70
     0
  9
$REGENMODE
 70
     1
  9
$FILLMODE
 70
     1
  9
$QTEXTMODE
 70
     0
  9
$MIRRTEXT
 70
     1
  9
$LTSCALE
 40
33.6
  9
$ATTMODE
 70
     1
  9
$TEXTSIZE
 40
0.2
  9
$TRACEWID
 40
0.05
  9
$TEXTSTYLE
  7
STANDARD
  9
$CLAYER
  8
LEVEL001
  9
$CELTYPE
  6
CONTINUOUS
  9
$CECOLOR
 62
   256
  9
$CELTSCALE
 40
1.0
  9
$DISPSILH
 70
     0
  9
$DIMSCALE
 40
1.0
  9
$DIMASZ
 40
0.18
  9
$DIMEXO
 40
0.0625
  9
$DIMDLI
 40
0.38
  9
$DIMRND
 40
0.0
  9
$DIMDLE
 40
0.0
  9
$DIMEXE
 40
0.18
  9
$DIMTP
 40
0.0
  9
$DIMTM
 40
0.0
  9
$DIMTXT
 40
0.18
  9
$DIMCEN
 40
0.09
  9
$DIMTSZ
 40
0.0
  9
$DIMTOL
 70
     0
  9
$DIMLIM
 70
     0
  9
$DIMTIH
 70
     1
  9
$DIMTOH
 70
     1
  9
$DIMSE1
 70
     0
  9
$DIMSE2
 70
     0
  9
$DIMTAD
 70
     0
  9
$DIMZIN
 70
     0
  9
$DIMBLK
  1

  9
$DIMASO
 70
     1
  9
$DIMSHO
 70
     1
  9
$DIMPOST
  1

  9
$DIMAPOST
  1

  9
$DIMALT
 70
     0
  9
$DIMALTD
 70
     2
  9
$DIMALTF
 40
25.4
  9
$DIMLFAC
 40
1.0
  9
$DIMTOFL
 70
     0
  9
$DIMTVP
 40
0.0
  9
$DIMTIX
 70
     0
  9
$DIMSOXD
 70
     0
  9
$DIMSAH
 70
     0
  9
$DIMBLK1
  1

  9
$DIMBLK2
  1

  9
$DIMSTYLE
  2
STANDARD
  9
$DIMCLRD
 70
     0
  9
$DIMCLRE
 70
     0
  9
$DIMCLRT
 70
     0
  9
$DIMTFAC
 40
1.0
  9
$DIMGAP
 40
0.09
  9
$DIMJUST
 70
     0
  9
$DIMSD1
 70
     0
  9
$DIMSD2
 70
     0
  9
$DIMTOLJ
 70
     1
  9
$DIMTZIN
 70
     0
  9
$DIMALTZ
 70
     0
  9
$DIMALTTZ
 70
     0
  9
$DIMUPT
 70
     0
  9
$DIMDEC
 70
     4
  9
$DIMTDEC
 70
     4
  9
$DIMALTU
 70
     2
  9
$DIMALTTD
 70
     2
  9
$DIMTXSTY
  7
STANDARD
  9
$DIMAUNIT
 70
     0
  9
$DIMADEC
 70
     0
  9
$DIMALTRND
 40
0.0
  9
$DIMAZIN
 70
     0
  9
$DIMDSEP
 70
    46
  9
$DIMATFIT
 70
     3
  9
$DIMFRAC
 70
     0
  9
$DIMLDRBLK
  1

  9
$DIMLUNIT
 70
     2
  9
$DIMLWD
 70
    -2
  9
$DIMLWE
 70
    -2
  9
$DIMTMOVE
 70
     0
  9
$LUNITS
 70
     2
  9
$LUPREC
 70
     4
  9
$SKETCHINC
 40
0.1
  9
$FILLETRAD
 40
0.0
  9
$AUNITS
 70
     0
  9
$AUPREC
 70
     0
  9
$MENU
  1
.
  9
$ELEVATION
 40
0.0
  9
$PELEVATION
 40
0.0
  9
$THICKNESS
 40
0.0
  9
$LIMCHECK
 70
     0
  9
$CHAMFERA
 40
0.0
  9
$CHAMFERB
 40
0.0
  9
$CHAMFERC
 40
0.0
  9
$CHAMFERD
 40
0.0
  9
$SKPOLY
 70
     0
  9
$TDCREATE
 40
2451212.682759178
  9
$TDUCREATE
 40
2451212.307759178
  9
$TDUPDATE
 40
2458321.572430243
  9
$TDUUPDATE
 40
2458321.197430243
  9
$TDINDWG
 40
0.3960613426
  9
$TDUSRTIMER
 40
0.3960613426
  9
$USRTIMER
 70
     1
  9
$ANGBASE
 50
0.0
  9
$ANGDIR
 70
     0
  9
$PDMODE
 70
     0
  9
$PDSIZE
 40
0.0
  9
$PLINEWID
 40
0.0
  9
$SPLFRAME
 70
     0
  9
$SPLINETYPE
 70
     6
  9
$SPLINESEGS
 70
     8
  9
$HANDSEED
  5
145D7
  9
$SURFTAB1
 70
     6
  9
$SURFTAB2
 70
     6
  9
$SURFTYPE
 70
     6
  9
$SURFU
 70
     6
  9
$SURFV
 70
     6
  9
$UCSBASE
  2

  9
$UCSNAME
  2

  9
$UCSORG
 10
0.0
 20
0.0
 30
0.0
  9
$UCSXDIR
 10
1.0
 20
0.0
 30
0.0
  9
$UCSYDIR
 10
0.0
 20
1.0
 30
0.0
  9
$UCSORTHOREF
  2

  9
$UCSORTHOVIEW
 70
     0
  9
$UCSORGTOP
 10
0.0
 20
0.0
 30
0.0
  9
$UCSORGBOTTOM
 10
0.0
 20
0.0
 30
0.0
  9
$UCSORGLEFT
 10
0.0
 20
0.0
 30
0.0
  9
$UCSORGRIGHT
 10
0.0
 20
0.0
 30
0.0
  9
$UCSORGFRONT
 10
0.0
 20
0.0
 30
0.0
  9
$UCSORGBACK
 10
0.0
 20
0.0
 30
0.0
  9
$PUCSBASE
  2

  9
$PUCSNAME
  2

  9
$PUCSORG
 10
0.0
 20
0.0
 30
0.0
  9
$PUCSXDIR
 10
1.0
 20
0.0
 30
0.0
  9
$PUCSYDIR
 10
0.0
 20
1.0
 30
0.0
  9
$PUCSORTHOREF
  2

  9
$PUCSORTHOVIEW
 70
     0
  9
$PUCSORGTOP
 10
0.0
 20
0.0
 30
0.0
  9
$PUCSORGBOTTOM
 10
0.0
 20
0.0
 30
0.0
  9
$PUCSORGLEFT
 10
0.0
 20
0.0
 30
0.0
  9
$PUCSORGRIGHT
 10
0.0
 20
0.0
 30
0.0
  9
$PUCSORGFRONT
 10
0.0
 20
0.0
 30
0.0
  9
$PUCSORGBACK
 10
0.0
 20
0.0
 30
0.0
  9
$USERI1
 70
     0
  9
$USERI2
 70
     0
  9
$USERI3
 70
     0
  9
$USERI4
 70
     0
  9
$USERI5
 70
     0
  9
$USERR1
 40
0.0
  9
$USERR2
 40
0.0
  9
$USERR3
 40
0.0
  9
$USERR4
 40
0.0
  9
$USERR5
 40
0.0
  9
$WORLDVIEW
 70
     1
  9
$SHADEDGE
 70
     3
  9
$SHADEDIF
 70
    70
  9
$TILEMODE
 70
     1
  9
$MAXACTVP
 70
    16
  9
$PINSBASE
 10
0.0
 20
0.0
 30
0.0
  9
$PLIMCHECK
 70
     0
  9
$PEXTMIN
 10
1.000000000000000E+20
 20
1.000000000000000E+20
 30
1.000000000000000E+20
  9
$PEXTMAX
 10
-1.000000000000000E+20
 20
-1.000000000000000E+20
 30
-1.000000000000000E+20
  9
$PLIMMIN
 10
0.0
 20
0.0
  9
$PLIMMAX
 10
12.0
 20
9.0
  9
$UNITMODE
 70
     0
  9
$VISRETAIN
 70
     1
  9
$PLINEGEN
 70
     0
  9
$PSLTSCALE
 70
     1
  9
$TREEDEPTH
 70
  3020
  9
$CMLSTYLE
  2
STANDARD
  9
$CMLJUST
 70
     0
  9
$CMLSCALE
 40
1.0
  9
$PROXYGRAPHICS
 70
     1
  9
$MEASUREMENT
 70
     0
  9
$CELWEIGHT
370
    -1
  9
$ENDCAPS
280
     0
  9
$JOINSTYLE
280
     0
  9
$LWDISPLAY
290
     0
  9
$INSUNITS
 70
     0
  9
$HYPERLINKBASE
  1

  9
$STYLESHEET
  1

  9
$XEDIT
290
     1
  9
$CEPSNTYPE
380
     0
  9
$PSTYLEMODE
290
     0
  9
$FINGERPRINTGUID
  2
{CEB546B5-3475-4345-9716-9E0C52716ACD}
  9
$VERSIONGUID
  2
{FBD10C21-A324-4CF1-91F5-1BD2AEC628AD}
  9
$EXTNAMES
290
     1
  9
$PSVPSCALE
 40
0.0
  9
$OLESTARTUP
290
     0
  0
ENDSEC
  0
SECTION
  2
CLASSES
  0
CLASS
  1
ACDBDICTIONARYWDFLT
  2
AcDbDictionaryWithDefault
  3
ObjectDBX Classes
 90
        0
280
     0
281
     0
  0
CLASS
  1
TABLESTYLE
  2
AcDbTableStyle
  3
ObjectDBX Classes
 90
     4095
280
     0
281
     0
  0
CLASS
  1
SORTENTSTABLE
  2
AcDbSortentsTable
  3
ObjectDBX Classes
 90
        0
280
     0
281
     0
  0
CLASS
  1
DICTIONARYVAR
  2
AcDbDictionaryVar
  3
ObjectDBX Classes
 90
        0
280
     0
281
     0
  0
CLASS
  1
ACDBPLACEHOLDER
  2
AcDbPlaceHolder
  3
ObjectDBX Classes
 90
        0
280
     0
281
     0
  0
CLASS
  1
LAYOUT
  2
AcDbLayout
  3
ObjectDBX Classes
 90
        0
280
     0
281
     0
  0
CLASS
  1
MATERIAL
  2
AcDbMaterial
  3
ObjectDBX Classes
 90
     1153
280
     0
281
     0
  0
CLASS
  1
VISUALSTYLE
  2
AcDbVisualStyle
  3
ObjectDBX Classes
 90
     4095
280
     0
281
     0
  0
CLASS
  1
SCALE
  2
AcDbScale
  3
ObjectDBX Classes
 90
     1153
280
     0
281
     0
  0
CLASS
  1
MLEADERSTYLE
  2
AcDbMLeaderStyle
  3
ACDB_MLEADERSTYLE_CLASS
 90
     4095
280
     0
281
     0
  0
CLASS
  1
CELLSTYLEMAP
  2
AcDbCellStyleMap
  3
ObjectDBX Classes
 90
     1152
280
     0
281
     0
  0
ENDSEC
  0
SECTION
  2
TABLES
  0
TABLE
  2
VPORT
  5
1
330
0
100
AcDbSymbolTable
 70
     1
  0
VPORT
  5
3DA1
330
1
100
AcDbSymbolTableRecord
100
AcDbViewportTableRecord
  2
*Active
 70
     0
 10
0.0
 20
0.0
 11
1.0
 21
1.0
 12
839.9128105048749
 22
594.0963429230159
 13
0.0
 23
0.0
 14
1.0
 24
1.0
 15
0.0
 25
0.0
 16
0.0
 26
0.0
 36
1.0
 17
0.0
 27
0.0
 37
0.0
 40
1199.566558497822
 41
1.882075471698113
 42
50.0
 43
0.0
 44
0.0
 50
0.0
 51
0.0
 71
     0
 72
   100
 73
     1
 74
     1
 75
     0
 76
     0
 77
     0
 78
     0
281
     0
 65
     1
110
0.0
120
0.0
130
0.0
111
1.0
121
0.0
131
0.0
112
0.0
122
1.0
132
0.0
 79
     0
146
0.0
1001
ACAD_NAV_VCDISPLAY
1070
     3
  0
ENDTAB
  0
TABLE
  2
LTYPE
  5
69
330
0
100
AcDbSymbolTable
 70
     4
  0
LTYPE
  5
1D
330
69
100
AcDbSymbolTableRecord
100
AcDbLinetypeTableRecord
  2
BYBLOCK
 70
     0
  3

 72
    65
 73
     0
 40
0.0
  0
LTYPE
  5
1E
330
69
100
AcDbSymbolTableRecord
100
AcDbLinetypeTableRecord
  2
BYLAYER
 70
     0
  3

 72
    65
 73
     0
 40
0.0
  0
LTYPE
  5
1F
330
69
100
AcDbSymbolTableRecord
100
AcDbLinetypeTableRecord
  2
CONTINUOUS
 70
     0
  3
Solid line
 72
    65
 73
     0
 40
0.0
  0
LTYPE
  5
26
330
69
100
AcDbSymbolTableRecord
100
AcDbLinetypeTableRecord
  2
DASHDOT
 70
     0
  3
__ . __ . __ . __ . __ . __ . __ . __ . __ . __
 72
    65
 73
     4
 40
1.0
 49
0.5
 74
     0
 49
-0.25
 74
     0
 49
0.0
 74
     0
 49
-0.25
 74
     0
  0
LTYPE
  5
2F
330
69
100
AcDbSymbolTableRecord
100
AcDbLinetypeTableRecord
  2
DOT
 70
     0
  3
. . . . . . . . . . . . . . . . . . . . . . . .
 72
    65
 73
     2
 40
0.25
 49
0.0
 74
     0
 49
-0.25
 74
     0
  0
LTYPE
  5
32
330
69
100
AcDbSymbolTableRecord
100
AcDbLinetypeTableRecord
  2
HIDDEN
 70
     0
  3
__ __ __ __ __ __ __ __ __ __ __ __ __ __ __ __
 72
    65
 73
     2
 40
0.375
 49
0.25
 74
     0
 49
-0.125
 74
     0
  0
ENDTAB
  0
TABLE
  2
LAYER
  5
68
102
{ACAD_XDICTIONARY
360
4CA3
102
}
330
0
100
AcDbSymbolTable
 70
    11
  0
LAYER
  5
38
102
{ACAD_XDICTIONARY
360
473F
102
}
330
68
100
AcDbSymbolTableRecord
100
AcDbLayerTableRecord
  2
0
 70
     0
 62
     7
  6
CONTINUOUS
370
    -3
390
37ED
  0
LAYER
  5
39
102
{ACAD_XDICTIONARY
360
4741
102
}
330
68
100
AcDbSymbolTableRecord
100
AcDbLayerTableRecord
  2
LEVEL001
 70
     0
 62
     7
  6
CONTINUOUS
370
    -3
390
37ED
  0
LAYER
  5
474B
102
{ACAD_XDICTIONARY
360
474C
102
}
330
68
100
AcDbSymbolTableRecord
100
AcDbLayerTableRecord
  2
LEVEL002
 70
     0
 62
     7
  6
CONTINUOUS
370
    -3
390
37ED
  0
LAYER
  5
474D
102
{ACAD_XDICTIONARY
360
474E
102
}
330
68
100
AcDbSymbolTableRecord
100
AcDbLayerTableRecord
  2
LEVEL003
 70
     0
 62
     7
  6
CONTINUOUS
370
    -3
390
37ED
  0
LAYER
  5
474F
102
{ACAD_XDICTIONARY
360
4750
102
}
330
68
100
AcDbSymbolTableRecord
100
AcDbLayerTableRecord
  2
LEVEL004
 70
     0
 62
     7
  6
CONTINUOUS
370
    -3
390
37ED
  0
LAYER
  5
4751
102
{ACAD_XDICTIONARY
360
4752
102
}
330
68
100
AcDbSymbolTableRecord
100
AcDbLayerTableRecord
  2
LEVEL007
 70
     0
 62
     7
  6
CONTINUOUS
370
    -3
390
37ED
  0
LAYER
  5
4753
330
68
100
AcDbSymbolTableRecord
100
AcDbLayerTableRecord
  2
1
 70
     0
 62
     7
  6
CONTINUOUS
370
    -3
390
37ED
1001
AcAecLayerStandard
1000

1000

  0
LAYER
  5
A90E
330
68
100
AcDbSymbolTableRecord
100
AcDbLayerTableRecord
  2
LEVEL008
 70
     0
 62
     7
  6
CONTINUOUS
370
    -3
390
37ED
  0
LAYER
  5
A90F
330
68
100
AcDbSymbolTableRecord
100
AcDbLayerTableRecord
  2
LEVEL010
 70
     0
 62
     7
  6
CONTINUOUS
370
    -3
390
37ED
  0
LAYER
  5
A910
330
68
100
AcDbSymbolTableRecord
100
AcDbLayerTableRecord
  2
LEVEL011
 70
     0
 62
     7
  6
CONTINUOUS
370
    -3
390
37ED
  0
LAYER
  5
A911
330
68
100
AcDbSymbolTableRecord
100
AcDbLayerTableRecord
  2
LEVEL012
 70
     0
 62
     7
  6
CONTINUOUS
370
    -3
390
37ED
  0
ENDTAB
  0
TABLE
  2
STYLE
  5
6
330
0
100
AcDbSymbolTable
 70
     1
  0
STYLE
  5
7
330
6
100
AcDbSymbolTableRecord
100
AcDbTextStyleTableRecord
  2
STANDARD
 70
     0
 40
0.0
 41
0.8
 50
0.0
 71
     0
 42
0.2
  3
TXT.shx
  4
BIGFONT.shx
  0
ENDTAB
  0
TABLE
  2
VIEW
  5
2
330
0
100
AcDbSymbolTable
 70
     0
  0
ENDTAB
  0
TABLE
  2
UCS
  5
3
330
0
100
AcDbSymbolTable
 70
     0
  0
ENDTAB
  0
TABLE
  2
APPID
  5
4
330
0
100
AcDbSymbolTable
 70
     8
  0
APPID
  5
5
330
4
100
AcDbSymbolTableRecord
100
AcDbRegAppTableRecord
  2
ACAD
 70
     0
  0
APPID
  5
385F
330
4
100
AcDbSymbolTableRecord
100
AcDbRegAppTableRecord
  2
ACAD_PSEXT
 70
     0
  0
APPID
  5
3DF1
330
4
100
AcDbSymbolTableRecord
100
AcDbRegAppTableRecord
  2
ACAD_NAV_VCDISPLAY
 70
     0
  0
APPID
  5
3ECF
330
4
100
AcDbSymbolTableRecord
100
AcDbRegAppTableRecord
  2
GradientColor1ACI
 70
     0
  0
APPID
  5
3ED0
330
4
100
AcDbSymbolTableRecord
100
AcDbRegAppTableRecord
  2
GradientColor2ACI
 70
     0
  0
APPID
  5
3ED2
330
4
100
AcDbSymbolTableRecord
100
AcDbRegAppTableRecord
  2
ACAD_EXEMPT_FROM_CAD_STANDARDS
 70
     0
  0
APPID
  5
4754
330
4
100
AcDbSymbolTableRecord
100
AcDbRegAppTableRecord
  2
AcAecLayerStandard
 70
     0
  0
APPID
  5
145D6
330
4
100
AcDbSymbolTableRecord
100
AcDbRegAppTableRecord
  2
ACAD_MLEADERVER
 70
     0
  0
ENDTAB
  0
TABLE
  2
DIMSTYLE
  5
67
330
0
100
AcDbSymbolTable
 70
     1
100
AcDbDimStyleTable
 71
     1
340
3C
  0
DIMSTYLE
105
3C
330
67
100
AcDbSymbolTableRecord
100
AcDbDimStyleTableRecord
  2
STANDARD
 70
     0
340
7
  0
ENDTAB
  0
TABLE
  2
BLOCK_RECORD
  5
9
330
0
100
AcDbSymbolTable
 70
     0
  0
BLOCK_RECORD
  5
A
102
{ACAD_XDICTIONARY
360
37FA
102
}
330
9
100
AcDbSymbolTableRecord
100
AcDbBlockTableRecord
  2
*MODEL_SPACE
340
37F4
  0
BLOCK_RECORD
  5
B
330
9
100
AcDbSymbolTableRecord
100
AcDbBlockTableRecord
  2
*PAPER_SPACE
340
37F5
  0
ENDTAB
  0
ENDSEC
  0
SECTION
  2
BLOCKS
  0
BLOCK
  5
41
330
A
100
AcDbEntity
  8
0
100
AcDbBlockBegin
  2
*MODEL_SPACE
 70
     0
 10
0.0
 20
0.0
 30
0.0
  3
*MODEL_SPACE
  1

  0
ENDBLK
  5
54
330
A
100
AcDbEntity
  8
0
100
AcDbBlockEnd
  0
BLOCK
  5
42
330
B
100
AcDbEntity
 67
     1
  8
0
100
AcDbBlockBegin
  2
*PAPER_SPACE
 70
     0
 10
0.0
 20
0.0
 30
0.0
  3
*PAPER_SPACE
  1

  0
ENDBLK
  5
55
330
B
100
AcDbEntity
 67
     1
  8
0
100
AcDbBlockEnd
  0
ENDSEC
  0
SECTION
  2
ENTITIES
  0
TEXT
  5
2C33
330
A
100
AcDbEntity
  8
LEVEL001
 62
     8
100
AcDbText
 10
1268.8000000001
 20
1936.1666666667
 30
0.0
 40
8.0
  1

 41
0.5
100
AcDbText
  0
TEXT
  5
2C3A
330
A
100
AcDbEntity
  8
LEVEL001
 62
     8
100
AcDbText
 10
1268.8000000001
 20
1861.5
 30
0.0
 40
8.0
  1

 41
0.5
100
AcDbText
  0
TEXT
  5
2C42
330
A
100
AcDbEntity
  8
LEVEL001
 62
     8
100
AcDbText
 10
1268.8000000001
 20
1776.1666666667
 30
0.0
 40
8.0
  1

 41
0.5
100
AcDbText
  0
TEXT
  5
2C4B
330
A
100
AcDbEntity
  8
LEVEL001
 62
     8
100
AcDbText
 10
1268.8000000001
 20
1680.1666666667
 30
0.0
 40
8.0
  1

 41
0.5
100
AcDbText
  0
TEXT
  5
2C52
330
A
100
AcDbEntity
  8
LEVEL001
 62
     8
100
AcDbText
 10
1268.8000000001
 20
1605.5
 30
0.0
 40
8.0
  1

 41
0.5
100
AcDbText
  0
TEXT
  5
2C5A
330
A
100
AcDbEntity
  8
LEVEL001
 62
     8
100
AcDbText
 10
1268.8000000001
 20
1520.1666666667
 30
0.0
 40
8.0
  1

 41
0.5
100
AcDbText
  0
TEXT
  5
2C5B
330
A
100
AcDbEntity
  8
LEVEL001
 62
     8
100
AcDbText
 10
1268.8000000001
 20
1509.5
 30
0.0
 40
8.0
  1

 41
0.5
100
AcDbText
  0
TEXT
  5
2C5C
330
A
100
AcDbEntity
  8
LEVEL001
 62
     8
100
AcDbText
 10
1268.8000000001
 20
1498.8333333333
 30
0.0
 40
8.0
  1
 
 41
0.5
100
AcDbText
  0
TEXT
  5
2C69
330
A
100
AcDbEntity
  8
LEVEL001
 62
     8
100
AcDbText
 10
1268.8000000001
 20
748.16666666668
 30
0.0
 40
8.0
  1

 41
0.5
100
AcDbText
  0
TEXT
  5
2C70
330
A
100
AcDbEntity
  8
LEVEL001
 62
     8
100
AcDbText
 10
1268.8000000001
 20
673.5000000000099
 30
0.0
 40
8.0
  1

 41
0.5
100
AcDbText
  0
TEXT
  5
2C78
330
A
100
AcDbEntity
  8
LEVEL001
 62
     8
100
AcDbText
 10
1268.8000000001
 20
588.16666666668
 30
0.0
 40
8.0
  1

 41
0.5
100
AcDbText
  0
TEXT
  5
2C81
330
A
100
AcDbEntity
  8
LEVEL001
 62
     8
100
AcDbText
 10
1268.8000000001
 20
492.16666666668
 30
0.0
 40
8.0
  1

 41
0.5
100
AcDbText
  0
TEXT
  5
2C88
330
A
100
AcDbEntity
  8
LEVEL001
 62
     8
100
AcDbText
 10
1268.8000000001
 20
417.50000000001
 30
0.0
 40
8.0
  1

 41
0.5
100
AcDbText
  0
TEXT
  5
2C90
330
A
100
AcDbEntity
  8
LEVEL001
 62
     8
100
AcDbText
 10
1268.8000000001
 20
332.16666666668
 30
0.0
 40
8.0
  1

 41
0.5
100
AcDbText
  0
TEXT
  5
2C91
330
A
100
AcDbEntity
  8
LEVEL001
 62
     8
100
AcDbText
 10
1268.8000000001
 20
321.50000000001
 30
0.0
 40
8.0
  1

 41
0.5
100
AcDbText
  0
TEXT
  5
2C92
330
A
100
AcDbEntity
  8
LEVEL001
 62
     8
100
AcDbText
 10
1268.8000000001
 20
310.83333333334
 30
0.0
 40
8.0
  1
 
 41
0.5
100
AcDbText
  0
TEXT
  5
2C9F
330
A
100
AcDbEntity
  8
LEVEL001
 62
     8
100
AcDbText
 10
1268.8000000001
 20
3124.1666666667
 30
0.0
 40
8.0
  1

 41
0.5
100
AcDbText
  0
TEXT
  5
2CA6
330
A
100
AcDbEntity
  8
LEVEL001
 62
     8
100
AcDbText
 10
1268.8000000001
 20
3049.5
 30
0.0
 40
8.0
  1

 41
0.5
100
AcDbText
  0
TEXT
  5
2CAE
330
A
100
AcDbEntity
  8
LEVEL001
 62
     8
100
AcDbText
 10
1268.8000000001
 20
2964.166666666701
 30
0.0
 40
8.0
  1

 41
0.5
100
AcDbText
  0
TEXT
  5
2CB7
330
A
100
AcDbEntity
  8
LEVEL001
 62
     8
100
AcDbText
 10
1268.8000000001
 20
2868.1666666667
 30
0.0
 40
8.0
  1

 41
0.5
100
AcDbText
  0
TEXT
  5
2CBE
330
A
100
AcDbEntity
  8
LEVEL001
 62
     8
100
AcDbText
 10
1268.8000000001
 20
2793.5
 30
0.0
 40
8.0
  1

 41
0.5
100
AcDbText
  0
TEXT
  5
2CC6
330
A
100
AcDbEntity
  8
LEVEL001
 62
     8
100
AcDbText
 10
1268.8000000001
 20
2708.1666666667
 30
0.0
 40
8.0
  1

 41
0.5
100
AcDbText
  0
TEXT
  5
2CC7
330
A
100
AcDbEntity
  8
LEVEL001
 62
     8
100
AcDbText
 10
1268.8000000001
 20
2697.5
 30
0.0
 40
8.0
  1

 41
0.5
100
AcDbText
  0
TEXT
  5
2CC8
330
A
100
AcDbEntity
  8
LEVEL001
 62
     8
100
AcDbText
 10
1268.8000000001
 20
2686.8333333333
 30
0.0
 40
8.0
  1
 
 41
0.5
100
AcDbText
  0
TEXT
  5
2CD5
330
A
100
AcDbEntity
  8
LEVEL001
 62
     8
100
AcDbText
 10
1268.8000000001
 20
4312.1666666667
 30
0.0
 40
8.0
  1

 41
0.5
100
AcDbText
  0
TEXT
  5
2CDC
330
A
100
AcDbEntity
  8
LEVEL001
 62
     8
100
AcDbText
 10
1268.8000000001
 20
4237.499999999999
 30
0.0
 40
8.0
  1

 41
0.5
100
AcDbText
  0
TEXT
  5
2CE4
330
A
100
AcDbEntity
  8
LEVEL001
 62
     8
100
AcDbText
 10
1268.8000000001
 20
4152.166666666699
 30
0.0
 40
8.0
  1

 41
0.5
100
AcDbText
  0
TEXT
  5
2CED
330
A
100
AcDbEntity
  8
LEVEL001
 62
     8
100
AcDbText
 10
1268.8000000001
 20
4056.1666666667
 30
0.0
 40
8.0
  1

 41
0.5
100
AcDbText
  0
TEXT
  5
2CF4
330
A
100
AcDbEntity
  8
LEVEL001
 62
     8
100
AcDbText
 10
1268.8000000001
 20
3981.5
 30
0.0
 40
8.0
  1

 41
0.5
100
AcDbText
  0
TEXT
  5
2CFC
330
A
100
AcDbEntity
  8
LEVEL001
 62
     8
100
AcDbText
 10
1268.8000000001
 20
3896.1666666667
 30
0.0
 40
8.0
  1

 41
0.5
100
AcDbText
  0
TEXT
  5
2CFD
330
A
100
AcDbEntity
  8
LEVEL001
 62
     8
100
AcDbText
 10
1268.8000000001
 20
3885.5
 30
0.0
 40
8.0
  1

 41
0.5
100
AcDbText
  0
TEXT
  5
2CFE
330
A
100
AcDbEntity
  8
LEVEL001
 62
     8
100
AcDbText
 10
1268.8000000001
 20
3874.8333333333
 30
0.0
 40
8.0
  1
 
 41
0.5
100
AcDbText
  0
TEXT
  5
2D10
330
A
100
AcDbEntity
  8
LEVEL001
 62
     8
100
AcDbText
 10
1268.8000000001
 20
7876.1666666667
 30
0.0
 40
8.0
  1

 41
0.5
100
AcDbText
  0
TEXT
  5
2D17
330
A
100
AcDbEntity
  8
LEVEL001
 62
     8
100
AcDbText
 10
1268.8000000001
 20
7801.5
 30
0.0
 40
8.0
  1

 41
0.5
100
AcDbText
  0
TEXT
  5
2D1F
330
A
100
AcDbEntity
  8
LEVEL001
 62
     8
100
AcDbText
 10
1268.8000000001
 20
7716.1666666667
 30
0.0
 40
8.0
  1

 41
0.5
100
AcDbText
  0
TEXT
  5
2D28
330
A
100
AcDbEntity
  8
LEVEL001
 62
     8
100
AcDbText
 10
1268.8000000001
 20
7620.166666666699
 30
0.0
 40
8.0
  1

 41
0.5
100
AcDbText
  0
TEXT
  5
2D2F
330
A
100
AcDbEntity
  8
LEVEL001
 62
     8
100
AcDbText
 10
1268.8000000001
 20
7545.5
 30
0.0
 40
8.0
  1

 41
0.5
100
AcDbText
  0
TEXT
  5
2D37
330
A
100
AcDbEntity
  8
LEVEL001
 62
     8
100
AcDbText
 10
1268.8000000001
 20
7460.1666666667
 30
0.0
 40
8.0
  1

 41
0.5
100
AcDbText
  0
TEXT
  5
2D38
330
A
100
AcDbEntity
  8
LEVEL001
 62
     8
100
AcDbText
 10
1268.8000000001
 20
7449.5
 30
0.0
 40
8.0
  1

 41
0.5
100
AcDbText
  0
TEXT
  5
2D39
330
A
100
AcDbEntity
  8
LEVEL001
 62
     8
100
AcDbText
 10
1268.8000000001
 20
7438.833333333301
 30
0.0
 40
8.0
  1
 
 41
0.5
100
AcDbText
  0
TEXT
  5
2D49
330
A
100
AcDbEntity
  8
LEVEL001
 62
     8
100
AcDbText
 10
1268.8000000001
 20
5500.1666666667
 30
0.0
 40
8.0
  1

 41
0.5
100
AcDbText
  0
TEXT
  5
2D50
330
A
100
AcDbEntity
  8
LEVEL001
 62
     8
100
AcDbText
 10
1268.8000000001
 20
5425.5
 30
0.0
 40
8.0
  1

 41
0.5
100
AcDbText
  0
TEXT
  5
2D60
330
A
100
AcDbEntity
  8
LEVEL001
 62
     8
100
AcDbText
 10
1268.8000000001
 20
6688.1666666667
 30
0.0
 40
8.0
  1

 41
0.5
100
AcDbText
  0
TEXT
  5
2D67
330
A
100
AcDbEntity
  8
LEVEL001
 62
     8
100
AcDbText
 10
1268.8000000001
 20
6613.500000000001
 30
0.0
 40
8.0
  1

 41
0.5
100
AcDbText
  0
TEXT
  5
2D6F
330
A
100
AcDbEntity
  8
LEVEL001
 62
     8
100
AcDbText
 10
1268.8000000001
 20
6528.166666666699
 30
0.0
 40
8.0
  1

 41
0.5
100
AcDbText
  0
TEXT
  5
2D70
330
A
100
AcDbEntity
  8
LEVEL001
 62
     8
100
AcDbText
 10
1268.8000000001
 20
6517.5
 30
0.0
 40
8.0
  1

 41
0.5
100
AcDbText
  0
TEXT
  5
2D71
330
A
100
AcDbEntity
  8
LEVEL001
 62
     8
100
AcDbText
 10
1268.8000000001
 20
6506.8333333333
 30
0.0
 40
8.0
  1
 
 41
0.5
100
AcDbText
  0
LWPOLYLINE
  5
1368A
330
A
100
AcDbEntity
  8
LEVEL001
  6
Continuous
 62
     3
370
    40
100
AcDbPolyline
 90
        5
 70
     0
 43
0.0
 10
62.00000000010914
 20
48.0
 10
1618.0000000001
 20
48.0
 10
1618.0000000001
 20
1140.0
 10
62.00000000010914
 20
1140.0
 10
62.00000000010914
 20
48.0
  0
LWPOLYLINE
  5
1368B
330
A
100
AcDbEntity
  8
0
  6
DOT
100
AcDbPolyline
 90
        5
 70
     0
 43
0.0
 10
0.0
 20
0.0
 10
1680.0
 20
0.0
 10
1680.0
 20
1188.0
 10
0.0
 20
1188.0
 10
0.0
 20
0.0
  0
TEXT
  5
1368C
330
A
100
AcDbEntity
  8
LEVEL001
 62
     3
100
AcDbText
 10
1273.2800000001
 20
267.0
 30
0.0
 40
12.0
  1
図面名称：
 41
0.8
 72
     1
 11
1299.2000000001
 21
273.0
 31
0.0
100
AcDbText
 73
     2
  0
TEXT
  5
1368D
330
A
100
AcDbEntity
  8
LEVEL001
 62
     3
100
AcDbText
 10
1273.1200000001
 20
187.0
 30
0.0
 40
12.0
  1
縮尺：
 41
0.8
 72
     1
 11
1287.2000000001
 21
193.0
 31
0.0
100
AcDbText
 73
     2
  0
TEXT
  5
1368E
330
A
100
AcDbEntity
  8
LEVEL001
 62
     3
100
AcDbText
 10
1273.8400000001
 20
108.8861409145001
 30
0.0
 40
12.0
  1
用紙サイズ：
 41
0.8
 72
     1
 11
1305.2000000001
 21
114.8861409145002
 31
0.0
100
AcDbText
 73
     2
  0
TEXT
  5
1368F
330
A
100
AcDbEntity
  8
LEVEL001
 62
     3
100
AcDbText
 10
1475.306666666766
 20
189.0666666667002
 30
0.0
 40
11.2
  1
作成日付：
 41
0.8
 72
     1
 11
1499.2000000001
 21
194.6666666667001
 31
0.0
100
AcDbText
 73
     2
  0
TEXT
  5
13690
330
A
100
AcDbEntity
  8
LEVEL001
 62
     3
100
AcDbText
 10
1475.306666666766
 20
162.4
 30
0.0
 40
11.2
  1
変更日付：
 41
0.8
 72
     1
 11
1499.2000000001
 21
168.0
 31
0.0
100
AcDbText
 73
     2
  0
TEXT
  5
13691
330
A
100
AcDbEntity
  8
LEVEL001
 62
     3
100
AcDbText
 10
1473.5200000001
 20
107.0
 30
0.0
 40
12.0
  1
ファイル名：
 41
0.8
 72
     1
 11
1505.2000000001
 21
113.0
 31
0.0
100
AcDbText
 73
     2
  0
LINE
  5
13692
330
A
100
AcDbEntity
  8
LEVEL001
  6
Continuous
 62
     3
100
AcDbLine
 10
1468.0000000001
 20
208.0
 30
0.0
 11
1468.0000000001
 21
48.0
 31
0.0
  0
LINE
  5
13693
330
A
100
AcDbEntity
  8
LEVEL001
  6
Continuous
 62
     3
370
    40
100
AcDbLine
 10
1268.0000000001
 20
1140.0
 30
0.0
 11
1268.0000000001
 21
48.0
 31
0.0
  0
LINE
  5
13694
330
A
100
AcDbEntity
  8
LEVEL001
  6
Continuous
 62
     3
100
AcDbLine
 10
1268.0000000001
 20
288.0
 30
0.0
 11
1618.0000000001
 21
288.0
 31
0.0
  0
LINE
  5
13695
330
A
100
AcDbEntity
  8
LEVEL001
  6
Continuous
 62
     3
100
AcDbLine
 10
1268.0000000001
 20
208.0
 30
0.0
 11
1618.0000000001
 21
208.0
 31
0.0
  0
LINE
  5
13696
330
A
100
AcDbEntity
  8
LEVEL001
  6
Continuous
 62
     3
100
AcDbLine
 10
1268.0000000001
 20
128.0
 30
0.0
 11
1618.0000000001
 21
128.0
 31
0.0
  0
LINE
  5
13697
330
A
100
AcDbEntity
  8
LEVEL001
  6
Continuous
 62
     3
100
AcDbLine
 10
1468.0000000001
 20
181.3333333332998
 30
0.0
 11
1618.0000000001
 21
181.3333333332998
 31
0.0
  0
LINE
  5
13698
330
A
100
AcDbEntity
  8
LEVEL001
  6
Continuous
 62
     3
100
AcDbLine
 10
1468.0000000001
 20
154.6666666667001
 30
0.0
 11
1618.0000000001
 21
154.6666666667001
 31
0.0
  0
LINE
  5
13699
330
A
100
AcDbEntity
  8
LEVEL001
  6
Continuous
 62
     3
370
    40
100
AcDbLine
 10
62.00000000010914
 20
1100.0
 30
0.0
 11
1268.0000000001
 21
1100.0
 31
0.0
  0
TEXT
  5
1369A
330
A
100
AcDbEntity
  8
LEVEL001
 62
     3
100
AcDbText
 10
1273.3600000001
 20
1006.0
 30
0.0
 40
12.0
  1
商品名：
 41
0.8
 72
     1
 11
1293.2000000001
 21
1012.0
 31
0.0
100
AcDbText
 73
     2
  0
TEXT
  5
1369B
330
A
100
AcDbEntity
  8
LEVEL001
 62
     3
100
AcDbText
 10
1273.1200000001
 20
926.0
 30
0.0
 40
12.0
  1
形式：
 41
0.8
 72
     1
 11
1287.2000000001
 21
932.0
 31
0.0
100
AcDbText
 73
     2
  0
TEXT
  5
1369C
330
A
100
AcDbEntity
  8
LEVEL001
 62
     3
100
AcDbText
 10
1273.1200000001
 20
846.0
 30
0.0
 40
12.0
  1
仕様：
 41
0.8
 72
     1
 11
1287.2000000001
 21
852.0
 31
0.0
100
AcDbText
 73
     2
  0
LINE
  5
1369D
330
A
100
AcDbEntity
  8
LEVEL001
  6
Continuous
 62
     3
100
AcDbLine
 10
1268.0000000001
 20
1027.0
 30
0.0
 11
1618.0000000001
 21
1027.0
 31
0.0
  0
LINE
  5
1369E
330
A
100
AcDbEntity
  8
LEVEL001
  6
Continuous
 62
     3
100
AcDbLine
 10
1268.0000000001
 20
947.0
 30
0.0
 11
1618.0000000001
 21
947.0
 31
0.0
  0
LINE
  5
1369F
330
A
100
AcDbEntity
  8
LEVEL001
  6
Continuous
 62
     3
100
AcDbLine
 10
1268.0000000001
 20
867.0
 30
0.0
 11
1618.0000000001
 21
867.0
 31
0.0
  0
TEXT
  5
136A0
330
A
100
AcDbEntity
  8
LEVEL001
 62
     8
100
AcDbText
 10
1381.0000000001
 20
240.5
 30
0.0
 40
15.0
  1
平面図･断面図･姿図
 41
0.8
 72
     1
 11
1443.0000000001
 21
248.0
 31
0.0
100
AcDbText
 73
     2
  0
TEXT
  5
136A1
330
A
100
AcDbEntity
  8
LEVEL001
 62
     8
100
AcDbText
 10
1333.6000000001
 20
160.5
 30
0.0
 40
15.0
  1
Ｓ＝１：４　
 41
0.8
 72
     1
 11
1368.0000000001
 21
168.0
 31
0.0
100
AcDbText
 73
     2
  0
TEXT
  5
136A2
330
A
100
AcDbEntity
  8
LEVEL001
 62
     8
100
AcDbText
 10
1355.6000000001
 20
80.5
 30
0.0
 40
15.0
  1
Ａ３
 41
0.8
 72
     1
 11
1368.0000000001
 21
88.0
 31
0.0
100
AcDbText
 73
     2
  0
LINE
  5
136A3
330
A
100
AcDbEntity
  8
LEVEL001
  6
Continuous
 62
     3
370
    40
100
AcDbLine
 10
665.00000000011
 20
1140.0
 30
0.0
 11
665.00000000011
 21
48.0
 31
0.0
  0
TEXT
  5
136A4
330
A
100
AcDbEntity
  8
LEVEL001
 62
     8
100
AcDbText
 10
1323.1600000001
 20
900.0
 30
0.0
 40
14.0
  1
壁付ブラケット－Ｔ５５Ｆタイプ(縦型)
 41
0.8
 72
     1
 11
1443.0000000001
 21
907.0
 31
0.0
100
AcDbText
 73
     2
  0
TEXT
  5
136A5
330
A
100
AcDbEntity
  8
LEVEL001
 62
     8
100
AcDbText
 10
93.20000000010896
 20
1114.0
 30
0.0
 40
12.0
  1
壁付ブラケット(縦型)－Ｔ５５Ｆ(笠木%%c３４仕様)
 41
0.8
 11
93.20000000010896
 21
1120.0
 31
0.0
100
AcDbText
 73
     2
  0
LINE
  5
136A6
330
A
100
AcDbEntity
  8
LEVEL001
  6
Continuous
 62
     3
370
    30
100
AcDbLine
 10
243.3079745824598
 20
999.5961714260001
 30
0.0
 11
218.3079745824598
 21
999.5961714260001
 31
0.0
  0
LINE
  5
136A7
330
A
100
AcDbEntity
  8
LEVEL001
  6
Continuous
 62
     3
370
    30
100
AcDbLine
 10
218.3079745824598
 20
1030.8490355831
 30
0.0
 11
218.3079745824598
 21
999.5961714260001
 31
0.0
  0
LINE
  5
136A8
330
A
100
AcDbEntity
  8
LEVEL001
  6
Continuous
 62
     3
370
    30
100
AcDbLine
 10
243.3079745824598
 20
1009.596171426
 30
0.0
 11
243.3079745824598
 21
999.5961714260001
 31
0.0
  0
LINE
  5
136A9
330
A
100
AcDbEntity
  8
LEVEL001
  6
Continuous
 62
     3
370
    30
100
AcDbLine
 10
243.3079745824598
 20
1009.596171426
 30
0.0
 11
474.4268906592696
 21
1009.596171426
 31
0.0
  0
LWPOLYLINE
  5
136AA
330
A
100
AcDbEntity
  8
LEVEL001
  6
Continuous
 62
     5
100
AcDbPolyline
 90
        4
 70
     0
 43
0.0
 10
386.2079745824603
 20
1007.496171426
 10
386.2079745824603
 20
990.4961714259998
 10
376.2079745824603
 20
980.4961714259999
 10
338.9079745824602
 20
980.4961714259999
  0
LINE
  5
136AB
330
A
100
AcDbEntity
  8
LEVEL001
  6
Continuous
 62
     5
100
AcDbLine
 10
334.7079745824603
 20
1007.496171426
 30
0.0
 11
386.2079745824603
 21
1007.496171426
 31
0.0
  0
LINE
  5
136AC
330
A
100
AcDbEntity
  8
LEVEL001
  6
Continuous
 62
     5
100
AcDbLine
 10
334.7079745824603
 20
992.9401572415999
 30
0.0
 11
334.7079745824603
 21
1004.596171426
 31
0.0
  0
LINE
  5
136AD
330
A
100
AcDbEntity
  8
LEVEL001
  6
Continuous
 62
     5
100
AcDbLine
 10
334.7079745824603
 20
1007.496171426
 30
0.0
 11
334.7079745824603
 21
992.3401572415995
 31
0.0
  0
ARC
  5
136AE
330
A
100
AcDbEntity
  8
LEVEL001
  6
Continuous
 62
     5
100
AcDbCircle
 10
353.5079745824996
 20
992.3401572414995
 30
0.0
 40
18.8
100
AcDbArc
 50
179.9999999998697
 51
219.0500668711201
  0
LINE
  5
136AF
330
A
100
AcDbEntity
  8
LEVEL001
  6
DASHDOT
 62
     6
370
    15
100
AcDbLine
 10
361.4079745824601
 20
1011.7018344924
 30
0.0
 11
361.4079745824601
 21
982.7175039357388
 31
0.0
  0
LINE
  5
136B0
330
A
100
AcDbEntity
  8
LEVEL001
  6
DASHDOT
 62
     6
370
    15
100
AcDbLine
 10
343.3079745824598
 20
928.3533687097998
 30
0.0
 11
343.3079745824598
 21
987.4858578501997
 31
0.0
  0
LINE
  5
136B1
330
A
100
AcDbEntity
  8
LEVEL001
  6
DASHDOT
 62
     6
370
    15
100
AcDbLine
 10
369.7378031673297
 20
954.0961714259001
 30
0.0
 11
316.8781459975899
 21
954.0961714259001
 31
0.0
  0
LINE
  5
136B2
330
A
100
AcDbEntity
  8
LEVEL001
  6
HIDDEN
 62
     2
370
    15
100
AcDbLine
 10
366.4079745824602
 20
1009.596171426
 30
0.0
 11
366.4079745824602
 21
1000.896171426
 31
0.0
  0
LINE
  5
136B3
330
A
100
AcDbEntity
  8
LEVEL001
  6
HIDDEN
 62
     2
370
    15
100
AcDbLine
 10
356.4079745824602
 20
1009.596171426
 30
0.0
 11
356.4079745824602
 21
1000.896171426
 31
0.0
  0
ARC
  5
136B4
330
A
100
AcDbEntity
  8
LEVEL001
  6
HIDDEN
 62
    15
370
    15
100
AcDbCircle
 10
373.4079745829804
 20
1001.296171426
 30
0.0
 40
0.5
100
AcDbArc
 50
269.9999999405422
 51
0.0
  0
ARC
  5
136B5
330
A
100
AcDbEntity
  8
LEVEL001
  6
HIDDEN
 62
    15
370
    15
100
AcDbCircle
 10
375.0079745824596
 20
1003.696171425999
 30
0.0
 40
1.1
100
AcDbArc
 50
0.0
 51
180.0
  0
LINE
  5
136B6
330
A
100
AcDbEntity
  8
LEVEL001
  6
HIDDEN
 62
    15
370
    15
100
AcDbLine
 10
373.9079745824601
 20
1003.696171425999
 30
0.0
 11
373.9079745824601
 21
1001.296171426
 31
0.0
  0
LINE
  5
136B7
330
A
100
AcDbEntity
  8
LEVEL001
  6
HIDDEN
 62
    15
370
    15
100
AcDbLine
 10
377.8079745824598
 20
999.796171426
 30
0.0
 11
376.4079745824602
 21
999.796171426
 31
0.0
  0
ARC
  5
136B8
330
A
100
AcDbEntity
  8
LEVEL001
  6
HIDDEN
 62
    15
370
    15
100
AcDbCircle
 10
376.4079745824602
 20
1000.0961714292
 30
0.0
 40
0.3
100
AcDbArc
 50
180.0000006150828
 51
270.0000000000521
  0
ARC
  5
136B9
330
A
100
AcDbEntity
  8
LEVEL001
  6
HIDDEN
 62
    15
370
    15
100
AcDbCircle
 10
377.8079745805599
 20
1000.096171426
 30
0.0
 40
0.3
100
AcDbArc
 50
270.0000003629997
 51
0.0
  0
LINE
  5
136BA
330
A
100
AcDbEntity
  8
LEVEL001
  6
HIDDEN
 62
    15
370
    15
100
AcDbLine
 10
376.10797458246
 20
1000.096171426
 30
0.0
 11
376.10797458246
 21
1003.696171425999
 31
0.0
  0
LINE
  5
136BB
330
A
100
AcDbEntity
  8
LEVEL001
  6
HIDDEN
 62
    15
370
    15
100
AcDbLine
 10
378.10797458246
 20
1000.796171426
 30
0.0
 11
378.10797458246
 21
1000.096171426
 31
0.0
  0
LINE
  5
136BC
330
A
100
AcDbEntity
  8
LEVEL001
  6
HIDDEN
 62
    15
370
    15
100
AcDbLine
 10
378.10797458246
 20
1000.796171426
 30
0.0
 11
386.2079745824603
 21
1000.796171426
 31
0.0
  0
LINE
  5
136BD
330
A
100
AcDbEntity
  8
LEVEL001
  6
HIDDEN
 62
     2
100
AcDbLine
 10
386.2079745824603
 20
1000.796171426
 30
0.0
 11
386.2079745824603
 21
1007.496171426
 31
0.0
  0
LINE
  5
136BE
330
A
100
AcDbEntity
  8
LEVEL001
  6
HIDDEN
 62
     2
370
    15
100
AcDbLine
 10
360.9079745824602
 20
1000.796171426
 30
0.0
 11
361.4079745824601
 21
1001.296171426
 31
0.0
  0
LINE
  5
136BF
330
A
100
AcDbEntity
  8
LEVEL001
  6
HIDDEN
 62
    15
370
    15
100
AcDbLine
 10
347.1957448677504
 20
1000.796171426
 30
0.0
 11
360.9079745824602
 21
1000.796171426
 31
0.0
  0
LINE
  5
136C0
330
A
100
AcDbEntity
  8
LEVEL001
  6
HIDDEN
 62
     2
370
    15
100
AcDbLine
 10
361.4079745824601
 20
1001.296171426
 30
0.0
 11
361.9079745824602
 21
1000.796171426
 31
0.0
  0
LINE
  5
136C1
330
A
100
AcDbEntity
  8
LEVEL001
  6
HIDDEN
 62
    15
370
    15
100
AcDbLine
 10
361.9079745824602
 20
1000.796171426
 30
0.0
 11
373.4079745824602
 21
1000.796171426
 31
0.0
  0
LINE
  5
136C2
330
A
100
AcDbEntity
  8
LEVEL001
  6
HIDDEN
 62
    15
370
    15
100
AcDbLine
 10
338.9079745824602
 20
981.0961714260001
 30
0.0
 11
338.9079745824602
 21
980.4961714259999
 31
0.0
  0
ARC
  5
136C3
330
A
100
AcDbEntity
  8
LEVEL001
  6
HIDDEN
 62
    15
370
    15
100
AcDbCircle
 10
353.5079745824396
 20
992.9401572415999
 30
0.0
 40
18.8
100
AcDbArc
 50
179.8476174281185
 51
219.0500668714538
  0
LINE
  5
136C4
330
A
100
AcDbEntity
  8
LEVEL001
  6
HIDDEN
 62
    15
370
    15
100
AcDbLine
 10
347.7079745824604
 20
984.8939924998003
 30
0.0
 11
347.7079745824604
 21
980.4961714259999
 31
0.0
  0
ARC
  5
136C5
330
A
100
AcDbEntity
  8
LEVEL001
  6
HIDDEN
 62
    15
370
    15
100
AcDbCircle
 10
353.5079745825596
 20
993.0401572416004
 30
0.0
 40
10.0
100
AcDbArc
 50
129.1404088981418
 51
234.5494573606367
  0
LWPOLYLINE
  5
136C6
330
A
100
AcDbEntity
  8
LEVEL001
  6
HIDDEN
 62
    15
370
    15
100
AcDbPolyline
 90
        4
 70
     0
 43
0.0
 10
336.7079745824603
 20
1007.496171426
 10
336.7079745824603
 20
1005.596171426
 10
340.7079745824603
 20
1005.596171426
 10
340.7079745824603
 20
1007.496171426
  0
LINE
  5
136C7
330
A
100
AcDbEntity
  8
LEVEL001
  6
HIDDEN
 62
     2
100
AcDbLine
 10
334.7079745824603
 20
993.0913317717996
 30
0.0
 11
334.7079745824603
 21
1004.596171426
 31
0.0
  0
LINE
  5
136C8
330
A
100
AcDbEntity
  8
LEVEL001
  6
HIDDEN
 62
     2
100
AcDbLine
 10
334.7079745824603
 20
1004.596171426
 30
0.0
 11
334.7079745824603
 21
993.0401572416004
 31
0.0
  0
LINE
  5
136C9
330
A
100
AcDbEntity
  8
LEVEL001
  6
HIDDEN
 62
     2
370
    15
100
AcDbLine
 10
349.3079745824598
 20
956.1561773931998
 30
0.0
 11
338.2079745824603
 21
956.1561773931998
 31
0.0
  0
LINE
  5
136CA
330
A
100
AcDbEntity
  8
LEVEL001
  6
HIDDEN
 62
     2
370
    15
100
AcDbLine
 10
346.7079745824603
 20
955.4061773931998
 30
0.0
 11
349.3079745824598
 21
955.4061773931998
 31
0.0
  0
LINE
  5
136CB
330
A
100
AcDbEntity
  8
LEVEL001
  6
HIDDEN
 62
     2
370
    15
100
AcDbLine
 10
349.3079745824598
 20
952.9061773931998
 30
0.0
 11
346.7079745824603
 21
952.9061773931998
 31
0.0
  0
LINE
  5
136CC
330
A
100
AcDbEntity
  8
LEVEL001
  6
HIDDEN
 62
     2
370
    15
100
AcDbLine
 10
346.7079745824603
 20
952.1561773931999
 30
0.0
 11
349.3079745824598
 21
952.1561773931999
 31
0.0
  0
LINE
  5
136CD
330
A
100
AcDbEntity
  8
LEVEL001
  6
HIDDEN
 62
     2
370
    15
100
AcDbLine
 10
351.3079745824598
 20
955.4061773931998
 30
0.0
 11
350.5579745824598
 21
956.1561773931998
 31
0.0
  0
LINE
  5
136CE
330
A
100
AcDbEntity
  8
LEVEL001
  6
HIDDEN
 62
     2
370
    15
100
AcDbLine
 10
351.3079745824598
 20
952.9061773931998
 30
0.0
 11
351.3079745824598
 21
955.4061773931998
 31
0.0
  0
LINE
  5
136CF
330
A
100
AcDbEntity
  8
LEVEL001
  6
HIDDEN
 62
     2
370
    15
100
AcDbLine
 10
350.5579745824598
 20
952.1561773931999
 30
0.0
 11
351.3079745824598
 21
952.9061773931998
 31
0.0
  0
LINE
  5
136D0
330
A
100
AcDbEntity
  8
LEVEL001
  6
HIDDEN
 62
     2
370
    15
100
AcDbLine
 10
350.5579745824598
 20
956.1561773931998
 30
0.0
 11
349.3079745824598
 21
956.1561773931998
 31
0.0
  0
LINE
  5
136D1
330
A
100
AcDbEntity
  8
LEVEL001
  6
HIDDEN
 62
     2
370
    15
100
AcDbLine
 10
349.3079745824598
 20
952.1561773931999
 30
0.0
 11
350.5579745824598
 21
952.1561773931999
 31
0.0
  0
LINE
  5
136D2
330
A
100
AcDbEntity
  8
LEVEL001
  6
HIDDEN
 62
     2
370
    15
100
AcDbLine
 10
349.3079745824598
 20
955.4061773931998
 30
0.0
 11
351.3079745824598
 21
955.4061773931998
 31
0.0
  0
LINE
  5
136D3
330
A
100
AcDbEntity
  8
LEVEL001
  6
HIDDEN
 62
     2
370
    15
100
AcDbLine
 10
351.3079745824598
 20
952.9061773931998
 30
0.0
 11
349.3079745824598
 21
952.9061773931998
 31
0.0
  0
ARC
  5
136D4
330
A
100
AcDbEntity
  8
LEVEL001
  6
HIDDEN
 62
     2
370
    15
100
AcDbCircle
 10
332.8079745797704
 20
957.6561773931999
 30
0.0
 40
0.5
100
AcDbArc
 50
0.0
 51
89.99999969129913
  0
ARC
  5
136D5
330
A
100
AcDbEntity
  8
LEVEL001
  6
HIDDEN
 62
     2
370
    15
100
AcDbCircle
 10
332.8079745824598
 20
950.6561773923003
 30
0.0
 40
0.5
100
AcDbArc
 50
270.0
 51
0.0000001010938033
  0
LINE
  5
136D6
330
A
100
AcDbEntity
  8
LEVEL001
  6
HIDDEN
 62
     2
370
    15
100
AcDbLine
 10
332.8079745824598
 20
950.1561773931998
 30
0.0
 11
332.0727223919403
 21
950.1561773931998
 31
0.0
  0
ARC
  5
136D7
330
A
100
AcDbEntity
  8
LEVEL001
  6
HIDDEN
 62
     2
370
    15
100
AcDbCircle
 10
337.5746412491399
 20
954.1561773931999
 30
0.0
 40
7.2666666666667
100
AcDbArc
 50
151.3979413173693
 51
208.6020586828178
  0
ARC
  5
136D8
330
A
100
AcDbEntity
  8
LEVEL001
  6
HIDDEN
 62
     2
370
    15
100
AcDbCircle
 10
332.07272239141
 20
951.1561773942004
 30
0.0
 40
1.0
100
AcDbArc
 50
208.6020587465251
 51
270.0000000305366
  0
ARC
  5
136D9
330
A
100
AcDbEntity
  8
LEVEL001
  6
HIDDEN
 62
     2
370
    15
100
AcDbCircle
 10
332.0727223922604
 20
957.1561773938
 30
0.0
 40
1.0
100
AcDbArc
 50
90.00000001855125
 51
151.3979413560321
  0
LINE
  5
136DA
330
A
100
AcDbEntity
  8
LEVEL001
  6
HIDDEN
 62
     2
370
    15
100
AcDbLine
 10
332.8079745824598
 20
958.1561773931998
 30
0.0
 11
332.0727223919403
 21
958.1561773931998
 31
0.0
  0
LINE
  5
136DB
330
A
100
AcDbEntity
  8
LEVEL001
  6
HIDDEN
 62
     2
370
    15
100
AcDbLine
 10
333.3079745824598
 20
955.4061773931998
 30
0.0
 11
338.2079745824603
 21
955.4061773931998
 31
0.0
  0
LINE
  5
136DC
330
A
100
AcDbEntity
  8
LEVEL001
  6
HIDDEN
 62
     2
370
    15
100
AcDbLine
 10
338.2079745824603
 20
952.9061773931998
 30
0.0
 11
333.3079745824598
 21
952.9061773931998
 31
0.0
  0
LINE
  5
136DD
330
A
100
AcDbEntity
  8
LEVEL001
  6
HIDDEN
 62
     2
370
    15
100
AcDbLine
 10
333.3079745824598
 20
952.1561773931999
 30
0.0
 11
338.2079745824603
 21
952.1561773931999
 31
0.0
  0
LINE
  5
136DE
330
A
100
AcDbEntity
  8
LEVEL001
  6
HIDDEN
 62
     2
370
    15
100
AcDbLine
 10
338.2079745824603
 20
956.1561773931998
 30
0.0
 11
336.3079745824598
 21
956.1561773931998
 31
0.0
  0
LINE
  5
136DF
330
A
100
AcDbEntity
  8
LEVEL001
  6
HIDDEN
 62
     2
370
    15
100
AcDbLine
 10
336.3079745824598
 20
956.1561773931998
 30
0.0
 11
333.3079745824598
 21
956.1561773931998
 31
0.0
  0
LINE
  5
136E0
330
A
100
AcDbEntity
  8
LEVEL001
  6
HIDDEN
 62
     2
370
    15
100
AcDbLine
 10
338.2079745824603
 20
952.1561773931999
 30
0.0
 11
346.7079745824603
 21
952.1561773931999
 31
0.0
  0
LINE
  5
136E1
330
A
100
AcDbEntity
  8
LEVEL001
  6
HIDDEN
 62
     2
370
    15
100
AcDbLine
 10
346.7079745824603
 20
952.9061773931998
 30
0.0
 11
338.2079745824603
 21
952.9061773931998
 31
0.0
  0
LINE
  5
136E2
330
A
100
AcDbEntity
  8
LEVEL001
  6
HIDDEN
 62
     2
370
    15
100
AcDbLine
 10
338.2079745824603
 20
955.4061773931998
 30
0.0
 11
346.7079745824603
 21
955.4061773931998
 31
0.0
  0
LINE
  5
136E3
330
A
100
AcDbEntity
  8
LEVEL001
  6
HIDDEN
 62
     2
100
AcDbLine
 10
365.9607220824601
 20
1000.796171426
 30
0.0
 11
356.8552255824597
 21
1000.796171426
 31
0.0
  0
LINE
  5
136E4
330
A
100
AcDbEntity
  8
LEVEL001
  6
HIDDEN
 62
     2
370
    15
100
AcDbLine
 10
352.4079745824602
 20
999.5961714260001
 30
0.0
 11
352.4079745824602
 21
1000.796171426
 31
0.0
  0
LINE
  5
136E5
330
A
100
AcDbEntity
  8
LEVEL001
  6
HIDDEN
 62
     2
370
    15
100
AcDbLine
 10
368.9079745824602
 20
994.1735216952002
 30
0.0
 11
368.9079745824602
 21
999.5961714260001
 31
0.0
  0
LINE
  5
136E6
330
A
100
AcDbEntity
  8
LEVEL001
  6
HIDDEN
 62
     2
370
    15
100
AcDbLine
 10
368.9079745824602
 20
999.5961714260001
 30
0.0
 11
353.9079745824602
 21
999.5961714260001
 31
0.0
  0
LINE
  5
136E7
330
A
100
AcDbEntity
  8
LEVEL001
  6
HIDDEN
 62
     2
370
    15
100
AcDbLine
 10
353.9079745824602
 20
999.5961714260001
 30
0.0
 11
353.9079745824602
 21
994.1735216952002
 31
0.0
  0
ARC
  5
136E8
330
A
100
AcDbEntity
  8
LEVEL001
  6
HIDDEN
 62
     2
370
    15
100
AcDbCircle
 10
355.7843629569197
 20
996.9339776693995
 30
0.0
 40
3.3378062436684
100
AcDbArc
 50
235.7945420640997
 51
304.2054579482434
  0
ARC
  5
136E9
330
A
100
AcDbEntity
  8
LEVEL001
  6
HIDDEN
 62
     2
370
    15
100
AcDbCircle
 10
361.4079745824902
 20
1006.045299958599
 30
0.0
 40
12.449128532617
100
AcDbArc
 50
252.4821530352626
 51
287.5178469643007
  0
ARC
  5
136EA
330
A
100
AcDbEntity
  8
LEVEL001
  6
HIDDEN
 62
     2
370
    15
100
AcDbCircle
 10
367.0315862074704
 20
996.9339776694996
 30
0.0
 40
3.337806243639
100
AcDbArc
 50
235.7945420603275
 51
304.2054579419564
  0
LINE
  5
136EB
330
A
100
AcDbEntity
  8
LEVEL001
  6
HIDDEN
 62
     2
370
    15
100
AcDbLine
 10
367.0315862075504
 20
993.5961714260001
 30
0.0
 11
355.7843629573399
 21
993.5961714260001
 31
0.0
  0
LINE
  5
136EC
330
A
100
AcDbEntity
  8
LEVEL001
  6
HIDDEN
 62
     2
370
    15
100
AcDbLine
 10
365.1551978326397
 20
994.1735216952002
 30
0.0
 11
365.1551978326397
 21
999.5961714260001
 31
0.0
  0
LINE
  5
136ED
330
A
100
AcDbEntity
  8
LEVEL001
  6
HIDDEN
 62
     2
370
    15
100
AcDbLine
 10
357.6607513322297
 20
994.1735216952002
 30
0.0
 11
357.6607513322297
 21
999.5961714260001
 31
0.0
  0
LINE
  5
136EE
330
A
100
AcDbEntity
  8
LEVEL001
  6
HIDDEN
 62
     2
370
    15
100
AcDbLine
 10
370.4079745824602
 20
1000.796171426
 30
0.0
 11
370.4079745824602
 21
999.5961714260001
 31
0.0
  0
LINE
  5
136EF
330
A
100
AcDbEntity
  8
LEVEL001
  6
HIDDEN
 62
     2
370
    15
100
AcDbLine
 10
370.4079745824602
 20
999.5961714260001
 30
0.0
 11
368.9079745824602
 21
999.5961714260001
 31
0.0
  0
LINE
  5
136F0
330
A
100
AcDbEntity
  8
LEVEL001
  6
HIDDEN
 62
     2
370
    15
100
AcDbLine
 10
353.9079745824602
 20
999.5961714260001
 30
0.0
 11
352.4079745824602
 21
999.5961714260001
 31
0.0
  0
LINE
  5
136F1
330
A
100
AcDbEntity
  8
LEVEL001
  6
HIDDEN
 62
     2
370
    15
100
AcDbLine
 10
357.4079755824596
 20
1000.796171426
 30
0.0
 11
357.4079755824596
 21
1009.596171426
 31
0.0
  0
LINE
  5
136F2
330
A
100
AcDbEntity
  8
LEVEL001
  6
HIDDEN
 62
     2
370
    15
100
AcDbLine
 10
365.4079735824598
 20
1000.796171426
 30
0.0
 11
365.4079735824598
 21
1009.596171426
 31
0.0
  0
LINE
  5
136F3
330
A
100
AcDbEntity
  8
LEVEL001
  6
Continuous
 62
     7
100
AcDbLine
 10
347.8079745824598
 20
946.5961714260002
 30
0.0
 11
347.8079745824598
 21
963.0961714260001
 31
0.0
  0
LINE
  5
136F4
330
A
100
AcDbEntity
  8
LEVEL001
  6
Continuous
 62
     7
100
AcDbLine
 10
338.8079745824598
 20
946.5961714260002
 30
0.0
 11
338.8079745824598
 21
963.0961714260001
 31
0.0
  0
ARC
  5
136F5
330
A
100
AcDbEntity
  8
LEVEL001
  6
Continuous
 62
     7
100
AcDbCircle
 10
339.30797458284
 20
969.5961714260002
 30
0.0
 40
1.5
100
AcDbArc
 50
0.0
 51
90.00000001438243
  0
LINE
  5
136F6
330
A
100
AcDbEntity
  8
LEVEL001
  6
Continuous
 62
     7
100
AcDbLine
 10
339.3079745824598
 20
971.0961714260001
 30
0.0
 11
339.2079745824603
 21
971.0961714260001
 31
0.0
  0
ARC
  5
136F7
330
A
100
AcDbEntity
  8
LEVEL001
  6
Continuous
 62
     7
100
AcDbCircle
 10
339.2079745824603
 20
971.3961714226998
 30
0.0
 40
0.3
100
AcDbArc
 50
179.9999993771006
 51
270.0000000000521
  0
LINE
  5
136F8
330
A
100
AcDbEntity
  8
LEVEL001
  6
Continuous
 62
     7
100
AcDbLine
 10
340.8079745824598
 20
964.5961714260002
 30
0.0
 11
340.8079745824598
 21
969.5961714260002
 31
0.0
  0
ARC
  5
136F9
330
A
100
AcDbEntity
  8
LEVEL001
  6
Continuous
 62
     7
100
AcDbCircle
 10
339.3079745824598
 20
964.5961714256999
 30
0.0
 40
1.5
100
AcDbArc
 50
270.0
 51
0.0
  0
LINE
  5
136FA
330
A
100
AcDbEntity
  8
LEVEL001
  6
Continuous
 62
     7
100
AcDbLine
 10
338.9079745824602
 20
963.0961714260001
 30
0.0
 11
339.3079745824598
 21
963.0961714260001
 31
0.0
  0
LINE
  5
136FB
330
A
100
AcDbEntity
  8
LEVEL001
  6
Continuous
 62
     7
100
AcDbLine
 10
338.9079745824602
 20
971.3961714260003
 30
0.0
 11
338.9079745824602
 21
980.6961714259996
 31
0.0
  0
ARC
  5
136FC
330
A
100
AcDbEntity
  8
LEVEL001
  6
Continuous
 62
     7
100
AcDbCircle
 10
347.3079745824598
 20
964.5961714267995
 30
0.0
 40
1.5
100
AcDbArc
 50
180.0000000330118
 51
270.0
  0
LINE
  5
136FD
330
A
100
AcDbEntity
  8
LEVEL001
  6
Continuous
 62
     7
100
AcDbLine
 10
345.8079745824598
 20
964.5961714260002
 30
0.0
 11
345.8079745824598
 21
969.5961714260002
 31
0.0
  0
ARC
  5
136FE
330
A
100
AcDbEntity
  8
LEVEL001
  6
Continuous
 62
     7
100
AcDbCircle
 10
347.3079745809901
 20
969.5961714260002
 30
0.0
 40
1.5
100
AcDbArc
 50
89.99999994392942
 51
180.0
  0
ARC
  5
136FF
330
A
100
AcDbEntity
  8
LEVEL001
  6
Continuous
 62
     7
100
AcDbCircle
 10
347.4079745814197
 20
971.3961714260003
 30
0.0
 40
0.3
100
AcDbArc
 50
270.0000001988525
 51
0.0
  0
LINE
  5
13700
330
A
100
AcDbEntity
  8
LEVEL001
  6
Continuous
 62
     7
100
AcDbLine
 10
347.3079745824598
 20
971.0961714260001
 30
0.0
 11
347.4079745824602
 21
971.0961714260001
 31
0.0
  0
LINE
  5
13701
330
A
100
AcDbEntity
  8
LEVEL001
  6
Continuous
 62
     7
100
AcDbLine
 10
347.7079745824604
 20
963.0961714260001
 30
0.0
 11
347.3079745824598
 21
963.0961714260001
 31
0.0
  0
LINE
  5
13702
330
A
100
AcDbEntity
  8
LEVEL001
  6
Continuous
 62
     7
100
AcDbLine
 10
347.7079745824604
 20
971.3961714260003
 30
0.0
 11
347.7079745824604
 21
980.4961714259999
 31
0.0
  0
LINE
  5
13703
330
A
100
AcDbEntity
  8
LEVEL001
  6
Continuous
 62
     7
100
AcDbLine
 10
329.7079745824603
 20
1009.596171426
 30
0.0
 11
336.7079745824603
 21
1009.596171426
 31
0.0
  0
LINE
  5
13704
330
A
100
AcDbEntity
  8
LEVEL001
  6
Continuous
 62
     7
100
AcDbLine
 10
329.7079745824603
 20
1009.596171426
 30
0.0
 11
329.7079745824603
 21
1008.971171426
 31
0.0
  0
LINE
  5
13705
330
A
100
AcDbEntity
  8
LEVEL001
  6
Continuous
 62
     7
100
AcDbLine
 10
336.7079745824603
 20
1009.596171426
 30
0.0
 11
334.7079745824603
 21
1009.596171426
 31
0.0
  0
LINE
  5
13706
330
A
100
AcDbEntity
  8
LEVEL001
  6
Continuous
 62
     7
100
AcDbLine
 10
330.2079745824603
 20
1007.971171426
 30
0.0
 11
334.7079745824603
 21
1004.596171426
 31
0.0
  0
ARC
  5
13707
330
A
100
AcDbEntity
  8
LEVEL001
  6
Continuous
 62
     7
100
AcDbCircle
 10
330.9579745824603
 20
1008.9711714254
 30
0.0
 40
1.25
100
AcDbArc
 50
179.999999975873
 51
233.1301023396694
  0
LINE
  5
13708
330
A
100
AcDbEntity
  8
LEVEL001
  6
Continuous
 62
     7
100
AcDbLine
 10
386.2079745824603
 20
1009.596171426
 30
0.0
 11
340.7079745824603
 21
1009.596171426
 31
0.0
  0
ARC
  5
13709
330
A
100
AcDbEntity
  8
LEVEL001
  6
Continuous
 62
     7
100
AcDbCircle
 10
353.5079745824596
 20
993.0401572346999
 30
0.0
 40
18.8
100
AcDbArc
 50
179.9999999789735
 51
180.1523825509331
  0
LINE
  5
1370A
330
A
100
AcDbEntity
  8
LEVEL001
  6
Continuous
 62
     7
100
AcDbLine
 10
386.2079745824603
 20
1007.496171426
 30
0.0
 11
386.2079745824603
 21
1009.596171426
 31
0.0
  0
LINE
  5
1370B
330
A
100
AcDbEntity
  8
LEVEL001
  6
Continuous
 62
     7
100
AcDbLine
 10
336.7079745824603
 20
1009.596171426
 30
0.0
 11
336.7079745824603
 21
1007.496171426
 31
0.0
  0
LINE
  5
1370C
330
A
100
AcDbEntity
  8
LEVEL001
  6
Continuous
 62
     7
100
AcDbLine
 10
340.7079745824603
 20
1007.496171426
 30
0.0
 11
340.7079745824603
 21
1009.596171426
 31
0.0
  0
LINE
  5
1370D
330
A
100
AcDbEntity
  8
LEVEL001
  6
Continuous
 62
     7
100
AcDbLine
 10
347.8079745824598
 20
946.5961714260002
 30
0.0
 11
338.8079745824598
 21
946.5961714260002
 31
0.0
  0
TEXT
  5
13711
330
A
100
AcDbEntity
  8
LEVEL001
 62
     8
100
AcDbText
 10
1323.9600000001
 20
978.0
 30
0.0
 40
18.0
  1
パルライン楕円型ハンドレール
 41
0.8
 72
     1
 11
1443.0000000001
 21
987.0
 31
0.0
100
AcDbText
 73
     2
  0
TEXT
  5
1376B
330
A
100
AcDbEntity
  8
LEVEL001
 62
     8
100
AcDbText
 10
1291.6658875373
 20
310.8270360248998
 30
0.0
 40
12.0
  1
※本製品は予告無しに変更する事があります。
 41
0.8
 72
     1
 11
1408.7858875373
 21
316.8270360248998
 31
0.0
100
AcDbText
 73
     2
  0
TEXT
  5
1376C
330
A
100
AcDbEntity
  8
LEVEL001
 62
     8
100
AcDbText
 10
1268.8000000001
 20
833.5
 30
0.0
 40
8.0
  1
(楕円型)
 41
0.8
100
AcDbText
  0
TEXT
  5
1376D
330
A
100
AcDbEntity
  8
LEVEL001
 62
     8
100
AcDbText
 10
1268.8000000001
 20
822.8333333333003
 30
0.0
 40
8.0
  1
・屋内用
 41
0.8
100
AcDbText
  0
TEXT
  5
1376E
330
A
100
AcDbEntity
  8
LEVEL001
 62
     8
100
AcDbText
 10
1268.8000000001
 20
812.1666666666996
 30
0.0
 40
8.0
  1
 標準色　
 41
0.8
100
AcDbText
  0
TEXT
  5
1376F
330
A
100
AcDbEntity
  8
LEVEL001
 62
     8
100
AcDbText
 10
1268.8000000001
 20
801.5
 30
0.0
 40
8.0
  1
　笠木(ＧＳＫ６Ｃ)･･･特殊樹脂　　　　
 41
0.8
100
AcDbText
  0
TEXT
  5
13770
330
A
100
AcDbEntity
  8
LEVEL001
 62
     8
100
AcDbText
 10
1268.8000000001
 20
790.8333333333002
 30
0.0
 40
8.0
  1
　笠木受(ＳＫ６Ａ)･･･アルミ
 41
0.8
100
AcDbText
  0
TEXT
  5
13771
330
A
100
AcDbEntity
  8
LEVEL001
 62
     8
100
AcDbText
 10
1268.8000000001
 20
780.1666666666997
 30
0.0
 40
8.0
  1
　エンドキャップ(ＢＣ４３)･･･ＡＳＡ
 41
0.8
100
AcDbText
  0
TEXT
  5
13772
330
A
100
AcDbEntity
  8
LEVEL001
 62
     8
100
AcDbText
 10
1268.8000000001
 20
758.8333333333003
 30
0.0
 40
8.0
  1
木目色　
 41
0.8
100
AcDbText
  0
TEXT
  5
13773
330
A
100
AcDbEntity
  8
LEVEL001
 62
     8
100
AcDbText
 10
1268.8000000001
 20
748.1666666666996
 30
0.0
 40
8.0
  1
　笠木(ＧＳＫ６Ｍ)･･･特殊樹脂(耐候性樹脂)　　　　　　
 41
0.8
100
AcDbText
  0
TEXT
  5
13774
330
A
100
AcDbEntity
  8
LEVEL001
 62
     8
100
AcDbText
 10
1268.8000000001
 20
737.5
 30
0.0
 40
8.0
  1
　笠木受(ＳＫ６Ａ)･･･アルミ
 41
0.8
100
AcDbText
  0
TEXT
  5
13775
330
A
100
AcDbEntity
  8
LEVEL001
 62
     8
100
AcDbText
 10
1268.8000000001
 20
726.8333333333003
 30
0.0
 40
8.0
  1
　エンドキャップ(ＢＣ４３Ｍ)･･･ＡＳＡ
 41
0.8
100
AcDbText
  0
TEXT
  5
13776
330
A
100
AcDbEntity
  8
LEVEL001
 62
     8
100
AcDbText
 10
1268.8000000001
 20
705.4999999999999
 30
0.0
 40
8.0
  1
・屋外用
 41
0.8
100
AcDbText
  0
TEXT
  5
13777
330
A
100
AcDbEntity
  8
LEVEL001
 62
     8
100
AcDbText
 10
1268.8000000001
 20
694.8333333333002
 30
0.0
 40
8.0
  1
 標準色
 41
0.8
100
AcDbText
  0
TEXT
  5
13778
330
A
100
AcDbEntity
  8
LEVEL001
 62
     8
100
AcDbText
 10
1268.8000000001
 20
684.1666666666997
 30
0.0
 40
8.0
  1
　笠木(ＧＳＫ６Ｇ)･･･特殊樹脂(耐候性樹脂)　　　　　　
 41
0.8
100
AcDbText
  0
TEXT
  5
13779
330
A
100
AcDbEntity
  8
LEVEL001
 62
     8
100
AcDbText
 10
1268.8000000001
 20
673.5
 30
0.0
 40
8.0
  1
　笠木受(ＳＫ６Ａ)･･･アルミ
 41
0.8
100
AcDbText
  0
TEXT
  5
1377A
330
A
100
AcDbEntity
  8
LEVEL001
 62
     8
100
AcDbText
 10
1268.8000000001
 20
662.8333333333003
 30
0.0
 40
8.0
  1
　エンドキャップ(ＢＣ４３)･･･ＡＳＡ
 41
0.8
100
AcDbText
  0
TEXT
  5
1377B
330
A
100
AcDbEntity
  8
LEVEL001
 62
     8
100
AcDbText
 10
1268.8000000001
 20
641.5
 30
0.0
 40
8.0
  1
仕上：標準３色
 41
0.8
100
AcDbText
  0
TEXT
  5
1377C
330
A
100
AcDbEntity
  8
LEVEL001
 62
     8
100
AcDbText
 10
1268.8000000001
 20
630.8333333333003
 30
0.0
 40
8.0
  1
　　　Ｐ０３－グレイ　　　　（鼠）
 41
0.8
100
AcDbText
  0
TEXT
  5
1377D
330
A
100
AcDbEntity
  8
LEVEL001
 62
     8
100
AcDbText
 10
1268.8000000001
 20
620.1666666666997
 30
0.0
 40
8.0
  1
　　　Ｐ０６－アイボリー　　（白茶）
 41
0.8
100
AcDbText
  0
TEXT
  5
1377E
330
A
100
AcDbEntity
  8
LEVEL001
 62
     8
100
AcDbText
 10
1268.8000000001
 20
609.4999999999999
 30
0.0
 40
8.0
  1
　　　Ｐ１１－チョコレート　（濃茶）
 41
0.8
100
AcDbText
  0
TEXT
  5
1377F
330
A
100
AcDbEntity
  8
LEVEL001
 62
     8
100
AcDbText
 10
1268.8000000001
 20
598.8333333333002
 30
0.0
 40
8.0
  1
　　　木目調(３色)
 41
0.8
100
AcDbText
  0
TEXT
  5
13780
330
A
100
AcDbEntity
  8
LEVEL001
 62
     8
100
AcDbText
 10
1268.8000000001
 20
588.1666666666997
 30
0.0
 40
8.0
  1
　　　Ｍ６６－ミディアムオーク
 41
0.8
100
AcDbText
  0
TEXT
  5
13781
330
A
100
AcDbEntity
  8
LEVEL001
 62
     8
100
AcDbText
 10
1268.8000000001
 20
577.5
 30
0.0
 40
8.0
  1
　　　Ｍ６４－ライトオーク(受注生産)
 41
0.8
100
AcDbText
  0
TEXT
  5
13782
330
A
100
AcDbEntity
  8
LEVEL001
 62
     8
100
AcDbText
 10
1268.8000000001
 20
566.8333333333002
 30
0.0
 40
8.0
  1
　　　Ｍ６２－パーチオーク(受注生産)　
 41
0.8
100
AcDbText
  0
LINE
  5
13783
330
A
100
AcDbEntity
  8
LEVEL001
  6
Continuous
 62
     1
100
AcDbLine
 10
343.0079745823896
 20
944.0961714260001
 30
0.0
 11
343.3079745823897
 21
944.3961714260003
 31
0.0
  0
LINE
  5
13784
330
A
100
AcDbEntity
  8
LEVEL001
  6
Continuous
 62
     1
100
AcDbLine
 10
333.3079745824598
 20
954.3961714260003
 30
0.0
 11
333.60797458246
 21
954.0961714260001
 31
0.0
  0
LINE
  5
13785
330
A
100
AcDbEntity
  8
LEVEL001
  6
Continuous
 62
     1
100
AcDbLine
 10
333.3079745824598
 20
953.7961714258999
 30
0.0
 11
333.60797458246
 21
954.0961714259001
 31
0.0
  0
LWPOLYLINE
  5
13786
330
A
100
AcDbEntity
  8
LEVEL001
  6
Continuous
 62
     1
100
AcDbPolyline
 90
        3
 70
     0
 43
0.0
 10
333.3079745824598
 20
954.3961714260003
 10
333.3079745824598
 20
959.0961714260002
 10
328.47320416397
 20
959.0961714260002
  0
LWPOLYLINE
  5
13787
330
A
100
AcDbEntity
  8
LEVEL001
  6
Continuous
 62
     1
100
AcDbPolyline
 90
        3
 70
     0
 43
0.0
 10
328.47320416397
 20
949.0961714260002
 10
333.3079745824598
 20
949.0961714260002
 10
333.3079745824598
 20
953.7961714258999
  0
LINE
  5
13788
330
A
100
AcDbEntity
  8
LEVEL001
  6
Continuous
 62
     1
100
AcDbLine
 10
333.3079745824598
 20
954.0961714260001
 30
0.0
 11
333.3079745824598
 21
954.0962000901
 31
0.0
  0
ARC
  5
13789
330
A
100
AcDbEntity
  8
LEVEL001
  6
Continuous
 62
     1
100
AcDbCircle
 10
338.2079745813499
 20
960.5961714260002
 30
0.0
 40
0.5
100
AcDbArc
 50
0.0
 51
89.99999987243421
  0
LWPOLYLINE
  5
1378A
330
A
100
AcDbEntity
  8
LEVEL001
  6
Continuous
 62
     1
100
AcDbPolyline
 90
        5
 70
     0
 43
0.0
 10
338.2079745824603
 20
951.0961714260002
 10
335.8079745824598
 20
951.0961714260002
 10
335.8079745824598
 20
959.5961714260001
 10
338.7079745824603
 20
959.5961714260001
 10
338.7079745824603
 20
960.5961714260002
  0
ARC
  5
1378B
330
A
100
AcDbEntity
  8
LEVEL001
  6
Continuous
 62
     1
100
AcDbCircle
 10
338.2079745850797
 20
950.5961714260001
 30
0.0
 40
0.5
100
AcDbArc
 50
0.0
 51
90.00000029937314
  0
LINE
  5
1378C
330
A
100
AcDbEntity
  8
LEVEL001
  6
Continuous
 62
     1
100
AcDbLine
 10
343.3079745824598
 20
946.5961714260002
 30
0.0
 11
336.3079745824598
 21
946.5961714260002
 31
0.0
  0
LWPOLYLINE
  5
1378D
330
A
100
AcDbEntity
  8
LEVEL001
  6
Continuous
 62
     1
100
AcDbPolyline
 90
        4
 70
     0
 43
0.0
 10
335.8079745824598
 20
947.0961714260001
 10
335.8079745824598
 20
949.0961714260002
 10
338.7079745824603
 20
949.0961714260002
 10
338.7079745824603
 20
950.5961714260001
  0
ARC
  5
1378E
330
A
100
AcDbEntity
  8
LEVEL001
  6
Continuous
 62
     1
100
AcDbCircle
 10
336.3079745824598
 20
947.0961714292998
 30
0.0
 40
0.5
100
AcDbArc
 50
180.0000003835311
 51
270.0
  0
ELLIPSE
  5
1378F
330
A
100
AcDbEntity
  8
LEVEL001
  6
Continuous
 62
     1
100
AcDbEllipse
 10
343.3079745824598
 20
954.0961714260001
 30
0.0
 11
-16.25
 21
0.0
 31
0.0
210
0.0
220
0.0
230
1.0
 40
0.75384615384615
 41
0.42044119682986
 42
1.190627849474999
  0
LWPOLYLINE
  5
13790
330
A
100
AcDbEntity
  8
LEVEL001
  6
Continuous
 62
     1
100
AcDbPolyline
 90
        3
 70
     0
 43
0.0
 10
337.2779745824601
 20
942.7207953247998
 10
337.2779745824601
 20
944.0961714260001
 10
343.0079745823896
 20
944.0961714260001
  0
ARC
  5
13791
330
A
100
AcDbEntity
  8
LEVEL001
  6
Continuous
 62
     1
100
AcDbCircle
 10
335.3079745824598
 20
964.1477337491997
 30
0.0
 40
0.5
100
AcDbArc
 50
0.0
 51
113.9724679872036
  0
LWPOLYLINE
  5
13792
330
A
100
AcDbEntity
  8
LEVEL001
  6
Continuous
 62
     1
100
AcDbPolyline
 90
        3
 70
     0
 43
0.0
 10
338.2079745824603
 20
961.0961714260001
 10
335.8079745824598
 20
961.0961714260001
 10
335.8079745824598
 20
964.1477337461001
  0
ARC
  5
13793
330
A
100
AcDbEntity
  8
LEVEL001
  6
Continuous
 62
     1
100
AcDbCircle
 10
343.3079745825998
 20
946.1561773931999
 30
0.0
 40
20.19
100
AcDbArc
 50
113.9724678393257
 51
124.7277997572671
  0
ELLIPSE
  5
13794
330
A
100
AcDbEntity
  8
LEVEL001
  6
Continuous
 62
     1
100
AcDbEllipse
 10
343.3079745824598
 20
954.0961714260001
 30
0.0
 11
-16.25
 21
0.0
 31
0.0
210
0.0
220
0.0
230
1.0
 40
0.75384615384615
 41
-0.7844124393704201
 42
-0.42044119682986
  0
LINE
  5
13795
330
A
100
AcDbEntity
  8
LEVEL001
  6
Continuous
 62
     1
100
AcDbLine
 10
353.3079745824598
 20
954.3961714260003
 30
0.0
 11
353.0079745824596
 21
954.0961714260001
 31
0.0
  0
LINE
  5
13796
330
A
100
AcDbEntity
  8
LEVEL001
  6
Continuous
 62
     1
100
AcDbLine
 10
353.3079745824598
 20
953.7961714258999
 30
0.0
 11
353.0079745824596
 21
954.0961714259001
 31
0.0
  0
LWPOLYLINE
  5
13797
330
A
100
AcDbEntity
  8
LEVEL001
  6
Continuous
 62
     1
100
AcDbPolyline
 90
        3
 70
     0
 43
0.0
 10
353.3079745824598
 20
954.3961714260003
 10
353.3079745824598
 20
959.0961714260002
 10
358.1427450009596
 20
959.0961714260002
  0
LWPOLYLINE
  5
13798
330
A
100
AcDbEntity
  8
LEVEL001
  6
Continuous
 62
     1
100
AcDbPolyline
 90
        3
 70
     0
 43
0.0
 10
358.1427450009596
 20
949.0961714260002
 10
353.3079745824598
 20
949.0961714260002
 10
353.3079745824598
 20
953.7961714258999
  0
LINE
  5
13799
330
A
100
AcDbEntity
  8
LEVEL001
  6
Continuous
 62
     1
100
AcDbLine
 10
353.3079745824598
 20
954.0961714260001
 30
0.0
 11
353.3079745824598
 21
954.0962000901
 31
0.0
  0
ARC
  5
1379A
330
A
100
AcDbEntity
  8
LEVEL001
  6
Continuous
 62
     1
100
AcDbCircle
 10
348.4079745837298
 20
960.5961714260002
 30
0.0
 40
0.5
100
AcDbArc
 50
90.00000014481425
 51
180.0
  0
LWPOLYLINE
  5
1379B
330
A
100
AcDbEntity
  8
LEVEL001
  6
Continuous
 62
     1
100
AcDbPolyline
 90
        5
 70
     0
 43
0.0
 10
348.4079745824602
 20
951.0961714260002
 10
350.8079745824598
 20
951.0961714260002
 10
350.8079745824598
 20
959.5961714260001
 10
347.9079745824602
 20
959.5961714260001
 10
347.9079745824602
 20
960.5961714260002
  0
ARC
  5
1379C
330
A
100
AcDbEntity
  8
LEVEL001
  6
Continuous
 62
     1
100
AcDbCircle
 10
348.40797458
 20
950.5961714260001
 30
0.0
 40
0.5
100
AcDbArc
 50
89.99999971787534
 51
180.0
  0
LINE
  5
1379D
330
A
100
AcDbEntity
  8
LEVEL001
  6
Continuous
 62
     1
100
AcDbLine
 10
343.3079745824598
 20
946.5961714260002
 30
0.0
 11
350.3079745824598
 21
946.5961714260002
 31
0.0
  0
LWPOLYLINE
  5
1379E
330
A
100
AcDbEntity
  8
LEVEL001
  6
Continuous
 62
     1
100
AcDbPolyline
 90
        4
 70
     0
 43
0.0
 10
350.8079745824598
 20
947.0961714260001
 10
350.8079745824598
 20
949.0961714260002
 10
347.9079745824602
 20
949.0961714260002
 10
347.9079745824602
 20
950.5961714260001
  0
ARC
  5
1379F
330
A
100
AcDbEntity
  8
LEVEL001
  6
Continuous
 62
     1
100
AcDbCircle
 10
350.3079745824598
 20
947.0961714257001
 30
0.0
 40
0.5
100
AcDbArc
 50
270.0
 51
0.0000000258466631
  0
ELLIPSE
  5
137A0
330
A
100
AcDbEntity
  8
LEVEL001
  6
Continuous
 62
     1
100
AcDbEllipse
 10
343.3079745824598
 20
954.0961714260001
 30
0.0
 11
16.25
 21
0.0
 31
0.0
210
0.0
220
0.0
230
1.0
 40
0.75384615384615
 41
-1.190627849474999
 42
-0.42044119682986
  0
LWPOLYLINE
  5
137A1
330
A
100
AcDbEntity
  8
LEVEL001
  6
Continuous
 62
     1
100
AcDbPolyline
 90
        3
 70
     0
 43
0.0
 10
349.3379745824605
 20
942.7207953247998
 10
349.3379745824605
 20
944.0961714260001
 10
343.60797458254
 20
944.0961714260001
  0
ARC
  5
137A2
330
A
100
AcDbEntity
  8
LEVEL001
  6
Continuous
 62
     1
100
AcDbCircle
 10
351.3079745824598
 20
964.1477337502001
 30
0.0
 40
0.5
100
AcDbArc
 50
66.02753196780709
 51
180.0000004757662
  0
LWPOLYLINE
  5
137A3
330
A
100
AcDbEntity
  8
LEVEL001
  6
Continuous
 62
     1
100
AcDbPolyline
 90
        3
 70
     0
 43
0.0
 10
348.4079745824602
 20
961.0961714260001
 10
350.8079745824598
 20
961.0961714260001
 10
350.8079745824598
 20
964.1477337461001
  0
ARC
  5
137A4
330
A
100
AcDbEntity
  8
LEVEL001
  6
Continuous
 62
     1
100
AcDbCircle
 10
343.3079745823298
 20
946.1561773931999
 30
0.0
 40
20.19
100
AcDbArc
 50
55.27220024279055
 51
66.02753216073245
  0
ELLIPSE
  5
137A5
330
A
100
AcDbEntity
  8
LEVEL001
  6
Continuous
 62
     1
100
AcDbEllipse
 10
343.3079745824598
 20
954.0961714260001
 30
0.0
 11
16.25
 21
0.0
 31
0.0
210
0.0
220
0.0
230
1.0
 40
0.75384615384615
 41
0.42044119682986
 42
0.7844124393704201
  0
LINE
  5
137A6
330
A
100
AcDbEntity
  8
LEVEL001
  6
Continuous
 62
     1
100
AcDbLine
 10
343.6069322092298
 20
944.0977686799996
 30
0.0
 11
343.30533645366
 21
944.3961643907996
 31
0.0
  0
LINE
  5
137A7
330
A
100
AcDbEntity
  8
LEVEL001
  6
Continuous
 62
     1
100
AcDbLine
 10
347.9079745824602
 20
960.5961714257
 30
0.0
 11
347.9079745824602
 21
959.5961714257001
 31
0.0
  0
ARC
  5
137A8
330
A
100
AcDbEntity
  8
LEVEL001
  6
Continuous
 62
     1
100
AcDbCircle
 10
343.3079745826499
 20
962.0361714256997
 30
0.0
 40
20.19
100
AcDbArc
 50
269.9999999996874
 51
306.9693850884427
  0
ARC
  5
137A9
330
A
100
AcDbEntity
  8
LEVEL001
  6
Continuous
 62
     1
100
AcDbCircle
 10
343.3079745825198
 20
962.0361714256997
 30
0.0
 40
24.19
100
AcDbArc
 50
270.0000000000521
 51
306.9503377459771
  0
ARC
  5
137AA
330
A
100
AcDbEntity
  8
LEVEL001
  6
Continuous
 62
     1
100
AcDbCircle
 10
349.3379745825095
 20
954.0961714257001
 30
0.0
 40
10.22
100
AcDbArc
 50
306.7300642089239
 51
0.0
  0
ARC
  5
137AB
330
A
100
AcDbEntity
  8
LEVEL001
  6
Continuous
 62
     1
100
AcDbCircle
 10
349.3379745824805
 20
954.0961714257001
 30
0.0
 40
14.22
100
AcDbArc
 50
306.7649818781117
 51
0.0
  0
ARC
  5
137AC
330
A
100
AcDbEntity
  8
LEVEL001
  6
Continuous
 62
     1
100
AcDbCircle
 10
349.3379745826096
 20
954.0961714257001
 30
0.0
 40
10.22
100
AcDbArc
 50
0.0
 51
53.26993579172748
  0
ARC
  5
137AD
330
A
100
AcDbEntity
  8
LEVEL001
  6
Continuous
 62
     1
100
AcDbCircle
 10
349.3379745825496
 20
954.0961714257001
 30
0.0
 40
14.22
100
AcDbArc
 50
0.0
 51
53.23501812240936
  0
ARC
  5
137AE
330
A
100
AcDbEntity
  8
LEVEL001
  6
Continuous
 62
     1
100
AcDbCircle
 10
343.3079745824898
 20
946.1561714257996
 30
0.0
 40
24.19
100
AcDbArc
 50
53.04966225396561
 51
68.54695823872877
  0
ARC
  5
137AF
330
A
100
AcDbEntity
  8
LEVEL001
  6
Continuous
 62
     1
100
AcDbCircle
 10
343.3079745823298
 20
946.1561714257996
 30
0.0
 40
20.19
100
AcDbArc
 50
53.03061491064535
 51
66.02753216045202
  0
ARC
  5
137B0
330
A
100
AcDbEntity
  8
LEVEL001
  6
Continuous
 62
     1
100
AcDbCircle
 10
351.0579745824298
 20
965.8780780273
 30
0.0
 40
3.0
100
AcDbArc
 50
68.54695823659989
 51
181.8912948223004
  0
LWPOLYLINE
  5
137B1
330
A
100
AcDbEntity
  8
LEVEL001
  6
Continuous
 62
     1
100
AcDbPolyline
 90
        3
 70
     0
 43
0.0
 10
350.8079745825498
 20
962.0961714257001
 10
348.0579745825498
 20
962.0961714257001
 10
348.0579745825498
 20
965.8780780273
  0
ARC
  5
137B2
330
A
100
AcDbEntity
  8
LEVEL001
  6
Continuous
 62
     1
100
AcDbCircle
 10
343.3079745825598
 20
962.0361714256997
 30
0.0
 40
20.19
100
AcDbArc
 50
233.0306149112967
 51
269.9999999999479
  0
ARC
  5
137B3
330
A
100
AcDbEntity
  8
LEVEL001
  6
Continuous
 62
     1
100
AcDbCircle
 10
343.3079745824598
 20
962.0361714257997
 30
0.0
 40
24.19
100
AcDbArc
 50
233.0496622542261
 51
270.0000000002084
  0
ARC
  5
137B4
330
A
100
AcDbEntity
  8
LEVEL001
  6
Continuous
 62
     1
100
AcDbCircle
 10
337.1079745827801
 20
943.0319587348003
 30
0.0
 40
0.2
100
AcDbArc
 50
251.9314235010948
 51
0.0000000216257363
  0
ARC
  5
137B5
330
A
100
AcDbEntity
  8
LEVEL001
  6
Continuous
 62
     1
100
AcDbCircle
 10
337.2779745825101
 20
954.0961714258001
 30
0.0
 40
10.22
100
AcDbArc
 50
180.0000000001563
 51
233.2699357915972
  0
ARC
  5
137B6
330
A
100
AcDbEntity
  8
LEVEL001
  6
Continuous
 62
     1
100
AcDbCircle
 10
337.2779745825501
 20
954.0961714257001
 30
0.0
 40
14.22
100
AcDbArc
 50
180.0000000000781
 51
233.2350181221488
  0
ARC
  5
137B7
330
A
100
AcDbEntity
  8
LEVEL001
  6
Continuous
 62
     1
100
AcDbCircle
 10
337.27797458241
 20
954.0961714255999
 30
0.0
 40
10.22
100
AcDbArc
 50
126.7300642076941
 51
179.9999999994007
  0
ARC
  5
137B8
330
A
100
AcDbEntity
  8
LEVEL001
  6
Continuous
 62
     1
100
AcDbCircle
 10
337.2779745826301
 20
954.0961714258001
 30
0.0
 40
14.22
100
AcDbArc
 50
126.7649818781847
 51
180.0000000002605
  0
ARC
  5
137B9
330
A
100
AcDbEntity
  8
LEVEL001
  6
Continuous
 62
     1
100
AcDbCircle
 10
335.55797458278
 20
965.8780780274
 30
0.0
 40
3.0
100
AcDbArc
 50
358.1087051766823
 51
111.4530417659741
  0
LWPOLYLINE
  5
137BA
330
A
100
AcDbEntity
  8
LEVEL001
  6
Continuous
 62
     1
100
AcDbPolyline
 90
        3
 70
     0
 43
0.0
 10
335.8079745825498
 20
962.0961714257001
 10
338.5579745825499
 20
962.0961714257001
 10
338.5579745825499
 20
965.8780780273
  0
ARC
  5
137BB
330
A
100
AcDbEntity
  8
LEVEL001
  6
Continuous
 62
     1
100
AcDbCircle
 10
343.3079745826399
 20
946.1561714257996
 30
0.0
 40
20.19
100
AcDbArc
 50
113.9724678391511
 51
126.9693850889638
  0
LINE
  5
137BC
330
A
100
AcDbEntity
  8
LEVEL001
  6
Continuous
 62
     1
100
AcDbLine
 10
338.7079745824603
 20
959.5961714257001
 30
0.0
 11
338.7079745824603
 21
960.5961714257
 31
0.0
  0
ARC
  5
137BD
330
A
100
AcDbEntity
  8
LEVEL001
  6
Continuous
 62
     1
100
AcDbCircle
 10
343.3079745825198
 20
946.1561714257005
 30
0.0
 40
24.19
100
AcDbArc
 50
111.4530417610486
 51
126.9503377459041
  0
LWPOLYLINE
  5
13D2C
330
A
100
AcDbEntity
  8
LEVEL001
  6
Continuous
 62
     3
370
    30
100
AcDbPolyline
 90
        3
 70
     0
 43
0.0
 10
218.3079745824598
 20
240.1011473825001
 10
218.3079745824598
 20
123.5999653494
 10
243.3079745824598
 20
123.5999653494
  0
LINE
  5
13D2D
330
A
100
AcDbEntity
  8
LEVEL001
  6
Continuous
 62
     3
370
    30
100
AcDbLine
 10
218.3079745824598
 20
727.2297162131999
 30
0.0
 11
218.3079745824598
 21
233.9371282696002
 31
0.0
  0
LWPOLYLINE
  5
13D2E
330
A
100
AcDbEntity
  8
LEVEL001
  6
Continuous
 62
     3
370
    30
100
AcDbPolyline
 90
        3
 70
     0
 43
0.0
 10
243.3079745824598
 20
223.2504769874999
 10
243.3079745824598
 20
123.5999653494
 10
633.1844066610202
 20
123.5999653494
  0
ARC
  5
13D2F
330
A
100
AcDbEntity
  8
LEVEL001
  6
Continuous
 62
     1
100
AcDbCircle
 10
325.5579745821797
 20
703.3060102072995
 30
0.0
 40
4.0
100
AcDbArc
 50
104.213494974104
 51
179.9999999989317
  0
LINE
  5
13D30
330
A
100
AcDbEntity
  8
LEVEL001
  6
Continuous
 62
     1
100
AcDbLine
 10
322.5579745824598
 20
678.3103076697998
 30
0.0
 11
321.5579745824598
 21
679.3103076697998
 31
0.0
  0
LINE
  5
13D31
330
A
100
AcDbEntity
  8
LEVEL001
  6
Continuous
 62
     1
100
AcDbLine
 10
365.0579745824598
 20
703.3060102073996
 30
0.0
 11
365.0579745824598
 21
679.3103076697998
 31
0.0
  0
LINE
  5
13D32
330
A
100
AcDbEntity
  8
LEVEL001
  6
Continuous
 62
     1
100
AcDbLine
 10
365.0579745824598
 20
679.3103076697998
 30
0.0
 11
364.0579745824598
 21
678.3103076697998
 31
0.0
  0
ARC
  5
13D33
330
A
100
AcDbEntity
  8
LEVEL001
  6
Continuous
 62
     1
100
AcDbCircle
 10
361.0579745824298
 20
703.3060102073996
 30
0.0
 40
4.0
100
AcDbArc
 50
0.0
 51
75.78650502110583
  0
ARC
  5
13D34
330
A
100
AcDbEntity
  8
LEVEL001
  6
Continuous
 62
     1
100
AcDbCircle
 10
343.3079745824598
 20
650.1935116782997
 30
0.0
 40
60.0
100
AcDbArc
 50
71.52056326811204
 51
108.4794367318879
  0
LINE
  5
13D35
330
A
100
AcDbEntity
  8
LEVEL001
  6
Continuous
 62
     1
100
AcDbLine
 10
364.0579745824598
 20
678.3103076697998
 30
0.0
 11
322.5579745824598
 21
678.3103076697998
 31
0.0
  0
LINE
  5
13D36
330
A
100
AcDbEntity
  8
LEVEL001
  6
Continuous
 62
     1
100
AcDbLine
 10
365.0579745824598
 20
679.3103076697998
 30
0.0
 11
321.5579745824598
 21
679.3103076697998
 31
0.0
  0
LINE
  5
13D37
330
A
100
AcDbEntity
  8
LEVEL001
  6
Continuous
 62
     1
100
AcDbLine
 10
321.5579745824598
 20
679.3103076697998
 30
0.0
 11
321.5579745824598
 21
703.3060102073996
 31
0.0
  0
LINE
  5
13D38
330
A
100
AcDbEntity
  8
LEVEL001
  6
DASHDOT
 62
     6
370
    15
100
AcDbLine
 10
395.3033685501996
 20
560.1935116782997
 30
0.0
 11
327.31258061473
 21
560.1935116782997
 31
0.0
  0
LINE
  5
13D39
330
A
100
AcDbEntity
  8
LEVEL001
  6
Continuous
 62
     7
100
AcDbLine
 10
376.2079745824603
 20
547.1935116782997
 30
0.0
 11
376.2079745824603
 21
573.1935116782997
 31
0.0
  0
ARC
  5
13D3A
330
A
100
AcDbEntity
  8
LEVEL001
  6
Continuous
 62
     7
100
AcDbCircle
 10
374.2079745833198
 20
573.1935116782997
 30
0.0
 40
2.0
100
AcDbArc
 50
0.0
 51
90.0000000245439
  0
ARC
  5
13D3B
330
A
100
AcDbEntity
  8
LEVEL001
  6
Continuous
 62
     7
100
AcDbCircle
 10
383.7079745822002
 20
573.6935116782997
 30
0.0
 40
2.5
100
AcDbArc
 50
0.0
 51
89.99999999400733
  0
LINE
  5
13D3C
330
A
100
AcDbEntity
  8
LEVEL001
  6
Continuous
 62
     7
100
AcDbLine
 10
386.2079745824603
 20
546.6935116782997
 30
0.0
 11
386.2079745824603
 21
573.6935116782997
 31
0.0
  0
ARC
  5
13D3D
330
A
100
AcDbEntity
  8
LEVEL001
  6
Continuous
 62
     7
100
AcDbCircle
 10
374.2079745824603
 20
547.1935116783997
 30
0.0
 40
2.0
100
AcDbArc
 50
270.0
 51
0.0
  0
ARC
  5
13D3E
330
A
100
AcDbEntity
  8
LEVEL001
  6
Continuous
 62
     7
100
AcDbCircle
 10
383.7079745824603
 20
546.6935116779995
 30
0.0
 40
2.5
100
AcDbArc
 50
270.0
 51
0.0
  0
LINE
  5
13D3F
330
A
100
AcDbEntity
  8
LEVEL001
  6
Continuous
 62
     7
100
AcDbLine
 10
383.7079745824603
 20
576.1935116782997
 30
0.0
 11
363.5579745823798
 21
576.1935116782997
 31
0.0
  0
LINE
  5
13D40
330
A
100
AcDbEntity
  8
LEVEL001
  6
Continuous
 62
     7
100
AcDbLine
 10
374.2079745824603
 20
575.1935116782997
 30
0.0
 11
363.5579745823798
 21
575.1935116782997
 31
0.0
  0
LINE
  5
13D41
330
A
100
AcDbEntity
  8
LEVEL001
  6
Continuous
 62
     7
100
AcDbLine
 10
363.5579745823798
 20
545.1935116782997
 30
0.0
 11
374.2079745824603
 21
545.1935116782997
 31
0.0
  0
LINE
  5
13D42
330
A
100
AcDbEntity
  8
LEVEL001
  6
Continuous
 62
     7
100
AcDbLine
 10
363.5579745823798
 20
544.1935116782997
 30
0.0
 11
383.7079745824603
 21
544.1935116782997
 31
0.0
  0
LINE
  5
13D43
330
A
100
AcDbEntity
  8
LEVEL001
  6
DASHDOT
 62
     6
370
    15
100
AcDbLine
 10
395.3033685501996
 20
412.9984265459998
 30
0.0
 11
327.31258061473
 21
412.9984265459998
 31
0.0
  0
LINE
  5
13D44
330
A
100
AcDbEntity
  8
LEVEL001
  6
Continuous
 62
     7
100
AcDbLine
 10
376.2079745824603
 20
399.9984265459998
 30
0.0
 11
376.2079745824603
 21
425.9984265459998
 31
0.0
  0
ARC
  5
13D45
330
A
100
AcDbEntity
  8
LEVEL001
  6
Continuous
 62
     7
100
AcDbCircle
 10
374.2079745825304
 20
425.9984265459998
 30
0.0
 40
2.0
100
AcDbArc
 50
0.0
 51
90.00000000187595
  0
ARC
  5
13D46
330
A
100
AcDbEntity
  8
LEVEL001
  6
Continuous
 62
     7
100
AcDbCircle
 10
383.7079745827196
 20
426.4984265459998
 30
0.0
 40
2.5
100
AcDbArc
 50
0.0
 51
90.0000000057321
  0
LINE
  5
13D47
330
A
100
AcDbEntity
  8
LEVEL001
  6
Continuous
 62
     7
100
AcDbLine
 10
386.2079745824603
 20
399.4984265459998
 30
0.0
 11
386.2079745824603
 21
426.4984265459998
 31
0.0
  0
ARC
  5
13D48
330
A
100
AcDbEntity
  8
LEVEL001
  6
Continuous
 62
     7
100
AcDbCircle
 10
374.2079745824603
 20
399.9984265459002
 30
0.0
 40
2.0
100
AcDbArc
 50
270.0
 51
0.0
  0
ARC
  5
13D49
330
A
100
AcDbEntity
  8
LEVEL001
  6
Continuous
 62
     7
100
AcDbCircle
 10
383.7079745824603
 20
399.4984265459002
 30
0.0
 40
2.5
100
AcDbArc
 50
270.0
 51
0.0
  0
LINE
  5
13D4A
330
A
100
AcDbEntity
  8
LEVEL001
  6
Continuous
 62
     7
100
AcDbLine
 10
383.7079745824603
 20
428.9984265459998
 30
0.0
 11
363.5579745823798
 21
428.9984265459998
 31
0.0
  0
LINE
  5
13D4B
330
A
100
AcDbEntity
  8
LEVEL001
  6
Continuous
 62
     7
100
AcDbLine
 10
374.2079745824603
 20
427.9984265459997
 30
0.0
 11
363.5579745823798
 21
427.9984265459997
 31
0.0
  0
LINE
  5
13D4C
330
A
100
AcDbEntity
  8
LEVEL001
  6
Continuous
 62
     7
100
AcDbLine
 10
363.5579745823798
 20
397.9984265459998
 30
0.0
 11
374.2079745824603
 21
397.9984265459998
 31
0.0
  0
LINE
  5
13D4D
330
A
100
AcDbEntity
  8
LEVEL001
  6
Continuous
 62
     7
100
AcDbLine
 10
363.5579745823798
 20
396.9984265459998
 30
0.0
 11
383.7079745824603
 21
396.9984265459998
 31
0.0
  0
ARC
  5
13D4E
330
A
100
AcDbEntity
  8
LEVEL001
  6
Continuous
 62
     1
100
AcDbCircle
 10
325.5579745824198
 20
269.8859280168999
 30
0.0
 40
4.0
100
AcDbArc
 50
180.0000000001302
 51
255.7865050221866
  0
LINE
  5
13D4F
330
A
100
AcDbEntity
  8
LEVEL001
  6
Continuous
 62
     1
100
AcDbLine
 10
322.5579745824598
 20
294.8816305545001
 30
0.0
 11
321.5579745824598
 21
293.8816305545001
 31
0.0
  0
LINE
  5
13D50
330
A
100
AcDbEntity
  8
LEVEL001
  6
Continuous
 62
     1
100
AcDbLine
 10
365.0579745824598
 20
269.8859280168999
 30
0.0
 11
365.0579745824598
 21
293.8816305545001
 31
0.0
  0
LINE
  5
13D51
330
A
100
AcDbEntity
  8
LEVEL001
  6
Continuous
 62
     1
100
AcDbLine
 10
365.0579745824598
 20
293.8816305545001
 30
0.0
 11
364.0579745824598
 21
294.8816305545001
 31
0.0
  0
ARC
  5
13D52
330
A
100
AcDbEntity
  8
LEVEL001
  6
Continuous
 62
     1
100
AcDbCircle
 10
361.0579745824098
 20
269.8859280168999
 30
0.0
 40
4.0
100
AcDbArc
 50
284.213494979109
 51
0.0
  0
ARC
  5
13D53
330
A
100
AcDbEntity
  8
LEVEL001
  6
Continuous
 62
     1
100
AcDbCircle
 10
343.3079745824598
 20
322.9984265459998
 30
0.0
 40
60.0
100
AcDbArc
 50
251.5205632681697
 51
288.479436731888
  0
LINE
  5
13D54
330
A
100
AcDbEntity
  8
LEVEL001
  6
Continuous
 62
     1
100
AcDbLine
 10
364.0579745824598
 20
294.8816305545001
 30
0.0
 11
322.5579745824598
 21
294.8816305545001
 31
0.0
  0
LINE
  5
13D55
330
A
100
AcDbEntity
  8
LEVEL001
  6
Continuous
 62
     1
100
AcDbLine
 10
365.0579745824598
 20
293.8816305545001
 30
0.0
 11
321.5579745824598
 21
293.8816305545001
 31
0.0
  0
LINE
  5
13D56
330
A
100
AcDbEntity
  8
LEVEL001
  6
Continuous
 62
     1
100
AcDbLine
 10
321.5579745824598
 20
293.8816305545001
 30
0.0
 11
321.5579745824598
 21
269.8859280168999
 31
0.0
  0
LINE
  5
13D57
330
A
100
AcDbEntity
  8
LEVEL001
  6
Continuous
 62
     1
100
AcDbLine
 10
323.0579745825398
 20
409.1935116783002
 30
0.0
 11
323.0579745825398
 21
294.8816305545001
 31
0.0
  0
LINE
  5
13D58
330
A
100
AcDbEntity
  8
LEVEL001
  6
Continuous
 62
     1
100
AcDbLine
 10
363.5579745825398
 20
430.9379386451
 30
0.0
 11
363.5579745825398
 21
294.8816305545001
 31
0.0
  0
LINE
  5
13D59
330
A
100
AcDbEntity
  8
LEVEL001
  6
DASHDOT
 62
     6
370
    15
100
AcDbLine
 10
343.3079745824598
 20
730.5561298225001
 30
0.0
 11
343.3079745824598
 21
253.6447572347001
 31
0.0
  0
ARC
  5
13D5A
330
A
100
AcDbEntity
  8
LEVEL001
  6
Continuous
 62
     1
100
AcDbCircle
 10
333.1829745824798
 20
483.8444066122001
 30
0.0
 40
12.751562499926
100
AcDbArc
 50
37.43717795706214
 51
142.5628220427917
  0
ARC
  5
13D5B
330
A
100
AcDbEntity
  8
LEVEL001
  6
Continuous
 62
     1
100
AcDbCircle
 10
353.4329745825098
 20
499.3475316121998
 30
0.0
 40
12.751562500073
100
AcDbArc
 50
217.4371779574895
 51
322.5628220424375
  0
ARC
  5
13D5C
330
A
100
AcDbEntity
  8
LEVEL001
  6
Continuous
 62
     1
100
AcDbCircle
 10
333.1829745824798
 20
473.8444066122001
 30
0.0
 40
12.751562499926
100
AcDbArc
 50
37.43717795706214
 51
142.5628220427917
  0
ARC
  5
13D5D
330
A
100
AcDbEntity
  8
LEVEL001
  6
Continuous
 62
     1
100
AcDbCircle
 10
353.4329745825098
 20
489.3475316121999
 30
0.0
 40
12.751562500073
100
AcDbArc
 50
217.4371779574895
 51
322.5628220424375
  0
LINE
  5
13D5E
330
A
100
AcDbEntity
  8
LEVEL001
  6
Continuous
 62
     1
100
AcDbLine
 10
323.0579745825398
 20
409.1935116783002
 30
0.0
 11
323.0579745825398
 21
481.5959691121001
 31
0.0
  0
LINE
  5
13D5F
330
A
100
AcDbEntity
  8
LEVEL001
  6
Continuous
 62
     1
100
AcDbLine
 10
323.0579745825398
 20
491.5959691121002
 30
0.0
 11
323.0579745825398
 21
678.3103076697998
 31
0.0
  0
LINE
  5
13D60
330
A
100
AcDbEntity
  8
LEVEL001
  6
Continuous
 62
     1
100
AcDbLine
 10
363.5579745825398
 20
430.9379386451
 30
0.0
 11
363.5579745825398
 21
481.5959691121001
 31
0.0
  0
LINE
  5
13D61
330
A
100
AcDbEntity
  8
LEVEL001
  6
Continuous
 62
     1
100
AcDbLine
 10
363.5579745825398
 20
491.5959691121002
 30
0.0
 11
363.5579745825398
 21
678.3103076697998
 31
0.0
  0
LINE
  5
13D62
330
A
100
AcDbEntity
  8
LEVEL001
  6
Continuous
 62
     3
370
    30
100
AcDbLine
 10
243.3079745824598
 20
727.2297162131999
 30
0.0
 11
243.3079745824598
 21
211.9925878068998
 31
0.0
  0
LWPOLYLINE
  5
13DF1
330
A
100
AcDbEntity
  8
LEVEL001
  6
Continuous
 62
     8
100
AcDbPolyline
 90
        5
 70
     0
 43
0.0
 10
90.65511992331357
 20
942.6705282965004
 10
90.65511992331357
 20
929.3036429786997
 10
215.7309753967802
 20
929.3036429786997
 10
215.7309753967802
 20
942.6705282965004
 10
90.65511992331357
 20
942.6705282965004
  0
TEXT
  5
13DF2
330
A
100
AcDbEntity
  8
LEVEL001
 62
     8
100
AcDbText
 10
103.69304766005
 20
931.4870856376002
 30
0.0
 40
9.0
  1
笠木(楕円型)ＧＳＫ６
 41
0.8
 11
103.69304766005
 21
935.9870856376002
 31
0.0
100
AcDbText
 73
     2
  0
LINE
  5
13DF3
330
A
100
AcDbEntity
  8
LEVEL001
  6
Continuous
 62
     6
370
    15
100
AcDbLine
 10
386.2079745824603
 20
1069.3687666849
 30
0.0
 11
329.7079745824603
 21
1069.3687666849
 31
0.0
  0
LINE
  5
13DF4
330
A
100
AcDbEntity
  8
LEVEL001
  6
Continuous
 62
     6
370
    15
100
AcDbLine
 10
386.2079745824603
 20
1013.596171426
 30
0.0
 11
386.2079745824603
 21
1073.3687666849
 31
0.0
  0
LINE
  5
13DF5
330
A
100
AcDbEntity
  8
LEVEL001
  6
Continuous
 62
     6
370
    15
100
AcDbLine
 10
329.7079745824603
 20
1013.596171426
 30
0.0
 11
329.7079745824603
 21
1073.3687666849
 31
0.0
  0
CIRCLE
  5
13DF6
330
A
100
AcDbEntity
  8
LEVEL001
  6
Continuous
 62
     6
370
    15
100
AcDbCircle
 10
386.2079745824603
 20
1069.3687666849
 30
0.0
 40
0.8
  0
CIRCLE
  5
13DF7
330
A
100
AcDbEntity
  8
LEVEL001
  6
Continuous
 62
     6
370
    15
100
AcDbCircle
 10
329.7079745824603
 20
1069.3687666849
 30
0.0
 40
0.8
  0
TEXT
  5
13DF8
330
A
100
AcDbEntity
  8
LEVEL001
 62
     6
370
    15
100
AcDbText
 10
339.4579745824604
 20
1073.3687666849
 30
0.0
 40
12.0
  1
５６.５
 41
0.8
100
AcDbText
  0
LINE
  5
13DF9
330
A
100
AcDbEntity
  8
LEVEL001
  6
Continuous
 62
     6
370
    15
100
AcDbLine
 10
295.7320917417801
 20
1009.596171426
 30
0.0
 11
295.7320917417801
 21
946.5961714260002
 31
0.0
  0
LINE
  5
13DFA
330
A
100
AcDbEntity
  8
LEVEL001
  6
Continuous
 62
     6
370
    15
100
AcDbLine
 10
325.7079745824603
 20
1009.596171426
 30
0.0
 11
291.7320917417801
 21
1009.596171426
 31
0.0
  0
LINE
  5
13DFB
330
A
100
AcDbEntity
  8
LEVEL001
  6
Continuous
 62
     6
370
    15
100
AcDbLine
 10
334.9079745824602
 20
946.5961714260002
 30
0.0
 11
291.7320917417801
 21
946.5961714260002
 31
0.0
  0
CIRCLE
  5
13DFC
330
A
100
AcDbEntity
  8
LEVEL001
  6
Continuous
 62
     6
370
    15
100
AcDbCircle
 10
295.7320917417801
 20
1009.596171426
 30
0.0
 40
0.8
  0
CIRCLE
  5
13DFD
330
A
100
AcDbEntity
  8
LEVEL001
  6
Continuous
 62
     6
370
    15
100
AcDbCircle
 10
295.7320917417801
 20
946.5961714260002
 30
0.0
 40
0.8
  0
TEXT
  5
13DFE
330
A
100
AcDbEntity
  8
LEVEL001
 62
     6
370
    15
100
AcDbText
 10
291.7320917417801
 20
967.0961714260002
 30
0.0
 40
12.0
  1
６３
 50
90.0
 41
0.8
100
AcDbText
  0
LINE
  5
13DFF
330
A
100
AcDbEntity
  8
LEVEL001
  6
Continuous
 62
     6
370
    15
100
AcDbLine
 10
266.3079745825098
 20
937.8461714256999
 30
0.0
 11
266.3079745825098
 21
1009.596171426
 31
0.0
  0
LINE
  5
13E00
330
A
100
AcDbEntity
  8
LEVEL001
  6
Continuous
 62
     6
370
    15
100
AcDbLine
 10
339.3079745823798
 20
937.8461714256999
 30
0.0
 11
262.3079745825098
 21
937.8461714256999
 31
0.0
  0
LINE
  5
13E01
330
A
100
AcDbEntity
  8
LEVEL001
  6
Continuous
 62
     6
370
    15
100
AcDbLine
 10
266.3079745825098
 20
1009.596171426
 30
0.0
 11
262.3079745825098
 21
1009.596171426
 31
0.0
  0
CIRCLE
  5
13E02
330
A
100
AcDbEntity
  8
LEVEL001
  6
Continuous
 62
     6
370
    15
100
AcDbCircle
 10
266.3079745825098
 20
937.8461714256999
 30
0.0
 40
0.8
  0
CIRCLE
  5
13E03
330
A
100
AcDbEntity
  8
LEVEL001
  6
Continuous
 62
     6
370
    15
100
AcDbCircle
 10
266.3079745825098
 20
1009.596171426
 30
0.0
 40
0.8
  0
TEXT
  5
13E04
330
A
100
AcDbEntity
  8
LEVEL001
 62
     6
370
    15
100
AcDbText
 10
262.3079745825098
 20
962.7211714258001
 30
0.0
 40
12.0
  1
７２
 50
90.0
 41
0.8
100
AcDbText
  0
LINE
  5
13E05
330
A
100
AcDbEntity
  8
LEVEL001
  6
Continuous
 62
     6
370
    15
100
AcDbLine
 10
409.7464991646302
 20
1044.949102827299
 30
0.0
 11
361.3079745824598
 21
1044.949102827299
 31
0.0
  0
LINE
  5
13E06
330
A
100
AcDbEntity
  8
LEVEL001
  6
Continuous
 62
     6
370
    15
100
AcDbLine
 10
386.2079745824603
 20
1013.596171426
 30
0.0
 11
386.2079745824603
 21
1048.949102827299
 31
0.0
  0
CIRCLE
  5
13E07
330
A
100
AcDbEntity
  8
LEVEL001
  6
Continuous
 62
     6
370
    15
100
AcDbCircle
 10
386.2079745824603
 20
1044.949102827299
 30
0.0
 40
0.8
  0
TEXT
  5
13E08
330
A
100
AcDbEntity
  8
LEVEL001
 62
     6
370
    15
100
AcDbText
 10
387.7464991646302
 20
1048.04564861
 30
0.0
 40
12.0
  1
２５
 41
0.8
100
AcDbText
  0
LINE
  5
13E09
330
A
100
AcDbEntity
  8
LEVEL001
  6
Continuous
 62
     6
370
    15
100
AcDbLine
 10
361.3079745824598
 20
1044.949102827299
 30
0.0
 11
290.4894288431897
 21
1044.949102827299
 31
0.0
  0
LINE
  5
13E0A
330
A
100
AcDbEntity
  8
LEVEL001
  6
Continuous
 62
     6
370
    15
100
AcDbLine
 10
361.3079745824598
 20
1015.7018344924
 30
0.0
 11
361.3079745824598
 21
1048.949102827299
 31
0.0
  0
LINE
  5
13E0B
330
A
100
AcDbEntity
  8
LEVEL001
  6
Continuous
 62
     6
370
    15
100
AcDbLine
 10
329.7079745824603
 20
1013.596171426
 30
0.0
 11
329.7079745824603
 21
1048.949102827299
 31
0.0
  0
CIRCLE
  5
13E0C
330
A
100
AcDbEntity
  8
LEVEL001
  6
Continuous
 62
     6
370
    15
100
AcDbCircle
 10
361.3079745824598
 20
1044.949102827299
 30
0.0
 40
0.8
  0
CIRCLE
  5
13E0D
330
A
100
AcDbEntity
  8
LEVEL001
  6
Continuous
 62
     6
370
    15
100
AcDbCircle
 10
329.7079745824603
 20
1044.949102827299
 30
0.0
 40
0.8
  0
TEXT
  5
13E0E
330
A
100
AcDbEntity
  8
LEVEL001
 62
     6
370
    15
100
AcDbText
 10
290.4894288431897
 20
1048.4699941757
 30
0.0
 40
12.0
  1
３１.５
 41
0.8
100
AcDbText
  0
LINE
  5
13E0F
330
A
100
AcDbEntity
  8
LEVEL001
  6
Continuous
 62
     6
370
    15
100
AcDbLine
 10
323.0579745825498
 20
908.9014331509998
 30
0.0
 11
363.5579745825499
 21
908.9014331509998
 31
0.0
  0
LINE
  5
13E10
330
A
100
AcDbEntity
  8
LEVEL001
  6
Continuous
 62
     6
370
    15
100
AcDbLine
 10
323.0579745825498
 20
950.0961714257
 30
0.0
 11
323.0579745825498
 21
904.9014331509997
 31
0.0
  0
LINE
  5
13E11
330
A
100
AcDbEntity
  8
LEVEL001
  6
Continuous
 62
     6
370
    15
100
AcDbLine
 10
363.5579745825499
 20
950.0961714259002
 30
0.0
 11
363.5579745825499
 21
904.9014331509997
 31
0.0
  0
CIRCLE
  5
13E12
330
A
100
AcDbEntity
  8
LEVEL001
  6
Continuous
 62
     6
370
    15
100
AcDbCircle
 10
323.0579745825498
 20
908.9014331509998
 30
0.0
 40
0.8
  0
CIRCLE
  5
13E13
330
A
100
AcDbEntity
  8
LEVEL001
  6
Continuous
 62
     6
370
    15
100
AcDbCircle
 10
363.5579745825499
 20
908.9014331509998
 30
0.0
 40
0.8
  0
TEXT
  5
13E14
330
A
100
AcDbEntity
  8
LEVEL001
 62
     6
370
    15
100
AcDbText
 10
334.3079745825499
 20
910.9014331509998
 30
0.0
 40
10.0
  1
４０
 41
0.8
100
AcDbText
  0
LWPOLYLINE
  5
14030
330
A
100
AcDbEntity
  8
LEVEL001
  6
Continuous
 62
     6
370
    15
100
AcDbPolyline
 90
        3
 70
     0
 43
0.0
 10
355.5924973966503
 20
697.4573153203
 10
377.5523804187196
 20
728.0101960465999
 10
449.5523804187196
 20
728.0101960465999
  0
CIRCLE
  5
14031
330
A
100
AcDbEntity
  8
LEVEL001
  6
Continuous
 62
     6
370
    15
100
AcDbCircle
 10
355.5924973966503
 20
697.4573153203
 30
0.0
 40
0.8
  0
TEXT
  5
14032
330
A
100
AcDbEntity
  8
LEVEL001
 62
     6
370
    15
100
AcDbText
 10
377.5523804187196
 20
730.0101960465999
 30
0.0
 40
12.0
  1
エンドキャップ
 41
0.8
100
AcDbText
  0
LINE
  5
14033
330
A
100
AcDbEntity
  8
LEVEL001
  6
Continuous
 62
     6
370
    15
100
AcDbLine
 10
263.7470447313799
 20
262.9984265459998
 30
0.0
 11
263.7470447313799
 21
412.9984265459998
 31
0.0
  0
LINE
  5
14034
330
A
100
AcDbEntity
  8
LEVEL001
  6
Continuous
 62
     6
370
    15
100
AcDbLine
 10
339.3079745824598
 20
262.9984265459998
 30
0.0
 11
259.7470447313799
 21
262.9984265459998
 31
0.0
  0
CIRCLE
  5
14035
330
A
100
AcDbEntity
  8
LEVEL001
  6
Continuous
 62
     6
370
    15
100
AcDbCircle
 10
263.7470447313799
 20
262.9984265459998
 30
0.0
 40
0.8
  0
TEXT
  5
14036
330
A
100
AcDbEntity
  8
LEVEL001
 62
     6
370
    15
100
AcDbText
 10
259.7470447313799
 20
321.9984265459998
 30
0.0
 40
12.0
  1
１５０
 50
90.0
 41
0.8
100
AcDbText
  0
LINE
  5
14037
330
A
100
AcDbEntity
  8
LEVEL001
  6
Continuous
 62
     6
370
    15
100
AcDbLine
 10
263.7470447313799
 20
412.9984265459998
 30
0.0
 11
263.7470447313799
 21
560.1935116782997
 31
0.0
  0
LINE
  5
14038
330
A
100
AcDbEntity
  8
LEVEL001
  6
Continuous
 62
     6
370
    15
100
AcDbLine
 10
323.31258061473
 20
412.9984265459998
 30
0.0
 11
259.7470447313799
 21
412.9984265459998
 31
0.0
  0
CIRCLE
  5
14039
330
A
100
AcDbEntity
  8
LEVEL001
  6
Continuous
 62
     6
370
    15
100
AcDbCircle
 10
263.7470447313799
 20
412.9984265459998
 30
0.0
 40
0.8
  0
TEXT
  5
1403A
330
A
100
AcDbEntity
  8
LEVEL001
 62
     6
370
    15
100
AcDbText
 10
259.7470447313799
 20
460.5959691121001
 30
0.0
 40
12.0
  1
＠≦５００
 50
90.0
 41
0.8
100
AcDbText
  0
LINE
  5
1403B
330
A
100
AcDbEntity
  8
LEVEL001
  6
Continuous
 62
     6
370
    15
100
AcDbLine
 10
263.7470447313799
 20
560.1935116782997
 30
0.0
 11
263.7470447313799
 21
710.1935116782997
 31
0.0
  0
LINE
  5
1403C
330
A
100
AcDbEntity
  8
LEVEL001
  6
Continuous
 62
     6
370
    15
100
AcDbLine
 10
321.31258061473
 20
560.1935116782997
 30
0.0
 11
259.7470447313799
 21
560.1935116782997
 31
0.0
  0
LINE
  5
1403D
330
A
100
AcDbEntity
  8
LEVEL001
  6
Continuous
 62
     6
370
    15
100
AcDbLine
 10
302.3079745825098
 20
710.1935116782997
 30
0.0
 11
259.7470447313799
 21
710.1935116782997
 31
0.0
  0
CIRCLE
  5
1403E
330
A
100
AcDbEntity
  8
LEVEL001
  6
Continuous
 62
     6
370
    15
100
AcDbCircle
 10
263.7470447313799
 20
560.1935116782997
 30
0.0
 40
0.8
  0
CIRCLE
  5
1403F
330
A
100
AcDbEntity
  8
LEVEL001
  6
Continuous
 62
     6
370
    15
100
AcDbCircle
 10
263.7470447313799
 20
710.1935116782997
 30
0.0
 40
0.8
  0
TEXT
  5
14040
330
A
100
AcDbEntity
  8
LEVEL001
 62
     6
370
    15
100
AcDbText
 10
259.7470447313799
 20
619.1935116782997
 30
0.0
 40
12.0
  1
１５０
 50
90.0
 41
0.8
100
AcDbText
  0
LINE
  5
14041
330
A
100
AcDbEntity
  8
LEVEL001
  6
Continuous
 62
     6
370
    15
100
AcDbLine
 10
414.0485025533898
 20
576.1935116782997
 30
0.0
 11
414.0485025533898
 21
544.1935116782997
 31
0.0
  0
LINE
  5
14042
330
A
100
AcDbEntity
  8
LEVEL001
  6
Continuous
 62
     6
370
    15
100
AcDbLine
 10
387.7079745824604
 20
576.1935116782997
 30
0.0
 11
418.0485025533898
 21
576.1935116782997
 31
0.0
  0
LINE
  5
14043
330
A
100
AcDbEntity
  8
LEVEL001
  6
Continuous
 62
     6
370
    15
100
AcDbLine
 10
387.7079745824604
 20
544.1935116782997
 30
0.0
 11
418.0485025533898
 21
544.1935116782997
 31
0.0
  0
CIRCLE
  5
14044
330
A
100
AcDbEntity
  8
LEVEL001
  6
Continuous
 62
     6
370
    15
100
AcDbCircle
 10
414.0485025533898
 20
576.1935116782997
 30
0.0
 40
0.8
  0
CIRCLE
  5
14045
330
A
100
AcDbEntity
  8
LEVEL001
  6
Continuous
 62
     6
370
    15
100
AcDbCircle
 10
414.0485025533898
 20
544.1935116782997
 30
0.0
 40
0.8
  0
TEXT
  5
14046
330
A
100
AcDbEntity
  8
LEVEL001
 62
     6
370
    15
100
AcDbText
 10
410.0485025533898
 20
549.1935116782997
 30
0.0
 40
12.0
  1
３２
 50
90.0
 41
0.8
100
AcDbText
  0
LINE
  5
1406A
330
A
100
AcDbEntity
  8
LEVEL001
  6
HIDDEN
 62
     2
 48
0.5
370
    15
100
AcDbLine
 10
364.6079745824609
 20
990.0961714260002
 30
0.0
 11
358.2079745824612
 21
990.0961714260002
 31
0.0
  0
LINE
  5
1406B
330
A
100
AcDbEntity
  8
LEVEL001
  6
HIDDEN
 62
     2
 48
0.5
370
    15
100
AcDbLine
 10
357.4079745824601
 20
990.8961714260012
 30
0.0
 11
365.407974582462
 21
990.8961714260012
 31
0.0
  0
LINE
  5
1406C
330
A
100
AcDbEntity
  8
LEVEL001
  6
HIDDEN
 62
     2
 48
0.5
370
    15
100
AcDbLine
 10
358.2079745824612
 20
990.0961714260002
 30
0.0
 11
358.2079745824612
 21
993.5961714260001
 31
0.0
  0
LINE
  5
1406D
330
A
100
AcDbEntity
  8
LEVEL001
  6
HIDDEN
 62
     2
 48
0.5
370
    15
100
AcDbLine
 10
357.4079745824601
 20
990.8961714260012
 30
0.0
 11
357.4079745824601
 21
993.5961714260001
 31
0.0
  0
LINE
  5
1406E
330
A
100
AcDbEntity
  8
LEVEL001
  6
HIDDEN
 62
     2
 48
0.5
370
    15
100
AcDbLine
 10
358.2079745824612
 20
990.0961714260002
 30
0.0
 11
357.4079745824601
 21
990.8961714260012
 31
0.0
  0
LINE
  5
1406F
330
A
100
AcDbEntity
  8
LEVEL001
  6
HIDDEN
 62
     2
 48
0.5
370
    15
100
AcDbLine
 10
365.4079745824601
 20
993.5961714260001
 30
0.0
 11
365.4079745824601
 21
990.8961714260012
 31
0.0
  0
LINE
  5
14070
330
A
100
AcDbEntity
  8
LEVEL001
  6
HIDDEN
 62
     2
 48
0.5
370
    15
100
AcDbLine
 10
364.6079745824609
 20
993.5961714260001
 30
0.0
 11
364.6079745824609
 21
990.0961714260002
 31
0.0
  0
LINE
  5
14071
330
A
100
AcDbEntity
  8
LEVEL001
  6
HIDDEN
 62
     2
 48
0.5
370
    15
100
AcDbLine
 10
365.4079745824601
 20
990.8961714260012
 30
0.0
 11
364.6079745824609
 21
990.0961714260002
 31
0.0
  0
TEXT
  5
143A5
330
A
100
AcDbEntity
  8
LEVEL001
 62
     8
100
AcDbText
 10
1532.2400000001
 20
190.666666666671
 30
0.0
 40
8.0
  1
平成３０年　７月１９日
 41
0.8
 72
     1
 11
1573.2000000001
 21
194.666666666671
 31
0.0
100
AcDbText
 73
     2
  0
TEXT
  5
143A6
330
A
100
AcDbEntity
  8
LEVEL001
 62
     8
100
AcDbText
 10
1532.2400000001
 20
164.0000000000009
 30
0.0
 40
8.0
  1
平成　　年　　月　　日
 41
0.8
 72
     1
 11
1573.2000000001
 21
168.0000000000009
 31
0.0
100
AcDbText
 73
     2
  0
TEXT
  5
143A7
330
A
100
AcDbEntity
  8
LEVEL001
 62
     8
100
AcDbText
 10
1501.4000000001
 20
80.5
 30
0.0
 40
15.0
  1
ＧＳＫ６－４
 41
0.8
 72
     1
 11
1543.0000000001
 21
88.0
 31
0.0
100
AcDbText
 73
     2
  0
TEXT
  5
143A8
330
A
100
AcDbEntity
  8
LEVEL001
 62
     8
100
AcDbText
 10
1532.2400000001
 20
137.3333333333312
 30
0.0
 40
8.0
  1
平成　　年　　月　　日
 41
0.8
 72
     1
 11
1573.2000000001
 21
141.3333333333312
 31
0.0
100
AcDbText
 73
     2
  0
HATCH
  5
143A9
330
A
100
AcDbEntity
  8
LEVEL001
  6
Continuous
100
AcDbHatch
 10
0.0
 20
0.0
 30
0.0
210
0.0
220
0.0
230
1.0
  2
ANSI31
 70
     0
 71
     0
 91
        9
 92
        7
 72
     1
 73
     1
 93
        8
 10
1576.9200000003
 20
1087.339999999991
 42
0.0
 10
1559.640000000299
 20
1087.339999999991
 42
1.0
 10
1559.640000000299
 20
1052.77999999999
 42
0.0
 10
1576.9200000003
 20
1052.77999999999
 42
0.0
 10
1576.9200000003
 20
1064.299999999991
 42
0.0
 10
1559.640000000299
 20
1064.299999999991
 42
-1.0
 10
1559.640000000299
 20
1075.81999999999
 42
0.0
 10
1576.9200000003
 20
1075.81999999999
 42
0.0
 97
        0
 92
        7
 72
     0
 73
     1
 93
       22
 10
1542.3600000003
 20
1087.339999999991
 10
1473.2400000003
 20
1087.339999999991
 10
1473.2400000003
 20
1075.81999999999
 10
1484.7600000003
 20
1075.81999999999
 10
1484.7600000003
 20
1064.299999999991
 10
1467.4800000003
 20
1064.299999999991
 10
1467.4800000003
 20
1087.339999999991
 10
1455.9600000003
 20
1087.339999999991
 10
1455.9600000003
 20
1052.77999999999
 10
1496.2800000003
 20
1052.77999999999
 10
1496.2800000003
 20
1075.81999999999
 10
1507.8000000003
 20
1075.81999999999
 10
1507.8000000003
 20
1052.77999999999
 10
1542.3600000003
 20
1052.77999999999
 10
1542.3600000003
 20
1064.299999999991
 10
1519.3200000003
 20
1064.299999999991
 10
1519.3200000003
 20
1067.179999999991
 10
1539.480000000299
 20
1067.179999999991
 10
1539.480000000299
 20
1072.939999999991
 10
1519.3200000003
 20
1072.939999999991
 10
1519.3200000003
 20
1075.81999999999
 10
1542.3600000003
 20
1075.81999999999
 97
        0
 92
       23
 72
     0
 73
     1
 93
        3
 10
1452.1200000003
 20
1074.657341551091
 10
1437.5351056329
 20
1052.77999999999
 10
1452.1200000003
 20
1052.77999999999
 97
        0
 92
        7
 72
     0
 73
     1
 93
        4
 10
1455.9600000003
 20
1087.339999999991
 10
1438.6800000003
 20
1087.339999999991
 10
1415.640000000299
 20
1052.77999999999
 10
1432.9200000003
 20
1052.77999999999
 97
        0
 92
        7
 72
     1
 73
     1
 93
        6
 10
1409.8800000003
 20
1087.339999999991
 42
0.0
 10
1386.8400000003
 20
1087.339999999991
 42
0.0
 10
1386.8400000003
 20
1052.77999999999
 42
0.0
 10
1398.3600000003
 20
1052.77999999999
 42
0.0
 10
1398.3600000003
 20
1058.539999999991
 42
0.0
 10
1409.8800000003
 20
1058.539999999991
 42
1.0
 97
        0
 92
       22
 72
     1
 73
     1
 93
        4
 10
1409.8800000003
 20
1070.05999999999
 42
0.0
 10
1398.3600000003
 20
1070.05999999999
 42
0.0
 10
1398.3600000003
 20
1075.81999999999
 42
0.0
 10
1409.8800000003
 20
1075.81999999999
 42
-1.0
 97
        0
 92
        7
 72
     0
 73
     1
 93
        3
 10
1375.3200000003
 20
1083.499999999991
 10
1360.9200000003
 20
1083.499999999991
 10
1375.3200000003
 20
1060.459999999991
 97
        0
 92
        7
 72
     0
 73
     1
 93
        6
 10
1372.7600000003
 20
1114.219999999991
 10
1355.4800000003
 20
1114.219999999991
 10
1335.0000000003
 20
1083.499999999991
 10
1355.4800000003
 20
1052.77999999999
 10
1372.7600000003
 20
1052.77999999999
 10
1352.2800000003
 20
1083.499999999991
 97
        0
 92
        7
 72
     0
 73
     1
 93
        6
 10
1346.8400000003
 20
1114.219999999991
 10
1329.5600000003
 20
1114.219999999991
 10
1309.0800000003
 20
1083.499999999991
 10
1329.5600000003
 20
1052.77999999999
 10
1346.8400000003
 20
1052.77999999999
 10
1326.3600000003
 20
1083.499999999991
 97
        0
 75
     1
 76
     1
 52
0.0
 41
1.0
 77
     0
 78
     1
 53
45.0
 43
0.0
 44
-0.0000000000090949
 45
-0.0883883476483184
 46
0.0883883476483185
 79
     0
 47
0.3942339837251763
 98
        9
 10
1560.503682650167
 20
1083.514472919056
 10
1519.867685341247
 20
1082.726005559523
 10
1445.697116532407
 20
1057.4950306923
 10
1435.439489327917
 20
1065.773937967386
 10
1416.896828905148
 20
1068.927807405516
 10
1416.896828905148
 20
1068.927807405516
 10
1367.186775359907
 20
1079.17790244163
 10
1357.718207614576
 20
1104.803110988619
 10
1331.285061923656
 20
1108.351214106513
1001
GradientColor1ACI
1070
     5
1001
GradientColor2ACI
1070
     2
1001
ACAD
1010
0.0
1020
0.0
1030
0.0
  0
LWPOLYLINE
  5
143AA
330
A
100
AcDbEntity
  8
LEVEL001
  6
Continuous
 62
     3
100
AcDbPolyline
 90
        6
 70
     0
 43
0.0
 10
1409.8800000003
 20
1087.339999999991
 10
1386.8400000003
 20
1087.339999999991
 10
1386.8400000003
 20
1052.77999999999
 10
1398.3600000003
 20
1052.77999999999
 10
1398.3600000003
 20
1058.539999999991
 10
1409.8800000003
 20
1058.539999999991
  0
ARC
  5
143AB
330
A
100
AcDbEntity
  8
LEVEL001
  6
Continuous
 62
     3
100
AcDbCircle
 10
1409.8800000003
 20
1072.939999999991
 30
0.0
 40
14.4
100
AcDbArc
 50
270.0
 51
90.0
  0
LINE
  5
143AC
330
A
100
AcDbEntity
  8
LEVEL001
  6
Continuous
 62
     3
100
AcDbLine
 10
1398.3600000003
 20
1070.05999999999
 30
0.0
 11
1409.8800000003
 21
1070.05999999999
 31
0.0
  0
ARC
  5
143AD
330
A
100
AcDbEntity
  8
LEVEL001
  6
Continuous
 62
     3
100
AcDbCircle
 10
1409.8800000003
 20
1072.939999999991
 30
0.0
 40
2.879999999999999
100
AcDbArc
 50
270.0
 51
90.0
  0
LINE
  5
143AE
330
A
100
AcDbEntity
  8
LEVEL001
  6
Continuous
 62
     3
100
AcDbLine
 10
1409.8800000003
 20
1075.81999999999
 30
0.0
 11
1398.3600000003
 21
1075.81999999999
 31
0.0
  0
LINE
  5
143AF
330
A
100
AcDbEntity
  8
LEVEL001
  6
Continuous
 62
     3
100
AcDbLine
 10
1398.3600000003
 20
1075.81999999999
 30
0.0
 11
1398.3600000003
 21
1070.05999999999
 31
0.0
  0
LWPOLYLINE
  5
143B0
330
A
100
AcDbEntity
  8
LEVEL001
  6
Continuous
 62
     3
100
AcDbPolyline
 90
       26
 70
     0
 43
0.0
 10
1415.640000000299
 20
1052.77999999999
 10
1438.6800000003
 20
1087.339999999991
 10
1467.4800000003
 20
1087.339999999991
 10
1467.4800000003
 20
1064.299999999991
 10
1484.7600000003
 20
1064.299999999991
 10
1484.7600000003
 20
1075.81999999999
 10
1473.2400000003
 20
1075.81999999999
 10
1473.2400000003
 20
1087.339999999991
 10
1542.3600000003
 20
1087.339999999991
 10
1542.3600000003
 20
1075.81999999999
 10
1519.3200000003
 20
1075.81999999999
 10
1519.3200000003
 20
1072.939999999991
 10
1539.480000000299
 20
1072.939999999991
 10
1539.480000000299
 20
1067.179999999991
 10
1519.3200000003
 20
1067.179999999991
 10
1519.3200000003
 20
1064.299999999991
 10
1542.3600000003
 20
1064.299999999991
 10
1542.3600000003
 20
1052.77999999999
 10
1507.8000000003
 20
1052.77999999999
 10
1507.8000000003
 20
1075.81999999999
 10
1496.2800000003
 20
1075.81999999999
 10
1496.2800000003
 20
1052.77999999999
 10
1455.9600000003
 20
1052.77999999999
 10
1455.9600000003
 20
1087.339999999991
 10
1432.9200000003
 20
1052.77999999999
 10
1415.640000000299
 20
1052.77999999999
  0
LWPOLYLINE
  5
143B1
330
A
100
AcDbEntity
  8
LEVEL001
  6
Continuous
 62
     3
100
AcDbPolyline
 90
        4
 70
     0
 43
0.0
 10
1452.1200000003
 20
1074.657341551091
 10
1437.5351056329
 20
1052.77999999999
 10
1452.1200000003
 20
1052.77999999999
 10
1452.1200000003
 20
1074.657341551091
  0
ARC
  5
143B2
330
A
100
AcDbEntity
  8
LEVEL001
  6
Continuous
 62
     3
100
AcDbCircle
 10
1559.640000000299
 20
1070.05999999999
 30
0.0
 40
17.28
100
AcDbArc
 50
90.0
 51
270.0
  0
ARC
  5
143B3
330
A
100
AcDbEntity
  8
LEVEL001
  6
Continuous
 62
     3
100
AcDbCircle
 10
1559.640000000299
 20
1070.05999999999
 30
0.0
 40
5.759999999999999
100
AcDbArc
 50
90.0
 51
270.0
  0
LWPOLYLINE
  5
143B4
330
A
100
AcDbEntity
  8
LEVEL001
  6
Continuous
 62
     3
100
AcDbPolyline
 90
        4
 70
     0
 43
0.0
 10
1559.640000000299
 20
1087.339999999991
 10
1576.9200000003
 20
1087.339999999991
 10
1576.9200000003
 20
1075.81999999999
 10
1559.640000000299
 20
1075.81999999999
  0
LINE
  5
143B5
330
A
100
AcDbEntity
  8
LEVEL001
  6
Continuous
 62
     3
100
AcDbLine
 10
1386.8400000003
 20
1087.339999999991
 30
0.0
 11
1386.8400000003
 21
1052.77999999999
 31
0.0
  0
LINE
  5
143B6
330
A
100
AcDbEntity
  8
LEVEL001
  6
Continuous
 62
     3
100
AcDbLine
 10
1386.8400000003
 20
1052.77999999999
 30
0.0
 11
1398.3600000003
 21
1052.77999999999
 31
0.0
  0
LINE
  5
143B7
330
A
100
AcDbEntity
  8
LEVEL001
  6
Continuous
 62
     3
100
AcDbLine
 10
1398.3600000003
 20
1052.77999999999
 30
0.0
 11
1398.3600000003
 21
1058.539999999991
 31
0.0
  0
LINE
  5
143B8
330
A
100
AcDbEntity
  8
LEVEL001
  6
Continuous
 62
     3
100
AcDbLine
 10
1398.3600000003
 20
1058.539999999991
 30
0.0
 11
1409.8800000003
 21
1058.539999999991
 31
0.0
  0
ARC
  5
143B9
330
A
100
AcDbEntity
  8
LEVEL001
  6
Continuous
 62
     3
100
AcDbCircle
 10
1409.8800000003
 20
1072.939999999991
 30
0.0
 40
14.4
100
AcDbArc
 50
270.0
 51
90.0
  0
LINE
  5
143BA
330
A
100
AcDbEntity
  8
LEVEL001
  6
Continuous
 62
     3
100
AcDbLine
 10
1409.8800000003
 20
1087.339999999991
 30
0.0
 11
1386.8400000003
 21
1087.339999999991
 31
0.0
  0
LINE
  5
143BB
330
A
100
AcDbEntity
  8
LEVEL001
  6
Continuous
 62
     3
100
AcDbLine
 10
1398.3600000003
 20
1075.81999999999
 30
0.0
 11
1398.3600000003
 21
1070.05999999999
 31
0.0
  0
LINE
  5
143BC
330
A
100
AcDbEntity
  8
LEVEL001
  6
Continuous
 62
     3
100
AcDbLine
 10
1398.3600000003
 20
1070.05999999999
 30
0.0
 11
1409.8800000003
 21
1070.05999999999
 31
0.0
  0
ARC
  5
143BD
330
A
100
AcDbEntity
  8
LEVEL001
  6
Continuous
 62
     3
100
AcDbCircle
 10
1409.8800000003
 20
1072.939999999991
 30
0.0
 40
2.879999999999999
100
AcDbArc
 50
270.0
 51
90.0
  0
LINE
  5
143BE
330
A
100
AcDbEntity
  8
LEVEL001
  6
Continuous
 62
     3
100
AcDbLine
 10
1409.8800000003
 20
1075.81999999999
 30
0.0
 11
1398.3600000003
 21
1075.81999999999
 31
0.0
  0
LINE
  5
143BF
330
A
100
AcDbEntity
  8
LEVEL001
  6
Continuous
 62
     3
100
AcDbLine
 10
1438.6800000003
 20
1087.339999999991
 30
0.0
 11
1415.640000000299
 21
1052.77999999999
 31
0.0
  0
LINE
  5
143C0
330
A
100
AcDbEntity
  8
LEVEL001
  6
Continuous
 62
     3
100
AcDbLine
 10
1415.640000000299
 20
1052.77999999999
 30
0.0
 11
1432.9200000003
 21
1052.77999999999
 31
0.0
  0
LINE
  5
143C1
330
A
100
AcDbEntity
  8
LEVEL001
  6
Continuous
 62
     3
100
AcDbLine
 10
1432.9200000003
 20
1052.77999999999
 30
0.0
 11
1455.9600000003
 21
1087.339999999991
 31
0.0
  0
LINE
  5
143C2
330
A
100
AcDbEntity
  8
LEVEL001
  6
Continuous
 62
     3
100
AcDbLine
 10
1455.9600000003
 20
1087.339999999991
 30
0.0
 11
1438.6800000003
 21
1087.339999999991
 31
0.0
  0
LINE
  5
143C3
330
A
100
AcDbEntity
  8
LEVEL001
  6
Continuous
 62
     3
100
AcDbLine
 10
1452.1200000003
 20
1052.77999999999
 30
0.0
 11
1452.1200000003
 21
1074.657341551091
 31
0.0
  0
LINE
  5
143C4
330
A
100
AcDbEntity
  8
LEVEL001
  6
Continuous
 62
     3
100
AcDbLine
 10
1452.1200000003
 20
1074.657341551091
 30
0.0
 11
1437.5351056329
 21
1052.77999999999
 31
0.0
  0
LINE
  5
143C5
330
A
100
AcDbEntity
  8
LEVEL001
  6
Continuous
 62
     3
100
AcDbLine
 10
1437.5351056329
 20
1052.77999999999
 30
0.0
 11
1452.1200000003
 21
1052.77999999999
 31
0.0
  0
LINE
  5
143C6
330
A
100
AcDbEntity
  8
LEVEL001
  6
Continuous
 62
     3
100
AcDbLine
 10
1455.9600000003
 20
1052.77999999999
 30
0.0
 11
1496.2800000003
 21
1052.77999999999
 31
0.0
  0
LINE
  5
143C7
330
A
100
AcDbEntity
  8
LEVEL001
  6
Continuous
 62
     3
100
AcDbLine
 10
1496.2800000003
 20
1052.77999999999
 30
0.0
 11
1496.2800000003
 21
1075.81999999999
 31
0.0
  0
LINE
  5
143C8
330
A
100
AcDbEntity
  8
LEVEL001
  6
Continuous
 62
     3
100
AcDbLine
 10
1496.2800000003
 20
1075.81999999999
 30
0.0
 11
1507.8000000003
 21
1075.81999999999
 31
0.0
  0
LINE
  5
143C9
330
A
100
AcDbEntity
  8
LEVEL001
  6
Continuous
 62
     3
100
AcDbLine
 10
1507.8000000003
 20
1075.81999999999
 30
0.0
 11
1507.8000000003
 21
1052.77999999999
 31
0.0
  0
LINE
  5
143CA
330
A
100
AcDbEntity
  8
LEVEL001
  6
Continuous
 62
     3
100
AcDbLine
 10
1507.8000000003
 20
1052.77999999999
 30
0.0
 11
1542.3600000003
 21
1052.77999999999
 31
0.0
  0
LINE
  5
143CB
330
A
100
AcDbEntity
  8
LEVEL001
  6
Continuous
 62
     3
100
AcDbLine
 10
1542.3600000003
 20
1052.77999999999
 30
0.0
 11
1542.3600000003
 21
1064.299999999991
 31
0.0
  0
LINE
  5
143CC
330
A
100
AcDbEntity
  8
LEVEL001
  6
Continuous
 62
     3
100
AcDbLine
 10
1542.3600000003
 20
1064.299999999991
 30
0.0
 11
1519.3200000003
 21
1064.299999999991
 31
0.0
  0
LINE
  5
143CD
330
A
100
AcDbEntity
  8
LEVEL001
  6
Continuous
 62
     3
100
AcDbLine
 10
1519.3200000003
 20
1064.299999999991
 30
0.0
 11
1519.3200000003
 21
1067.179999999991
 31
0.0
  0
LINE
  5
143CE
330
A
100
AcDbEntity
  8
LEVEL001
  6
Continuous
 62
     3
100
AcDbLine
 10
1519.3200000003
 20
1067.179999999991
 30
0.0
 11
1539.480000000299
 21
1067.179999999991
 31
0.0
  0
LINE
  5
143CF
330
A
100
AcDbEntity
  8
LEVEL001
  6
Continuous
 62
     3
100
AcDbLine
 10
1539.480000000299
 20
1067.179999999991
 30
0.0
 11
1539.480000000299
 21
1072.939999999991
 31
0.0
  0
LINE
  5
143D0
330
A
100
AcDbEntity
  8
LEVEL001
  6
Continuous
 62
     3
100
AcDbLine
 10
1539.480000000299
 20
1072.939999999991
 30
0.0
 11
1519.3200000003
 21
1072.939999999991
 31
0.0
  0
LINE
  5
143D1
330
A
100
AcDbEntity
  8
LEVEL001
  6
Continuous
 62
     3
100
AcDbLine
 10
1519.3200000003
 20
1072.939999999991
 30
0.0
 11
1519.3200000003
 21
1075.81999999999
 31
0.0
  0
LINE
  5
143D2
330
A
100
AcDbEntity
  8
LEVEL001
  6
Continuous
 62
     3
100
AcDbLine
 10
1519.3200000003
 20
1075.81999999999
 30
0.0
 11
1542.3600000003
 21
1075.81999999999
 31
0.0
  0
LINE
  5
143D3
330
A
100
AcDbEntity
  8
LEVEL001
  6
Continuous
 62
     3
100
AcDbLine
 10
1542.3600000003
 20
1075.81999999999
 30
0.0
 11
1542.3600000003
 21
1087.339999999991
 31
0.0
  0
LINE
  5
143D4
330
A
100
AcDbEntity
  8
LEVEL001
  6
Continuous
 62
     3
100
AcDbLine
 10
1542.3600000003
 20
1087.339999999991
 30
0.0
 11
1473.2400000003
 21
1087.339999999991
 31
0.0
  0
LINE
  5
143D5
330
A
100
AcDbEntity
  8
LEVEL001
  6
Continuous
 62
     3
100
AcDbLine
 10
1473.2400000003
 20
1087.339999999991
 30
0.0
 11
1473.2400000003
 21
1075.81999999999
 31
0.0
  0
LINE
  5
143D6
330
A
100
AcDbEntity
  8
LEVEL001
  6
Continuous
 62
     3
100
AcDbLine
 10
1473.2400000003
 20
1075.81999999999
 30
0.0
 11
1484.7600000003
 21
1075.81999999999
 31
0.0
  0
LINE
  5
143D7
330
A
100
AcDbEntity
  8
LEVEL001
  6
Continuous
 62
     3
100
AcDbLine
 10
1484.7600000003
 20
1075.81999999999
 30
0.0
 11
1484.7600000003
 21
1064.299999999991
 31
0.0
  0
LINE
  5
143D8
330
A
100
AcDbEntity
  8
LEVEL001
  6
Continuous
 62
     3
100
AcDbLine
 10
1484.7600000003
 20
1064.299999999991
 30
0.0
 11
1467.4800000003
 21
1064.299999999991
 31
0.0
  0
LINE
  5
143D9
330
A
100
AcDbEntity
  8
LEVEL001
  6
Continuous
 62
     3
100
AcDbLine
 10
1467.4800000003
 20
1064.299999999991
 30
0.0
 11
1467.4800000003
 21
1087.339999999991
 31
0.0
  0
LINE
  5
143DA
330
A
100
AcDbEntity
  8
LEVEL001
  6
Continuous
 62
     3
100
AcDbLine
 10
1467.4800000003
 20
1087.339999999991
 30
0.0
 11
1455.9600000003
 21
1087.339999999991
 31
0.0
  0
LINE
  5
143DB
330
A
100
AcDbEntity
  8
LEVEL001
  6
Continuous
 62
     3
100
AcDbLine
 10
1455.9600000003
 20
1087.339999999991
 30
0.0
 11
1455.9600000003
 21
1052.77999999999
 31
0.0
  0
LINE
  5
143DC
330
A
100
AcDbEntity
  8
LEVEL001
  6
Continuous
 62
     3
100
AcDbLine
 10
1559.640000000299
 20
1052.77999999999
 30
0.0
 11
1576.9200000003
 21
1052.77999999999
 31
0.0
  0
LINE
  5
143DD
330
A
100
AcDbEntity
  8
LEVEL001
  6
Continuous
 62
     3
100
AcDbLine
 10
1576.9200000003
 20
1052.77999999999
 30
0.0
 11
1576.9200000003
 21
1064.299999999991
 31
0.0
  0
LINE
  5
143DE
330
A
100
AcDbEntity
  8
LEVEL001
  6
Continuous
 62
     3
100
AcDbLine
 10
1576.9200000003
 20
1064.299999999991
 30
0.0
 11
1559.640000000299
 21
1064.299999999991
 31
0.0
  0
ARC
  5
143DF
330
A
100
AcDbEntity
  8
LEVEL001
  6
Continuous
 62
     3
100
AcDbCircle
 10
1559.640000000299
 20
1070.05999999999
 30
0.0
 40
5.759999999999999
100
AcDbArc
 50
90.0
 51
270.0
  0
LINE
  5
143E0
330
A
100
AcDbEntity
  8
LEVEL001
  6
Continuous
 62
     3
100
AcDbLine
 10
1559.640000000299
 20
1075.81999999999
 30
0.0
 11
1576.9200000003
 21
1075.81999999999
 31
0.0
  0
LINE
  5
143E1
330
A
100
AcDbEntity
  8
LEVEL001
  6
Continuous
 62
     3
100
AcDbLine
 10
1576.9200000003
 20
1075.81999999999
 30
0.0
 11
1576.9200000003
 21
1087.339999999991
 31
0.0
  0
LINE
  5
143E2
330
A
100
AcDbEntity
  8
LEVEL001
  6
Continuous
 62
     3
100
AcDbLine
 10
1576.9200000003
 20
1087.339999999991
 30
0.0
 11
1559.640000000299
 21
1087.339999999991
 31
0.0
  0
ARC
  5
143E3
330
A
100
AcDbEntity
  8
LEVEL001
  6
Continuous
 62
     3
100
AcDbCircle
 10
1559.640000000299
 20
1070.05999999999
 30
0.0
 40
17.28
100
AcDbArc
 50
90.0
 51
270.0
  0
TEXT
  5
143E4
330
A
100
AcDbEntity
  8
LEVEL001
 62
     3
100
AcDbText
 10
1386.8400000003
 20
1093.099999999991
 30
0.0
 40
12.0
  1
ケージーパルテック株式会社
 41
0.8
100
AcDbText
  0
LWPOLYLINE
  5
143E5
330
A
100
AcDbEntity
  8
LEVEL001
  6
Continuous
 62
     3
100
AcDbPolyline
 90
        4
 70
     0
 43
0.0
 10
1375.3200000003
 20
1060.459999999991
 10
1360.9200000003
 20
1083.499999999991
 10
1375.3200000003
 20
1083.499999999991
 10
1375.3200000003
 20
1060.459999999991
  0
LINE
  5
143E6
330
A
100
AcDbEntity
  8
LEVEL001
  6
Continuous
 62
     3
100
AcDbLine
 10
1360.9200000003
 20
1083.499999999991
 30
0.0
 11
1375.3200000003
 21
1060.459999999991
 31
0.0
  0
LINE
  5
143E7
330
A
100
AcDbEntity
  8
LEVEL001
  6
Continuous
 62
     3
100
AcDbLine
 10
1375.3200000003
 20
1060.459999999991
 30
0.0
 11
1375.3200000003
 21
1083.499999999991
 31
0.0
  0
LINE
  5
143E8
330
A
100
AcDbEntity
  8
LEVEL001
  6
Continuous
 62
     3
100
AcDbLine
 10
1375.3200000003
 20
1083.499999999991
 30
0.0
 11
1360.9200000003
 21
1083.499999999991
 31
0.0
  0
LWPOLYLINE
  5
143E9
330
A
100
AcDbEntity
  8
LEVEL001
  6
Continuous
 62
     3
100
AcDbPolyline
 90
        3
 70
     0
 43
0.0
 10
1329.5600000003
 20
1114.219999999991
 10
1309.0800000003
 20
1083.499999999991
 10
1329.5600000003
 20
1052.77999999999
  0
LWPOLYLINE
  5
143EA
330
A
100
AcDbEntity
  8
LEVEL001
  6
Continuous
 62
     3
100
AcDbPolyline
 90
        3
 70
     0
 43
0.0
 10
1346.8400000003
 20
1052.77999999999
 10
1326.3600000003
 20
1083.499999999991
 10
1346.8400000003
 20
1114.219999999991
  0
LWPOLYLINE
  5
143EB
330
A
100
AcDbEntity
  8
LEVEL001
  6
Continuous
 62
     3
100
AcDbPolyline
 90
        3
 70
     0
 43
0.0
 10
1355.4800000003
 20
1114.219999999991
 10
1335.0000000003
 20
1083.499999999991
 10
1355.4800000003
 20
1052.77999999999
  0
LWPOLYLINE
  5
143EC
330
A
100
AcDbEntity
  8
LEVEL001
  6
Continuous
 62
     3
100
AcDbPolyline
 90
        3
 70
     0
 43
0.0
 10
1372.7600000003
 20
1052.77999999999
 10
1352.2800000003
 20
1083.499999999991
 10
1372.7600000003
 20
1114.219999999991
  0
LWPOLYLINE
  5
143ED
330
A
100
AcDbEntity
  8
LEVEL001
  6
Continuous
 62
     3
100
AcDbPolyline
 90
        3
 70
     0
 43
0.0
 10
1329.5600000003
 20
1052.77999999999
 10
1309.0800000003
 20
1083.499999999991
 10
1329.5600000003
 20
1114.219999999991
  0
LINE
  5
143EE
330
A
100
AcDbEntity
  8
LEVEL001
  6
Continuous
 62
     3
100
AcDbLine
 10
1329.5600000003
 20
1114.219999999991
 30
0.0
 11
1346.8400000003
 21
1114.219999999991
 31
0.0
  0
LWPOLYLINE
  5
143EF
330
A
100
AcDbEntity
  8
LEVEL001
  6
Continuous
 62
     3
100
AcDbPolyline
 90
        3
 70
     0
 43
0.0
 10
1346.8400000003
 20
1114.219999999991
 10
1326.3600000003
 20
1083.499999999991
 10
1346.8400000003
 20
1052.77999999999
  0
LINE
  5
143F0
330
A
100
AcDbEntity
  8
LEVEL001
  6
Continuous
 62
     3
100
AcDbLine
 10
1346.8400000003
 20
1052.77999999999
 30
0.0
 11
1329.5600000003
 21
1052.77999999999
 31
0.0
  0
LWPOLYLINE
  5
143F1
330
A
100
AcDbEntity
  8
LEVEL001
  6
Continuous
 62
     3
100
AcDbPolyline
 90
        3
 70
     0
 43
0.0
 10
1355.4800000003
 20
1052.77999999999
 10
1335.0000000003
 20
1083.499999999991
 10
1355.4800000003
 20
1114.219999999991
  0
LINE
  5
143F2
330
A
100
AcDbEntity
  8
LEVEL001
  6
Continuous
 62
     3
100
AcDbLine
 10
1355.4800000003
 20
1114.219999999991
 30
0.0
 11
1372.7600000003
 21
1114.219999999991
 31
0.0
  0
LWPOLYLINE
  5
143F3
330
A
100
AcDbEntity
  8
LEVEL001
  6
Continuous
 62
     3
100
AcDbPolyline
 90
        3
 70
     0
 43
0.0
 10
1372.7600000003
 20
1114.219999999991
 10
1352.2800000003
 20
1083.499999999991
 10
1372.7600000003
 20
1052.77999999999
  0
LINE
  5
143F4
330
A
100
AcDbEntity
  8
LEVEL001
  6
Continuous
 62
     3
100
AcDbLine
 10
1372.7600000003
 20
1052.77999999999
 30
0.0
 11
1355.4800000003
 21
1052.77999999999
 31
0.0
  0
ENDSEC
  0
SECTION
  2
OBJECTS
  0
DICTIONARY
  5
3D
330
0
100
AcDbDictionary
281
     1
  3
ACAD_CIP_PREVIOUS_PRODUCT_INFO
350
3DF0
  3
ACAD_COLOR
350
37EF
  3
ACAD_GROUP
350
3E
  3
ACAD_LAYOUT
350
37F2
  3
ACAD_MATERIAL
350
37EE
  3
ACAD_MLEADERSTYLE
350
3DEB
  3
ACAD_MLINESTYLE
350
3F
  3
ACAD_PLOTSETTINGS
350
37F3
  3
ACAD_PLOTSTYLENAME
350
37EC
  3
ACAD_SCALELIST
350
3DD9
  3
ACAD_TABLESTYLE
350
37F0
  3
ACAD_VISUALSTYLE
350
3DC0
  3
ACDB_RECOMPOSE_DATA
350
1459D
  3
AcDbVariableDictionary
350
380C
  3
DWGPROPS
350
1459E
  0
DICTIONARY
  5
4CA3
330
68
100
AcDbDictionary
280
     1
281
     1
  3
ACAD_LAYERSTATES
360
4CA4
  0
DICTIONARY
  5
473F
330
38
100
AcDbDictionary
280
     1
281
     1
  3
ADSK_XREC_LAYER_RECONCILED
360
4740
  0
DICTIONARY
  5
4741
330
39
100
AcDbDictionary
280
     1
281
     1
  3
ADSK_XREC_LAYER_RECONCILED
360
4742
  0
DICTIONARY
  5
474C
330
474B
100
AcDbDictionary
280
     1
281
     1
  0
DICTIONARY
  5
474E
330
474D
100
AcDbDictionary
280
     1
281
     1
  0
DICTIONARY
  5
4750
330
474F
100
AcDbDictionary
280
     1
281
     1
  0
DICTIONARY
  5
4752
330
4751
100
AcDbDictionary
280
     1
281
     1
  0
DICTIONARY
  5
37FA
330
A
100
AcDbDictionary
280
     1
281
     1
  3
ACAD_SORTENTS
360
37FB
  0
XRECORD
  5
3DF0
102
{ACAD_REACTORS
330
3D
102
}
330
3D
100
AcDbXrecord
280
     1
300
ACDLT
300
2012
300
ACDLT_F_S
  0
DICTIONARY
  5
37EF
102
{ACAD_REACTORS
330
3D
102
}
330
3D
100
AcDbDictionary
281
     1
  0
DICTIONARY
  5
3E
102
{ACAD_REACTORS
330
3D
102
}
330
0
100
AcDbDictionary
281
     1
  0
DICTIONARY
  5
37F2
102
{ACAD_REACTORS
330
3D
102
}
330
3D
100
AcDbDictionary
281
     1
  3
Model
350
37F4
  3
レイアウト1
350
37F5
  0
DICTIONARY
  5
37EE
102
{ACAD_REACTORS
330
3D
102
}
330
3D
100
AcDbDictionary
281
     1
  3
ByBlock
350
3DB0
  3
ByLayer
350
3DA8
  3
Global
350
3DB8
  0
DICTIONARY
  5
3DEB
102
{ACAD_REACTORS
330
3D
102
}
330
3D
100
AcDbDictionary
281
     1
  3
Standard
350
3DEC
  0
DICTIONARY
  5
3F
102
{ACAD_REACTORS
330
3D
102
}
330
0
100
AcDbDictionary
281
     1
  3
STANDARD
350
40
  0
DICTIONARY
  5
37F3
102
{ACAD_REACTORS
330
3D
102
}
330
3D
100
AcDbDictionary
281
     1
  0
ACDBDICTIONARYWDFLT
  5
37EC
102
{ACAD_REACTORS
330
3D
102
}
330
3D
100
AcDbDictionary
281
     1
  3
Normal
350
37ED
100
AcDbDictionaryWithDefault
340
37ED
  0
DICTIONARY
  5
3DD9
102
{ACAD_REACTORS
330
3D
102
}
330
3D
100
AcDbDictionary
281
     1
  3
A0
350
3DDA
  3
A1
350
3DDB
  3
A2
350
3DDC
  3
A3
350
3DDD
  3
A4
350
3DDE
  3
A5
350
3DDF
  3
A6
350
3DE0
  3
A7
350
3DE1
  3
A8
350
3DE2
  3
A9
350
3DE3
  3
B0
350
3DE4
  3
B1
350
3DE5
  3
B2
350
3DE6
  3
B3
350
3DE7
  3
B4
350
3DE8
  3
B5
350
3DE9
  3
B6
350
3DEA
  0
DICTIONARY
  5
37F0
102
{ACAD_REACTORS
330
3D
102
}
330
3D
100
AcDbDictionary
281
     1
  3
Standard
350
37F1
  0
DICTIONARY
  5
3DC0
102
{ACAD_REACTORS
330
3D
102
}
330
3D
100
AcDbDictionary
281
     1
  3
2dWireframe
350
3DC6
  3
Basic
350
3DC5
  3
Brighten
350
3DCC
  3
ColorChange
350
3DD0
  3
Conceptual
350
3DC9
  3
Dim
350
3DCB
  3
EdgeColorOff
350
3DD8
  3
Facepattern
350
3DCF
  3
Flat
350
3DC1
  3
FlatWithEdges
350
3DC2
  3
Gouraud
350
3DC3
  3
GouraudWithEdges
350
3DC4
  3
Hidden
350
3DC8
  3
JitterOff
350
3DD6
  3
Linepattern
350
3DCE
  3
OverhangOff
350
3DD7
  3
Realistic
350
3DCA
  3
Shaded
350
3DD5
  3
Shaded with edges
350
3DD4
  3
Shades of Gray
350
3DD1
  3
Sketchy
350
3DD2
  3
Thicken
350
3DCD
  3
Wireframe
350
3DC7
  3
X-Ray
350
3DD3
  0
XRECORD
  5
1459D
102
{ACAD_REACTORS
330
3D
102
}
330
3D
100
AcDbXrecord
280
     1
 90
        1
330
37F1
  0
DICTIONARY
  5
380C
102
{ACAD_REACTORS
330
3D
102
}
330
3D
100
AcDbDictionary
281
     1
  3
CANNOSCALE
350
4DD1
  3
CMLEADERSTYLE
350
4DCF
  3
CTABLESTYLE
350
380D
  3
DIMASSOC
350
3868
  3
INDEXCTL
350
14597
  3
LAYEREVAL
350
4DD3
  3
LAYERNOTIFY
350
4DD4
  3
LIGHTINGUNITS
350
4DD2
  3
MSLTSCALE
350
4DD0
  3
PROJECTNAME
350
3869
  3
SORTENTS
350
14596
  3
XCLIPFRAME
350
14598
  0
XRECORD
  5
1459E
102
{ACAD_REACTORS
330
3D
102
}
330
3D
100
AcDbXrecord
280
     1
  1
DWGPROPS COOKIE
  2

  3

  4

  6

  7

  8
kg-paltec
  9

300
=
301
=
302
=
303
=
304
=
305
=
306
=
307
=
308
=
309
=
 40
0.3960591782407407
 41
2451212.682759178
 42
2458321.572430243
  1

 90
        0
  0
DICTIONARY
  5
4CA4
102
{ACAD_REACTORS
330
4CA3
102
}
330
4CA3
100
AcDbDictionary
281
     1
  0
XRECORD
  5
4740
102
{ACAD_REACTORS
330
473F
102
}
330
473F
100
AcDbXrecord
280
     1
290
     1
  0
XRECORD
  5
4742
102
{ACAD_REACTORS
330
4741
102
}
330
4741
100
AcDbXrecord
280
     1
290
     1
  0
SORTENTSTABLE
  5
37FB
102
{ACAD_REACTORS
330
37FA
102
}
330
37FA
100
AcDbSortentsTable
330
A
331
2D10
  5
2D24
331
2CFC
  5
2D10
331
2C90
  5
2CA2
331
2C3A
  5
2C4B
331
2CD5
  5
2CE9
331
2C69
  5
2C7B
331
2C42
  5
2C53
331
2CB7
  5
2CCA
331
2C4B
  5
2C5C
331
2D17
  5
2D2B
331
2D28
  5
2D3C
331
2CDC
  5
2CF0
331
2C70
  5
2C82
331
2D50
  5
2D65
331
2CC8
  5
2CDB
331
2D1F
  5
2D33
331
2CBE
  5
2CD1
331
2C52
  5
2C63
331
2D60
  5
2D75
331
2CE4
  5
2CF8
331
2CC7
  5
2CDA
331
2D2F
  5
2D43
331
2CED
  5
2D01
331
2C5C
  5
2C6D
331
2C9F
  5
2CB2
331
2C33
  5
2C44
331
2CC6
  5
2CD9
331
2D71
  5
2D8A
331
2C78
  5
2C8A
331
2C5B
  5
2C6C
331
2C81
  5
2C93
331
2D39
  5
2D4D
331
2D67
  5
2D7C
331
2D70
  5
2D89
331
2C5A
  5
2C6B
331
2CA6
  5
2CB9
331
2D38
  5
2D4C
331
2CFE
  5
2D12
331
2C92
  5
2CA4
331
2D6F
  5
2D88
331
2CF4
  5
2D08
331
2C88
  5
2C9A
331
2D37
  5
2D4B
331
2CFD
  5
2D11
331
2CAE
  5
2CC1
331
2C91
  5
2CA3
331
2D49
  5
2D5E
  0
LAYOUT
  5
37F4
102
{ACAD_XDICTIONARY
360
4CA9
102
}
102
{ACAD_REACTORS
330
37F2
102
}
330
37F2
100
AcDbPlotSettings
  1

  2
クセロPDF2
  4
A4
  6

 40
3.174999952316284
 41
3.174999952316284
 42
3.175003051757812
 43
3.17498779296875
 44
209.9733276367187
 45
296.9259948730469
 46
0.0
 47
0.0
 48
0.0
 49
0.0
140
0.0
141
0.0
142
1.0
143
1469.220105060981
 70
 11952
 72
     0
 73
     1
 74
     0
  7

 75
     0
147
0.0006806332125155
148
192124.0556615123
149
1341.521742125432
100
AcDbLayout
  1
Model
 70
     1
 71
     0
 10
0.0
 20
0.0
 11
12.0
 21
9.0
 12
0.0
 22
0.0
 32
0.0
 14
0.0
 24
0.0
 34
0.0
 15
0.0
 25
0.0
 35
0.0
146
0.0
 13
0.0
 23
0.0
 33
0.0
 16
1.0
 26
0.0
 36
0.0
 17
0.0
 27
1.0
 37
0.0
 76
     0
330
A
331
3DA1
1001
ACAD_PSEXT
1000
クセロPDF2
1000
XeloPDF2
1000
Xelo PDF Port2
1000

1070
     0
  0
LAYOUT
  5
37F5
102
{ACAD_XDICTIONARY
360
145A1
102
}
102
{ACAD_REACTORS
330
37F2
102
}
330
37F2
100
AcDbPlotSettings
  1

  2
クセロPDF2
  4

  6

 40
0.0
 41
0.0
 42
0.0
 43
0.0
 44
0.0
 45
0.0
 46
0.0
 47
0.0
 48
0.0
 49
0.0
140
0.0
141
0.0
142
1.0
143
1.0
 70
   688
 72
     0
 73
     0
 74
     5
  7

 75
    16
147
1.0
148
0.0
149
0.0
100
AcDbLayout
  1
レイアウト1
 70
     1
 71
     1
 10
0.0
 20
0.0
 11
12.0
 21
9.0
 12
0.0
 22
0.0
 32
0.0
 14
1.000000000000000E+20
 24
1.000000000000000E+20
 34
1.000000000000000E+20
 15
-1.000000000000000E+20
 25
-1.000000000000000E+20
 35
-1.000000000000000E+20
146
0.0
 13
0.0
 23
0.0
 33
0.0
 16
1.0
 26
0.0
 36
0.0
 17
0.0
 27
1.0
 37
0.0
 76
     0
330
B
  0
MATERIAL
  5
3DB0
102
{ACAD_XDICTIONARY
360
3DB1
102
}
102
{ACAD_REACTORS
330
37EE
102
}
330
37EE
100
AcDbMaterial
  1
ByBlock
 72
     0
 43
0.0208333333333333
 43
0.0
 43
0.0
 43
0.0
 43
0.0
 43
0.0208333333333333
 43
0.0
 43
0.0
 43
0.0
 43
0.0
 43
1.0
 43
0.0
 43
0.0
 43
0.0
 43
0.0
 43
1.0
 77
     0
 47
0.0208333333333333
 47
0.0
 47
0.0
 47
0.0
 47
0.0
 47
0.0208333333333333
 47
0.0
 47
0.0
 47
0.0
 47
0.0
 47
1.0
 47
0.0
 47
0.0
 47
0.0
 47
0.0
 47
1.0
171
     0
 49
0.0208333333333333
 49
0.0
 49
0.0
 49
0.0
 49
0.0
 49
0.0208333333333333
 49
0.0
 49
0.0
 49
0.0
 49
0.0
 49
1.0
 49
0.0
 49
0.0
 49
0.0
 49
0.0
 49
1.0
175
     0
142
0.0208333333333333
142
0.0
142
0.0
142
0.0
142
0.0
142
0.0208333333333333
142
0.0
142
0.0
142
0.0
142
0.0
142
1.0
142
0.0
142
0.0
142
0.0
142
0.0
142
1.0
179
     0
144
0.0208333333333333
144
0.0
144
0.0
144
0.0
144
0.0
144
0.0208333333333333
144
0.0
144
0.0
144
0.0
144
0.0
144
1.0
144
0.0
144
0.0
144
0.0
144
0.0
144
1.0
147
0.0208333333333333
147
0.0
147
0.0
147
0.0
147
0.0
147
0.0208333333333333
147
0.0
147
0.0
147
0.0
147
0.0
147
1.0
147
0.0
147
0.0
147
0.0
147
0.0
147
1.0
  0
MATERIAL
  5
3DA8
102
{ACAD_XDICTIONARY
360
3DA9
102
}
102
{ACAD_REACTORS
330
37EE
102
}
330
37EE
100
AcDbMaterial
  1
ByLayer
 72
     0
 43
0.0208333333333333
 43
0.0
 43
0.0
 43
0.0
 43
0.0
 43
0.0208333333333333
 43
0.0
 43
0.0
 43
0.0
 43
0.0
 43
1.0
 43
0.0
 43
0.0
 43
0.0
 43
0.0
 43
1.0
 77
     0
 47
0.0208333333333333
 47
0.0
 47
0.0
 47
0.0
 47
0.0
 47
0.0208333333333333
 47
0.0
 47
0.0
 47
0.0
 47
0.0
 47
1.0
 47
0.0
 47
0.0
 47
0.0
 47
0.0
 47
1.0
171
     0
 49
0.0208333333333333
 49
0.0
 49
0.0
 49
0.0
 49
0.0
 49
0.0208333333333333
 49
0.0
 49
0.0
 49
0.0
 49
0.0
 49
1.0
 49
0.0
 49
0.0
 49
0.0
 49
0.0
 49
1.0
175
     0
142
0.0208333333333333
142
0.0
142
0.0
142
0.0
142
0.0
142
0.0208333333333333
142
0.0
142
0.0
142
0.0
142
0.0
142
1.0
142
0.0
142
0.0
142
0.0
142
0.0
142
1.0
179
     0
144
0.0208333333333333
144
0.0
144
0.0
144
0.0
144
0.0
144
0.0208333333333333
144
0.0
144
0.0
144
0.0
144
0.0
144
1.0
144
0.0
144
0.0
144
0.0
144
0.0
144
1.0
147
0.0208333333333333
147
0.0
147
0.0
147
0.0
147
0.0
147
0.0208333333333333
147
0.0
147
0.0
147
0.0
147
0.0
147
1.0
147
0.0
147
0.0
147
0.0
147
0.0
147
1.0
  0
MATERIAL
  5
3DB8
102
{ACAD_XDICTIONARY
360
3DB9
102
}
102
{ACAD_REACTORS
330
37EE
102
}
330
37EE
100
AcDbMaterial
  1
Global
 72
     0
 43
0.0208333333333333
 43
0.0
 43
0.0
 43
0.0
 43
0.0
 43
0.0208333333333333
 43
0.0
 43
0.0
 43
0.0
 43
0.0
 43
1.0
 43
0.0
 43
0.0
 43
0.0
 43
0.0
 43
1.0
 77
     0
 47
0.0208333333333333
 47
0.0
 47
0.0
 47
0.0
 47
0.0
 47
0.0208333333333333
 47
0.0
 47
0.0
 47
0.0
 47
0.0
 47
1.0
 47
0.0
 47
0.0
 47
0.0
 47
0.0
 47
1.0
171
     0
 49
0.0208333333333333
 49
0.0
 49
0.0
 49
0.0
 49
0.0
 49
0.0208333333333333
 49
0.0
 49
0.0
 49
0.0
 49
0.0
 49
1.0
 49
0.0
 49
0.0
 49
0.0
 49
0.0
 49
1.0
175
     0
142
0.0208333333333333
142
0.0
142
0.0
142
0.0
142
0.0
142
0.0208333333333333
142
0.0
142
0.0
142
0.0
142
0.0
142
1.0
142
0.0
142
0.0
142
0.0
142
0.0
142
1.0
179
     0
144
0.0208333333333333
144
0.0
144
0.0
144
0.0
144
0.0
144
0.0208333333333333
144
0.0
144
0.0
144
0.0
144
0.0
144
1.0
144
0.0
144
0.0
144
0.0
144
0.0
144
1.0
147
0.0208333333333333
147
0.0
147
0.0
147
0.0
147
0.0
147
0.0208333333333333
147
0.0
147
0.0
147
0.0
147
0.0
147
1.0
147
0.0
147
0.0
147
0.0
147
0.0
147
1.0
  0
MLEADERSTYLE
  5
3DEC
102
{ACAD_XDICTIONARY
360
1459B
102
}
102
{ACAD_REACTORS
330
3DEB
102
}
330
3DEB
100
AcDbMLeaderStyle
170
     2
171
     1
172
     0
 90
        2
 40
0.0
 41
0.0
173
     1
 91
-1056964608
340
1D
 92
       -2
290
     1
 42
0.09
291
     1
 43
0.36
  3
Standard
 44
0.18
300

342
7
174
     1
178
     6
175
     1
176
     0
 93
-1056964608
 45
0.18
292
     0
297
     0
 46
0.18
 94
-1056964608
 47
1.0
 49
1.0
140
1.0
293
     1
141
0.0
294
     1
177
     0
142
1.0
295
     0
296
     0
143
0.125
1001
ACAD_MLEADERVER
1070
     2
  0
MLINESTYLE
  5
40
102
{ACAD_REACTORS
330
3F
102
}
330
0
100
AcDbMlineStyle
  2
STANDARD
 70
     0
  3

 62
   256
 51
90.0
 52
90.0
 71
     2
 49
0.5
 62
   256
  6
BYLAYER
 49
-0.5
 62
   256
  6
BYLAYER
  0
ACDBPLACEHOLDER
  5
37ED
102
{ACAD_REACTORS
330
37EC
102
}
330
37EC
  0
SCALE
  5
3DDA
102
{ACAD_REACTORS
330
3DD9
102
}
330
3DD9
100
AcDbScale
 70
     0
300
1:1
140
1.0
141
1.0
290
     1
  0
SCALE
  5
3DDB
102
{ACAD_REACTORS
330
3DD9
102
}
330
3DD9
100
AcDbScale
 70
     0
300
1/128" = 1'-0"
140
0.0078125
141
12.0
290
     0
  0
SCALE
  5
3DDC
102
{ACAD_REACTORS
330
3DD9
102
}
330
3DD9
100
AcDbScale
 70
     0
300
1/64" = 1'-0"
140
0.015625
141
12.0
290
     0
  0
SCALE
  5
3DDD
102
{ACAD_REACTORS
330
3DD9
102
}
330
3DD9
100
AcDbScale
 70
     0
300
1/32" = 1'-0"
140
0.03125
141
12.0
290
     0
  0
SCALE
  5
3DDE
102
{ACAD_REACTORS
330
3DD9
102
}
330
3DD9
100
AcDbScale
 70
     0
300
1/16" = 1'-0"
140
0.0625
141
12.0
290
     0
  0
SCALE
  5
3DDF
102
{ACAD_REACTORS
330
3DD9
102
}
330
3DD9
100
AcDbScale
 70
     0
300
3/32" = 1'-0"
140
0.09375
141
12.0
290
     0
  0
SCALE
  5
3DE0
102
{ACAD_REACTORS
330
3DD9
102
}
330
3DD9
100
AcDbScale
 70
     0
300
1/8" = 1'-0"
140
0.125
141
12.0
290
     0
  0
SCALE
  5
3DE1
102
{ACAD_REACTORS
330
3DD9
102
}
330
3DD9
100
AcDbScale
 70
     0
300
3/16" = 1'-0"
140
0.1875
141
12.0
290
     0
  0
SCALE
  5
3DE2
102
{ACAD_REACTORS
330
3DD9
102
}
330
3DD9
100
AcDbScale
 70
     0
300
1/4" = 1'-0"
140
0.25
141
12.0
290
     0
  0
SCALE
  5
3DE3
102
{ACAD_REACTORS
330
3DD9
102
}
330
3DD9
100
AcDbScale
 70
     0
300
3/8" = 1'-0"
140
0.375
141
12.0
290
     0
  0
SCALE
  5
3DE4
102
{ACAD_REACTORS
330
3DD9
102
}
330
3DD9
100
AcDbScale
 70
     0
300
1/2" = 1'-0"
140
0.5
141
12.0
290
     0
  0
SCALE
  5
3DE5
102
{ACAD_REACTORS
330
3DD9
102
}
330
3DD9
100
AcDbScale
 70
     0
300
3/4" = 1'-0"
140
0.75
141
12.0
290
     0
  0
SCALE
  5
3DE6
102
{ACAD_REACTORS
330
3DD9
102
}
330
3DD9
100
AcDbScale
 70
     0
300
1" = 1'-0"
140
1.0
141
12.0
290
     0
  0
SCALE
  5
3DE7
102
{ACAD_REACTORS
330
3DD9
102
}
330
3DD9
100
AcDbScale
 70
     0
300
1-1/2" = 1'-0"
140
1.5
141
12.0
290
     0
  0
SCALE
  5
3DE8
102
{ACAD_REACTORS
330
3DD9
102
}
330
3DD9
100
AcDbScale
 70
     0
300
3" = 1'-0"
140
3.0
141
12.0
290
     0
  0
SCALE
  5
3DE9
102
{ACAD_REACTORS
330
3DD9
102
}
330
3DD9
100
AcDbScale
 70
     0
300
6" = 1'-0"
140
6.0
141
12.0
290
     0
  0
SCALE
  5
3DEA
102
{ACAD_REACTORS
330
3DD9
102
}
330
3DD9
100
AcDbScale
 70
     0
300
1'-0" = 1'-0"
140
12.0
141
12.0
290
     0
  0
TABLESTYLE
  5
37F1
102
{ACAD_XDICTIONARY
360
14599
102
}
102
{ACAD_REACTORS
330
37F0
102
}
330
37F0
100
AcDbTableStyle
  3
Standard
 70
     0
 71
     0
 40
0.06
 41
0.06
280
     0
281
     0
  7
STANDARD
140
0.18
170
     2
 62
     0
 63
     7
283
     0
274
    -2
284
     1
 64
     0
275
    -2
285
     1
 65
     0
276
    -2
286
     1
 66
     0
277
    -2
287
     1
 67
     0
278
    -2
288
     1
 68
     0
279
    -2
289
     1
 69
     0
  7
STANDARD
140
0.25
170
     5
 62
     0
 63
     7
283
     0
274
    -2
284
     1
 64
     0
275
    -2
285
     1
 65
     0
276
    -2
286
     1
 66
     0
277
    -2
287
     1
 67
     0
278
    -2
288
     1
 68
     0
279
    -2
289
     1
 69
     0
  7
STANDARD
140
0.18
170
     5
 62
     0
 63
     7
283
     0
274
    -2
284
     1
 64
     0
275
    -2
285
     1
 65
     0
276
    -2
286
     1
 66
     0
277
    -2
287
     1
 67
     0
278
    -2
288
     1
 68
     0
279
    -2
289
     1
 69
     0
  0
VISUALSTYLE
  5
3DC6
102
{ACAD_XDICTIONARY
360
145B0
102
}
102
{ACAD_REACTORS
330
3DC0
102
}
330
3DC0
100
AcDbVisualStyle
  2
2dWireframe
 70
     4
 71
     0
 72
     2
 73
     0
 90
        0
 40
-0.6
 41
-30.0
 62
     5
 63
     7
 74
     1
 91
        4
 64
     7
 65
   257
 75
     1
175
     1
 42
1.0
 92
        0
 66
   257
 43
1.0
 76
     1
 77
     6
 78
     2
 67
     7
 79
     5
170
     0
171
     0
290
     0
174
     0
 93
        1
 44
0.0
173
     0
291
     0
 45
0.0
1001
ACAD
1000
AcDbSavedByObjectVersion
1070
     0
  0
VISUALSTYLE
  5
3DC5
102
{ACAD_XDICTIONARY
360
145AE
102
}
102
{ACAD_REACTORS
330
3DC0
102
}
330
3DC0
100
AcDbVisualStyle
  2
Basic
 70
     7
 71
     1
 72
     0
 73
     1
 90
        0
 40
-0.6
 41
-30.0
 62
     5
 63
     7
 74
     0
 91
        4
 64
     7
 65
   257
 75
     1
175
     1
 42
1.0
 92
        8
 66
     7
 43
1.0
 76
     1
 77
     6
 78
     2
 67
     7
 79
     5
170
     0
171
     0
290
     0
174
     0
 93
        1
 44
0.0
173
     0
291
     1
 45
0.0
1001
ACAD
1000
AcDbSavedByObjectVersion
1070
     0
  0
VISUALSTYLE
  5
3DCC
102
{ACAD_XDICTIONARY
360
145BC
102
}
102
{ACAD_REACTORS
330
3DC0
102
}
330
3DC0
100
AcDbVisualStyle
  2
Brighten
 70
    12
 71
     2
 72
     2
 73
     0
 90
        0
 40
-0.6
 41
-30.0
 62
     5
 63
     7
 74
     1
 91
        4
 64
     7
 65
   257
 75
     1
175
     1
 42
1.0
 92
        8
 66
     7
 43
1.0
 76
     1
 77
     6
 78
     2
 67
     7
 79
     5
170
     0
171
     0
290
     0
174
     0
 93
        1
 44
50.0
173
     0
291
     1
 45
0.0
1001
ACAD
1000
AcDbSavedByObjectVersion
1070
     0
  0
VISUALSTYLE
  5
3DD0
102
{ACAD_XDICTIONARY
360
145C4
102
}
102
{ACAD_REACTORS
330
3DC0
102
}
330
3DC0
100
AcDbVisualStyle
  2
ColorChange
 70
    16
 71
     2
 72
     2
 73
     3
 90
        0
 40
-0.6
 41
-30.0
 62
     5
 63
     8
 74
     1
 91
        4
 64
     7
 65
   257
 75
     1
175
     1
 42
1.0
 92
        8
 66
     8
 43
1.0
 76
     1
 77
     6
 78
     2
 67
     7
 79
     5
170
     0
171
     0
290
     0
174
     0
 93
        1
 44
0.0
173
     0
291
     1
 45
0.0
1001
ACAD
1000
AcDbSavedByObjectVersion
1070
     0
  0
VISUALSTYLE
  5
3DC9
102
{ACAD_XDICTIONARY
360
145B6
102
}
102
{ACAD_REACTORS
330
3DC0
102
}
330
3DC0
100
AcDbVisualStyle
  2
Conceptual
 70
     9
 71
     3
 72
     2
 73
     0
 90
        0
 40
-0.6
 41
-30.0
 62
     5
 63
     7
 74
     2
 91
        2
 64
     7
 65
   257
 75
     1
175
     1
 42
179.0
 92
        8
 66
     7
 43
1.0
 76
     1
 77
     6
 78
     2
 67
     7
 79
     3
170
     0
171
     0
290
     0
174
     0
 93
        1
 44
0.0
173
     0
291
     0
 45
0.0
1001
ACAD
1000
AcDbSavedByObjectVersion
1070
     0
  0
VISUALSTYLE
  5
3DCB
102
{ACAD_XDICTIONARY
360
145BA
102
}
102
{ACAD_REACTORS
330
3DC0
102
}
330
3DC0
100
AcDbVisualStyle
  2
Dim
 70
    11
 71
     2
 72
     2
 73
     0
 90
        0
 40
-0.6
 41
-30.0
 62
     5
 63
     7
 74
     1
 91
        4
 64
     7
 65
   257
 75
     1
175
     1
 42
1.0
 92
        8
 66
     7
 43
1.0
 76
     1
 77
     6
 78
     2
 67
     7
 79
     5
170
     0
171
     0
290
     0
174
     0
 93
        1
 44
-50.0
173
     0
291
     1
 45
0.0
1001
ACAD
1000
AcDbSavedByObjectVersion
1070
     0
  0
VISUALSTYLE
  5
3DD8
102
{ACAD_XDICTIONARY
360
145D4
102
}
102
{ACAD_REACTORS
330
3DC0
102
}
330
3DC0
100
AcDbVisualStyle
  2
EdgeColorOff
 70
    22
 71
     2
 72
     2
 73
     0
 90
        0
 40
-0.6
 41
-30.0
 62
     5
 63
     7
 74
     1
 91
        4
 64
     7
 65
   257
 75
     1
175
     1
 42
1.0
 92
        8
 66
     7
 43
1.0
 76
     1
 77
     6
 78
     2
 67
     7
 79
     5
170
     0
171
     0
290
     0
174
     0
 93
        1
 44
0.0
173
     0
291
     1
 45
0.0
1001
ACAD
1000
AcDbSavedByObjectVersion
1070
     0
  0
VISUALSTYLE
  5
3DCF
102
{ACAD_XDICTIONARY
360
145C2
102
}
102
{ACAD_REACTORS
330
3DC0
102
}
330
3DC0
100
AcDbVisualStyle
  2
Facepattern
 70
    15
 71
     2
 72
     2
 73
     0
 90
        0
 40
-0.6
 41
-30.0
 62
     5
 63
     7
 74
     1
 91
        4
 64
     7
 65
   257
 75
     1
175
     1
 42
1.0
 92
        8
 66
     7
 43
1.0
 76
     1
 77
     6
 78
     2
 67
     7
 79
     5
170
     0
171
     0
290
     0
174
     0
 93
        1
 44
0.0
173
     0
291
     1
 45
0.0
1001
ACAD
1000
AcDbSavedByObjectVersion
1070
     0
  0
VISUALSTYLE
  5
3DC1
102
{ACAD_XDICTIONARY
360
145A6
102
}
102
{ACAD_REACTORS
330
3DC0
102
}
330
3DC0
100
AcDbVisualStyle
  2
Flat
 70
     0
 71
     2
 72
     1
 73
     1
 90
        2
 40
-0.6
 41
30.0
 62
     5
 63
     7
 74
     0
 91
        0
 64
     7
 65
   257
 75
     1
175
     1
 42
1.0
 92
        8
 66
     7
 43
1.0
 76
     1
 77
     6
 78
     2
 67
     7
 79
     5
170
     0
171
     0
290
     0
174
     0
 93
       13
 44
0.0
173
     0
291
     1
 45
0.0
1001
ACAD
1000
AcDbSavedByObjectVersion
1070
     0
  0
VISUALSTYLE
  5
3DC2
102
{ACAD_XDICTIONARY
360
145A8
102
}
102
{ACAD_REACTORS
330
3DC0
102
}
330
3DC0
100
AcDbVisualStyle
  2
FlatWithEdges
 70
     1
 71
     2
 72
     1
 73
     1
 90
        2
 40
-0.6
 41
30.0
 62
     5
 63
     7
 74
     1
 91
        0
 64
     7
 65
   257
 75
     1
175
     1
 42
1.0
 92
        0
 66
   257
 43
1.0
 76
     1
 77
     6
 78
     2
 67
     7
 79
     5
170
     0
171
     0
290
     0
174
     0
 93
       13
 44
0.0
173
     0
291
     1
 45
0.0
1001
ACAD
1000
AcDbSavedByObjectVersion
1070
     0
  0
VISUALSTYLE
  5
3DC3
102
{ACAD_XDICTIONARY
360
145AA
102
}
102
{ACAD_REACTORS
330
3DC0
102
}
330
3DC0
100
AcDbVisualStyle
  2
Gouraud
 70
     2
 71
     2
 72
     2
 73
     1
 90
        2
 40
-0.6
 41
30.0
 62
     5
 63
     7
 74
     0
 91
        0
 64
     7
 65
   257
 75
     1
175
     1
 42
1.0
 92
        0
 66
     7
 43
1.0
 76
     1
 77
     6
 78
     2
 67
     7
 79
     5
170
     0
171
     0
290
     0
174
     0
 93
       13
 44
0.0
173
     0
291
     1
 45
0.0
1001
ACAD
1000
AcDbSavedByObjectVersion
1070
     0
  0
VISUALSTYLE
  5
3DC4
102
{ACAD_XDICTIONARY
360
145AC
102
}
102
{ACAD_REACTORS
330
3DC0
102
}
330
3DC0
100
AcDbVisualStyle
  2
GouraudWithEdges
 70
     3
 71
     2
 72
     2
 73
     1
 90
        2
 40
-0.6
 41
30.0
 62
     5
 63
     7
 74
     1
 91
        0
 64
     7
 65
   257
 75
     1
175
     1
 42
1.0
 92
        0
 66
   257
 43
1.0
 76
     1
 77
     6
 78
     2
 67
     7
 79
     5
170
     0
171
     0
290
     0
174
     0
 93
       13
 44
0.0
173
     0
291
     1
 45
0.0
1001
ACAD
1000
AcDbSavedByObjectVersion
1070
     0
  0
VISUALSTYLE
  5
3DC8
102
{ACAD_XDICTIONARY
360
145B4
102
}
102
{ACAD_REACTORS
330
3DC0
102
}
330
3DC0
100
AcDbVisualStyle
  2
Hidden
 70
     6
 71
     1
 72
     2
 73
     2
 90
        0
 40
-0.6
 41
-30.0
 62
     5
 63
     7
 74
     2
 91
        2
 64
     7
 65
   257
 75
     2
175
     1
 42
40.0
 92
        0
 66
   257
 43
1.0
 76
     1
 77
     6
 78
     2
 67
     7
 79
     3
170
     0
171
     0
290
     0
174
     0
 93
        1
 44
0.0
173
     0
291
     0
 45
0.0
1001
ACAD
1000
AcDbSavedByObjectVersion
1070
     0
  0
VISUALSTYLE
  5
3DD6
102
{ACAD_XDICTIONARY
360
145D0
102
}
102
{ACAD_REACTORS
330
3DC0
102
}
330
3DC0
100
AcDbVisualStyle
  2
JitterOff
 70
    20
 71
     2
 72
     2
 73
     0
 90
        0
 40
-0.6
 41
-30.0
 62
     5
 63
     7
 74
     1
 91
        4
 64
     7
 65
   257
 75
     1
175
     1
 42
1.0
 92
       10
 66
     7
 43
1.0
 76
     1
 77
     6
 78
     2
 67
     7
 79
     5
170
     0
171
     0
290
     0
174
     0
 93
        1
 44
0.0
173
     0
291
     1
 45
0.0
1001
ACAD
1000
AcDbSavedByObjectVersion
1070
     0
  0
VISUALSTYLE
  5
3DCE
102
{ACAD_XDICTIONARY
360
145C0
102
}
102
{ACAD_REACTORS
330
3DC0
102
}
330
3DC0
100
AcDbVisualStyle
  2
Linepattern
 70
    14
 71
     2
 72
     2
 73
     0
 90
        0
 40
-0.6
 41
-30.0
 62
     5
 63
     7
 74
     1
 91
        4
 64
     7
 65
   257
 75
     7
175
     7
 42
1.0
 92
        8
 66
     7
 43
1.0
 76
     1
 77
     6
 78
     2
 67
     7
 79
     5
170
     0
171
     0
290
     0
174
     0
 93
        1
 44
0.0
173
     0
291
     1
 45
0.0
1001
ACAD
1000
AcDbSavedByObjectVersion
1070
     0
  0
VISUALSTYLE
  5
3DD7
102
{ACAD_XDICTIONARY
360
145D2
102
}
102
{ACAD_REACTORS
330
3DC0
102
}
330
3DC0
100
AcDbVisualStyle
  2
OverhangOff
 70
    21
 71
     2
 72
     2
 73
     0
 90
        0
 40
-0.6
 41
-30.0
 62
     5
 63
     7
 74
     1
 91
        4
 64
     7
 65
   257
 75
     1
175
     1
 42
1.0
 92
        9
 66
     7
 43
1.0
 76
     1
 77
     6
 78
     2
 67
     7
 79
     5
170
     0
171
     0
290
     0
174
     0
 93
        1
 44
0.0
173
     0
291
     1
 45
0.0
1001
ACAD
1000
AcDbSavedByObjectVersion
1070
     0
  0
VISUALSTYLE
  5
3DCA
102
{ACAD_XDICTIONARY
360
145B8
102
}
102
{ACAD_REACTORS
330
3DC0
102
}
330
3DC0
100
AcDbVisualStyle
  2
Realistic
 70
     8
 71
     2
 72
     3
 73
     0
 90
        2
 40
-0.6
 41
30.0
 62
     5
 63
     7
 74
     0
 91
        0
 64
     7
 65
   257
 75
     1
175
     1
 42
1.0
 92
        8
 66
   257
 43
1.0
 76
     1
 77
     6
 78
     2
 67
     7
 79
     3
170
     0
171
     0
290
     0
174
     0
 93
       13
 44
0.0
173
     0
291
     0
 45
0.0
1001
ACAD
1000
AcDbSavedByObjectVersion
1070
     0
  0
VISUALSTYLE
  5
3DD5
102
{ACAD_XDICTIONARY
360
145CE
102
}
102
{ACAD_REACTORS
330
3DC0
102
}
330
3DC0
100
AcDbVisualStyle
  2
Shaded
 70
    27
 71
     2
 72
     2
 73
     1
 90
        2
 40
-0.6
 41
30.0
 62
     5
 63
     7
 74
     0
 91
        4
 64
     7
 65
   257
 75
     1
175
     1
 42
1.0
 92
        8
 66
   257
 43
1.0
 76
     1
 77
     6
 78
     2
 67
     8
 79
     3
170
     0
171
     0
290
     0
174
     0
 93
        5
 44
0.0
173
     0
291
     0
 45
0.0
1001
ACAD
1000
AcDbSavedByObjectVersion
1070
     0
  0
VISUALSTYLE
  5
3DD4
102
{ACAD_XDICTIONARY
360
145CC
102
}
102
{ACAD_REACTORS
330
3DC0
102
}
330
3DC0
100
AcDbVisualStyle
  2
Shaded with edges
 70
    26
 71
     2
 72
     2
 73
     1
 90
        2
 40
-0.6
 41
30.0
 62
     5
 63
     7
 74
     1
 91
       10
 64
     7
 65
   257
 75
     2
175
     1
 42
1.0
 92
        8
 66
   257
 43
1.0
 76
     1
 77
     6
 78
     2
 67
     7
 79
     3
170
     0
171
     0
290
     0
174
     0
 93
        5
 44
0.0
173
     0
291
     0
 45
0.0
1001
ACAD
1000
AcDbSavedByObjectVersion
1070
     0
  0
VISUALSTYLE
  5
3DD1
102
{ACAD_XDICTIONARY
360
145C6
102
}
102
{ACAD_REACTORS
330
3DC0
102
}
330
3DC0
100
AcDbVisualStyle
  2
Shades of Gray
 70
    23
 71
     2
 72
     2
 73
     3
 90
        0
 40
-0.6
 41
-30.0
 62
     5
 63
     7
 74
     2
 91
        2
 64
     7
 65
     7
 75
     1
175
     1
 42
40.0
 92
        8
 66
     7
 43
1.0
 76
     1
 77
     6
 78
     2
 67
     7
 79
     3
170
     0
171
     0
290
     0
174
     0
 93
        1
 44
0.0
173
     0
291
     0
 45
0.0
1001
ACAD
1000
AcDbSavedByObjectVersion
1070
     0
  0
VISUALSTYLE
  5
3DD2
102
{ACAD_XDICTIONARY
360
145C8
102
}
102
{ACAD_REACTORS
330
3DC0
102
}
330
3DC0
100
AcDbVisualStyle
  2
Sketchy
 70
    24
 71
     1
 72
     2
 73
     2
 90
        0
 40
-0.6
 41
-30.0
 62
     5
 63
     7
 74
     2
 91
        2
 64
     7
 65
     7
 75
     1
175
     1
 42
40.0
 92
       11
 66
     7
 43
1.0
 76
     1
 77
     6
 78
     2
 67
     7
 79
     6
170
     0
171
     0
290
     0
174
     0
 93
        1
 44
0.0
173
     0
291
     0
 45
0.0
1001
ACAD
1000
AcDbSavedByObjectVersion
1070
     0
  0
VISUALSTYLE
  5
3DCD
102
{ACAD_XDICTIONARY
360
145BE
102
}
102
{ACAD_REACTORS
330
3DC0
102
}
330
3DC0
100
AcDbVisualStyle
  2
Thicken
 70
    13
 71
     2
 72
     2
 73
     0
 90
        0
 40
-0.6
 41
-30.0
 62
     5
 63
     7
 74
     1
 91
        4
 64
     7
 65
   257
 75
     1
175
     1
 42
1.0
 92
       12
 66
     7
 43
1.0
 76
     1
 77
     6
 78
     2
 67
     7
 79
     5
170
     0
171
     0
290
     0
174
     0
 93
        1
 44
0.0
173
     0
291
     1
 45
0.0
1001
ACAD
1000
AcDbSavedByObjectVersion
1070
     0
  0
VISUALSTYLE
  5
3DC7
102
{ACAD_XDICTIONARY
360
145B2
102
}
102
{ACAD_REACTORS
330
3DC0
102
}
330
3DC0
100
AcDbVisualStyle
  2
Wireframe
 70
     5
 71
     0
 72
     2
 73
     0
 90
        0
 40
-0.6
 41
-30.0
 62
     5
 63
     7
 74
     1
 91
        4
 64
     7
 65
   257
 75
     1
175
     1
 42
1.0
 92
        0
 66
   257
 43
1.0
 76
     1
 77
     6
 78
     2
 67
     7
 79
     3
170
     0
171
     0
290
     0
174
     0
 93
        1
 44
0.0
173
     0
291
     0
 45
0.0
1001
ACAD
1000
AcDbSavedByObjectVersion
1070
     0
  0
VISUALSTYLE
  5
3DD3
102
{ACAD_XDICTIONARY
360
145CA
102
}
102
{ACAD_REACTORS
330
3DC0
102
}
330
3DC0
100
AcDbVisualStyle
  2
X-Ray
 70
    25
 71
     2
 72
     2
 73
     1
 90
        1
 40
0.5
 41
-30.0
 62
     5
 63
     7
 74
     1
 91
        0
 64
     7
 65
   257
 75
     1
175
     1
 42
1.0
 92
        8
 66
     7
 43
1.0
 76
     1
 77
     6
 78
     2
 67
     7
 79
     3
170
     0
171
     0
290
     0
174
     0
 93
       13
 44
0.0
173
     0
291
     0
 45
0.0
1001
ACAD
1000
AcDbSavedByObjectVersion
1070
     0
  0
DICTIONARYVAR
  5
4DD1
102
{ACAD_REACTORS
330
380C
102
}
330
380C
100
DictionaryVariables
280
     0
  1
1:1
  0
DICTIONARYVAR
  5
4DCF
102
{ACAD_REACTORS
330
380C
102
}
330
380C
100
DictionaryVariables
280
     0
  1
STANDARD
  0
DICTIONARYVAR
  5
380D
102
{ACAD_REACTORS
330
380C
102
}
330
380C
100
DictionaryVariables
280
     0
  1
STANDARD
  0
DICTIONARYVAR
  5
3868
102
{ACAD_REACTORS
330
380C
102
}
330
380C
100
DictionaryVariables
280
     0
  1
1
  0
DICTIONARYVAR
  5
14597
102
{ACAD_REACTORS
330
380C
102
}
330
380C
100
DictionaryVariables
280
     0
  1
0
  0
DICTIONARYVAR
  5
4DD3
102
{ACAD_REACTORS
330
380C
102
}
330
380C
100
DictionaryVariables
280
     0
  1
1
  0
DICTIONARYVAR
  5
4DD4
102
{ACAD_REACTORS
330
380C
102
}
330
380C
100
DictionaryVariables
280
     0
  1
15
  0
DICTIONARYVAR
  5
4DD2
102
{ACAD_REACTORS
330
380C
102
}
330
380C
100
DictionaryVariables
280
     0
  1
0
  0
DICTIONARYVAR
  5
4DD0
102
{ACAD_REACTORS
330
380C
102
}
330
380C
100
DictionaryVariables
280
     0
  1
0
  0
DICTIONARYVAR
  5
3869
102
{ACAD_REACTORS
330
380C
102
}
330
380C
100
DictionaryVariables
280
     0
  1

  0
DICTIONARYVAR
  5
14596
102
{ACAD_REACTORS
330
380C
102
}
330
380C
100
DictionaryVariables
280
     0
  1
127
  0
DICTIONARYVAR
  5
14598
102
{ACAD_REACTORS
330
380C
102
}
330
380C
100
DictionaryVariables
280
     0
  1
2
  0
DICTIONARY
  5
4CA9
330
37F4
100
AcDbDictionary
280
     1
281
     1
  3
ACAD_XREC_ROUNDTRIP
360
145A0
  3
ADSK_XREC_LAYOUTTHUMBNAIL
360
4CAA
  0
DICTIONARY
  5
145A1
330
37F5
100
AcDbDictionary
280
     1
281
     1
  3
ACAD_XREC_ROUNDTRIP
360
145A2
  0
DICTIONARY
  5
3DB1
330
3DB0
100
AcDbDictionary
280
     1
281
     1
  3
ACAD_XREC_ROUNDTRIP
360
145A4
  3
BUMPTILE
360
3DB3
  3
DIFFUSETILE
360
3DB2
  3
OPACITYTILE
360
3DB6
  3
REFLECTIONTILE
360
3DB5
  3
REFRACTIONTILE
360
3DB7
  3
SPECULARTILE
360
3DB4
  0
DICTIONARY
  5
3DA9
330
3DA8
100
AcDbDictionary
280
     1
281
     1
  3
ACAD_XREC_ROUNDTRIP
360
145A3
  3
BUMPTILE
360
3DAB
  3
DIFFUSETILE
360
3DAA
  3
OPACITYTILE
360
3DAE
  3
REFLECTIONTILE
360
3DAD
  3
REFRACTIONTILE
360
3DAF
  3
SPECULARTILE
360
3DAC
  0
DICTIONARY
  5
3DB9
330
3DB8
100
AcDbDictionary
280
     1
281
     1
  3
ACAD_XREC_ROUNDTRIP
360
145A5
  3
BUMPTILE
360
3DBB
  3
DIFFUSETILE
360
3DBA
  3
OPACITYTILE
360
3DBE
  3
REFLECTIONTILE
360
3DBD
  3
REFRACTIONTILE
360
3DBF
  3
SPECULARTILE
360
3DBC
  0
DICTIONARY
  5
1459B
330
3DEC
100
AcDbDictionary
280
     1
281
     1
  3
ACAD_XREC_ROUNDTRIP
360
1459C
  0
DICTIONARY
  5
14599
330
37F1
100
AcDbDictionary
280
     1
281
     1
  3
ACAD_ROUNDTRIP_2008_TABLESTYLE_CELLSTYLEMAP
360
1459A
  3
ACAD_XREC_ROUNDTRIP
360
1459F
  0
DICTIONARY
  5
145B0
330
3DC6
100
AcDbDictionary
280
     1
281
     1
  3
ACAD_XREC_ROUNDTRIP
360
145B1
  0
DICTIONARY
  5
145AE
330
3DC5
100
AcDbDictionary
280
     1
281
     1
  3
ACAD_XREC_ROUNDTRIP
360
145AF
  0
DICTIONARY
  5
145BC
330
3DCC
100
AcDbDictionary
280
     1
281
     1
  3
ACAD_XREC_ROUNDTRIP
360
145BD
  0
DICTIONARY
  5
145C4
330
3DD0
100
AcDbDictionary
280
     1
281
     1
  3
ACAD_XREC_ROUNDTRIP
360
145C5
  0
DICTIONARY
  5
145B6
330
3DC9
100
AcDbDictionary
280
     1
281
     1
  3
ACAD_XREC_ROUNDTRIP
360
145B7
  0
DICTIONARY
  5
145BA
330
3DCB
100
AcDbDictionary
280
     1
281
     1
  3
ACAD_XREC_ROUNDTRIP
360
145BB
  0
DICTIONARY
  5
145D4
330
3DD8
100
AcDbDictionary
280
     1
281
     1
  3
ACAD_XREC_ROUNDTRIP
360
145D5
  0
DICTIONARY
  5
145C2
330
3DCF
100
AcDbDictionary
280
     1
281
     1
  3
ACAD_XREC_ROUNDTRIP
360
145C3
  0
DICTIONARY
  5
145A6
330
3DC1
100
AcDbDictionary
280
     1
281
     1
  3
ACAD_XREC_ROUNDTRIP
360
145A7
  0
DICTIONARY
  5
145A8
330
3DC2
100
AcDbDictionary
280
     1
281
     1
  3
ACAD_XREC_ROUNDTRIP
360
145A9
  0
DICTIONARY
  5
145AA
330
3DC3
100
AcDbDictionary
280
     1
281
     1
  3
ACAD_XREC_ROUNDTRIP
360
145AB
  0
DICTIONARY
  5
145AC
330
3DC4
100
AcDbDictionary
280
     1
281
     1
  3
ACAD_XREC_ROUNDTRIP
360
145AD
  0
DICTIONARY
  5
145B4
330
3DC8
100
AcDbDictionary
280
     1
281
     1
  3
ACAD_XREC_ROUNDTRIP
360
145B5
  0
DICTIONARY
  5
145D0
330
3DD6
100
AcDbDictionary
280
     1
281
     1
  3
ACAD_XREC_ROUNDTRIP
360
145D1
  0
DICTIONARY
  5
145C0
330
3DCE
100
AcDbDictionary
280
     1
281
     1
  3
ACAD_XREC_ROUNDTRIP
360
145C1
  0
DICTIONARY
  5
145D2
330
3DD7
100
AcDbDictionary
280
     1
281
     1
  3
ACAD_XREC_ROUNDTRIP
360
145D3
  0
DICTIONARY
  5
145B8
330
3DCA
100
AcDbDictionary
280
     1
281
     1
  3
ACAD_XREC_ROUNDTRIP
360
145B9
  0
DICTIONARY
  5
145CE
330
3DD5
100
AcDbDictionary
280
     1
281
     1
  3
ACAD_XREC_ROUNDTRIP
360
145CF
  0
DICTIONARY
  5
145CC
330
3DD4
100
AcDbDictionary
280
     1
281
     1
  3
ACAD_XREC_ROUNDTRIP
360
145CD
  0
DICTIONARY
  5
145C6
330
3DD1
100
AcDbDictionary
280
     1
281
     1
  3
ACAD_XREC_ROUNDTRIP
360
145C7
  0
DICTIONARY
  5
145C8
330
3DD2
100
AcDbDictionary
280
     1
281
     1
  3
ACAD_XREC_ROUNDTRIP
360
145C9
  0
DICTIONARY
  5
145BE
330
3DCD
100
AcDbDictionary
280
     1
281
     1
  3
ACAD_XREC_ROUNDTRIP
360
145BF
  0
DICTIONARY
  5
145B2
330
3DC7
100
AcDbDictionary
280
     1
281
     1
  3
ACAD_XREC_ROUNDTRIP
360
145B3
  0
DICTIONARY
  5
145CA
330
3DD3
100
AcDbDictionary
280
     1
281
     1
  3
ACAD_XREC_ROUNDTRIP
360
145CB
  0
XRECORD
  5
145A0
102
{ACAD_REACTORS
330
4CA9
102
}
330
4CA9
100
AcDbXrecord
280
     1
102
SHADEPLOT
 70
     0
102
SHADEPLOTRESLEVEL
 70
     2
102
SHADEPLOTCUSTOMDPI
 70
   300
  0
XRECORD
  5
4CAA
102
{ACAD_REACTORS
330
4CA9
102
}
330
4CA9
100
AcDbXrecord
280
     1
310
280000000001000088000000010008000000000000880000000000000000000000010000000000000000000000000000C8C8C8000000000000000000000000000000000000000000000000000000000000000000330000006600000099000000CC000000FF00000000330000333300006633000099330000CC330000FF3300
310
0000660000336600006666000099660000CC660000FF66000000990000339900006699000099990000CC990000FF99000000CC000033CC000066CC000099CC0000CCCC0000FFCC000000FF000033FF000066FF000099FF0000CCFF0000FFFF000000003300330033006600330099003300CC003300FF003300003333003333
310
33006633330099333300CC333300FF33330000663300336633006666330099663300CC663300FF66330000993300339933006699330099993300CC993300FF99330000CC330033CC330066CC330099CC3300CCCC3300FFCC330000FF330033FF330066FF330099FF3300CCFF3300FFFF330000006600330066006600660099
310
006600CC006600FF00660000336600333366006633660099336600CC336600FF33660000666600336666006666660099666600CC666600FF66660000996600339966006699660099996600CC996600FF99660000CC660033CC660066CC660099CC6600CCCC6600FFCC660000FF660033FF660066FF660099FF6600CCFF6600
310
FFFF660000009900330099006600990099009900CC009900FF00990000339900333399006633990099339900CC339900FF33990000669900336699006666990099669900CC669900FF66990000999900339999006699990099999900CC999900FF99990000CC990033CC990066CC990099CC9900CCCC9900FFCC990000FF99
310
0033FF990066FF990099FF9900CCFF9900FFFF99000000CC003300CC006600CC009900CC00CC00CC00FF00CC000033CC003333CC006633CC009933CC00CC33CC00FF33CC000066CC003366CC006666CC009966CC00CC66CC00FF66CC000099CC003399CC006699CC009999CC00CC99CC00FF99CC0000CCCC0033CCCC0066CC
310
CC0099CCCC00CCCCCC00FFCCCC0000FFCC0033FFCC0066FFCC0099FFCC00CCFFCC00FFFFCC000000FF003300FF006600FF009900FF00CC00FF00FF00FF000033FF003333FF006633FF009933FF00CC33FF00FF33FF000066FF003366FF006666FF009966FF00CC66FF00FF66FF000099FF003399FF006699FF009999FF00CC
310
99FF00FF99FF0000CCFF0033CCFF0066CCFF0099CCFF00CCCCFF00FFCCFF0000FFFF0033FFFF0066FFFF0099FFFF00CCFFFF00FFFFFF00000000000D0D0D001A1A1A00282828003535350043434300505050005D5D5D006B6B6B00787878008686860093939300A1A1A100AEAEAE00BBBBBB00C9C9C900D6D6D600E4E4E400
310
F1F1F100FFFFFF000000000000000000000000000000000000000000000000000000000000000000000000000000000000000000000000000000000000000000000000000000000000000000000000000000000000000000000000000000000000000000000000000000000000000000000000000000000000000000000000
310
00000000000000000000000000000000000000000000000000000000000000000000000000000000000000000000000000000000000000000000000000000000000000000000000000000000000000000000000000000000000000000000000000000000000000000000000000000000000000000000000000000000000000
310
00000000000000000000000000000000000000000000000000000000000000000000000000000000000000000000000000000000000000000000000000000000000000000000000000000000000000000000000000000000000000000000000000000000000000000000000000000000000000000000000000000000000000
310
00000000000000000000000000000000000000000000000000000000000000000000000000000000000000000000000000000000000000000000000000000000000000000000000000000000000000000000000000000000000000000000000000000000000000000000000000000000000000000000000000000000000000
310
00000000000000000000000000000000000000000000000000000000000000000000000000000000000000000000000000000000000000000000000000000000000000000000000000000000000000000000000000000000000000000000000000000000000000000000000000000000000000000000000000000000000000
310
00000000000000000000000000000000000000000000000000000000000000000000000000000000000000000000000000000000000000000000000000000000000000000000000000000000000000000000000000000000000000000000000000000000000000000000000000000000000000000000000000000000000000
310
00000000000000000000000000000000000000000000000000000000000000000000000000000000000000000000000000000000000000000000000000000000000000000000000000000000000000000000000000000000000000000000000000000000000000000000000000000000000000000000000000000000000000
310
00000000000000000000000000000000000000000000000000000000000000000000000000000000000000000000000000000000000000000000000000000000000000000000000000000000000000000000000000000000000000000000000000000000000000000000000000000000000000000000000000000000000000
310
00000000000000000000000000000000000000000000000000000000000000000000000000000000000000000000000000000000000000000000000000000000000000000000000000000000000000000000000000000000000000000000000000000000000000000000000000000000000000000000000000000000000000
310
00000000000000000000000000000000000000000000000000000000000000000000000000000000000000000000000000000000000000000000000000000000000000000000000000000000000000000000000000000000000000000000000000000000000000000000000000000000000000000000000000000000000000
310
00000000000000000000000000000000000000000000000000000000000000000000000000000000000000000000000000000000000000000000000000000000000000000000000000000000000000000000000000000000000000000000000000000000000000000000000000000000000000000000000000000000000000
310
00000000000000000000000000000000000000000000000000000000000000000000000000000000000000000000000000000000000000000000000000000000000000000000000000000000000000000000000000000000000000000000000000000000000000000000000000000000000000000000000000000000000000
310
00000000000000000000000000000000000000000000000000000000000000000000000000000000000000000000000000000000000000000000000000000000000000000000000000000000000000000000000000000000000000000000000000000000000000000000000000000000000000000000000000000000000000
310
00000000000000000000000000000000000000000000000000000000000000000000000000000000000000000000000000000000000000000000000000000000000000000000000000000000000000000000000000000000000000000000000000000000000000000000000000000000000000000000000000000000000000
310
00000000000000000000000000000000000000000000000000000000000000000000000000000000000000000000000000000000000000000000000000000000000000000000000000000000000000000000000000000000000000000000000000000000000000000000000000000000000000000000000000000000000000
310
00000000000000000000000000000000000000000000000000000000000000000000000000000000000000000000000000000000000000000000000000000000000000000000000000000000000000000000000000000000000000000000000000000000000000000000000000000000000000000000000000000000000000
310
00000000000000000000000000000000000000000000000000000000000000000000000000000000000000000000000000000000000000000000000000000000000000000000000000000000000000000000000000000000000000000000000000000000000000000000000000000000000000000000000000000000000000
310
00000000000000000000000000000000000000000000000000000000000000000000000000000000000000000000000000000000000000000000000000000000000000000000000000000000000000000000000000000000000000000000000000000000000000000000000000000000000000000000000000000000000000
310
00000000000000000000000000000000000000000000000000000000000000000000000000000000000000000000000000000000000000000000000000000000000000000000000000000000000000000000000000000000000000000000000000000000000000000000000000000000000000000000000000000000000000
310
00000000000000000000000000000000000000000000000000000000000000000000000000000000000000000000000000000000000000000000000000000000000000000000000000000000000000000000000000000000000000000000000000000000000000000000000000000000000000000000000000000000000000
310
00000000000000000000000000000000000000000000000000000000000000000000000000000000000000000000000000000000000000000000000000000000000000000000000000000000000000000000000000000000000000000000000000000000000000000000000000000000000000000000000000000000000000
310
00000000000000000000000000000000000000000000000000000000000000000000000000000000000000000000000000000000000000000000000000000000000000000000000000000000000000000000000000000000000000000000000000000000000000000000000000000000000000000000000000000000000000
310
00000000000000000000000000000000000000000000000000000000000000000000000000000000000000000000000000000000000000000000000000000000000000000000000000000000000000000000000000000000000000000000000000000000000000000000000000000000000000000000000000000000000000
310
00000000000000000000000000000000000000000000000000000000000000000000000000000000000000000000000000000000000000000000000000000000000000000000000000000000000000000000000000000000000000000000000000000000000000000000000000000000000000000000000000000000000000
310
00000000000000000000000000000000000000000000000000000000000000000000000000000000000000000000000000000000000000000000000000000000000000000000000000000000000000000000000000000000000000000000000000000000000000000000000000000000000000000000000000000000000000
310
00000000000000000000000000000000000000000000000000000000000000000000000000000000000000000000000000000000000000000000000000000000000000000000000000000000000000000000000000000000000000000000000000000000000000000000000000000000000000000000000000000000000000
310
00000000000000000000000000000000000000000000000000000000000000000000000000000000000000000000000000000000000000000000000000000000000000000000000000000000000000000000000000000000000000000000000000000000000000000000000000000000000000000000000000000000000000
310
00000000000000000000000000000000000000000000000000000000000000000000000000000000000000000000000000000000000000000000000000000000000000000000000000000000000000000000000000000000000000000000000000000000000000000000000000000000000000000000000000000000000000
310
00000000000000000000000000000000000000000000000000000000000000000000000000000000000000000000000000000000000000000000000000000000000000000000000000000000000000000000000000000000000000000000000000000000000000000000000000000000000000000000000000000000000000
310
00000000000000000000000000000000000000000000000000000000000000000000000000000000000000000000000000000000000000000000000000000000000000000000000000000000000000000000000000000000000000000000000000000000000000000000000000000000000000000000000000000000000000
310
00000000000000000000000000000000000000000000000000000000000000000000000000000000000000000000000000000000000000000000000000000000000000000000000000000000000000000000000000000000000000000000000000000000000000000000000000000000000000000000000000000000000000
310
00000000000000000000000000000000000000000000000000000000000000000000000000000000000000000000000000000000000000000000000000000000000000000000000000000000000000000000000000000000000000000000000000000000000000000000000000000000000000000000000000000000000000
310
00000000000000000000000000000000000000000000000000000000000000000000000000000000000000000000000000000000000000000000000000000000000000000000000000000000000000000000000000000000000000000000000000000000000000000000000000000000000000000000000000000000000000
310
00000000000000000000000000000000000000000000000000000000000000000000000000000000000000000000000000000000000000000000000000000000000000000000000000000000000000000000000000000000000000000000000000000000000000000000000000000000000000000000000000000000000000
310
00000000000000000000000000000000000000000000000000000000000000000000000000000000000000000000000000000000000000000000000000000000000000000000000000000000000000000000000000000000000000000000000000000000000000000000000000000000000000000000000000000000000000
310
00000000000000000000000000000000000000000000000000000000000000000000000000000000000000000000000000000000000000000000000000000000000000000000000000000000000000000000000000000000000000000000000000000000000000000000000000000000000000000000000000000000000000
310
00000000000000000000000000000000000000000000000000000000000000000000000000000000000000000000000000000000000000000000000000000000000000000000000000000000000000000000000000000000000000000000000000000000000000000000000000000000000000000000000000000000000000
310
00000000000000000000000000000000000000000000000000000000000000000000000000000000000000000000000000000000000000000000000000000000000000000000000000000000000000000000000000000000000000000000000000000000000000000000000000000000000000000000000000000000000000
310
00000000000000000000000000000000000000000000000000000000000000000000000000000000000000000000000000000000000000000000000000000000000000000000000000000000000000000000000000000000000000000000000000000000000000000000000000000000000000000000000000000000000000
310
00000000000000000000000000000000000000000000000000000000000000000000000000000000000000000000000000000000000000000000000000000000000000000000000000000000000000000000000000000000000000000000000000000000000000000000000000000000000000000000000000000000000000
310
00000000000000000000000000000000000000000000000000000000000000000000000000000000000000000000000000000000000000000000000000000000000000000000000000000000000000000000000000000000000000000000000000000000000000000000000000000000000000000000000000000000000000
310
00000000000000000000000000000000000000000000000000000000000000000000000000000000000000000000000000000000000000000000000000000000000000000000000000000000000000000000000000000000000000000000000000000000000000000000000000000000000000000000000000000000000000
310
00000000000000000000000000000000000000000000000000000000000000000000000000000000000000000000000000000000000000000000000000000000000000000000000000000000000000000000000000000000000000000000000000000000000000000000000000000000000000000000000000000000000000
310
00000000000000000000000000000000000000000000000000000000000000000000000000000000000000000000000000000000000000000000000000000000000000000000000000000000000000000000000000000000000000000000000000000000000000000000000000000000000000000000000000000000000000
310
00000000000000000000000000000000000000000000000000000000000000000000000000000000000000000000000000000000000000000000000000000000000000000000000000000000000000000000000000000000000000000000000000000000000000000000000000000000000000000000000000000000000000
310
00000000000000000000000000000000000000000000000000000000000000000000000000000000000000000000000000000000000000000000000000000000000000000000000000000000000000000000000000000000000000000000000000000000000000000000000000000000000000000000000000000000000000
310
00000000000000000000000000000000000000000000000000000000000000000000000000000000000000000000000000000000000000000000000000000000000000000000000000000000000000000000000000000000000000000000000000000000000000000000000000000000000000000000000000000000000000
310
00000000000000000000000000000000000000000000000000000000000000000000000000000000000000000000000000000000000000000000000000000000000000000000000000000000000000000000000000000000000000000000000000000000000000000000000000000000000000000000000000000000000000
310
00000000000000000000000000000000000000000000000000000000000000000000000000000000000000000000000000000000000000000000000000000000000000000000000000000000000000000000000000000000000000000000000000000000000000000000000000000000000000000000000000000000000000
310
00000000000000000000000000000000000000000000000000000000000000000000000000000000000000000000000000000000000000000000000000000000000000000000000000000000000000000000000000000000000000000000000000000000000000000000000000000000000000000000000000000000000000
310
00000000000000000000000000000000000000000000000000000000000000000000000000000000000000000000000000000000000000000000000000000000000000000000000000000000000000000000000000000000000000000000000000000000000000000000000000000000000000000000000000000000000000
310
00000000000000000000000000000000000000000000000000000000000000000000000000000000000000000000000000000000000000000000000000000000000000000000000000000000000000000000000000000000000000000000000000000000000000000000000000000000000000000000000000000000000000
310
00000000000000000000000000000000000000000000000000000000000000000000000000000000000000000000000000000000000000000000000000000000000000000000000000000000000000000000000000000000000000000000000000000000000000000000000000000000000000000000000000000000000000
310
00000000000000000000000000000000000000000000000000000000000000000000000000000000000000000000000000000000000000000000000000000000000000000000000000000000000000000000000000000000000000000000000000000000000000000000000000000000000000000000000000000000000000
310
00000000000000000000000000000000000000000000000000000000000000000000000000000000000000000000000000000000000000000000000000000000000000000000000000000000000000000000000000000000000000000000000000000000000000000000000000000000000000000000000000000000000000
310
00000000000000000000000000000000000000000000000000000000000000000000000000000000000000000000000000000000000000000000000000000000000000000000000000000000000000000000000000000000000000000000000000000000000000000000000000000000000000000000000000000000000000
310
00000000000000000000000000000000000000000000000000000000000000000000000000000000000000000000000000000000000000000000000000000000000000000000000000000000000000000000000000000000000000000000000000000000000000000000000000000000000000000000000000000000000000
310
00000000000000000000000000000000000000000000000000000000000000000000000000000000000000000000000000000000000000000000000000000000000000000000000000000000000000000000000000000000000000000000000000000000000000000000000000000000000000000000000000000000000000
310
00000000000000000000000000000000000000000000000000000000000000000000000000000000000000000000000000000000000000000000000000000000000000000000000000000000000000000000000000000000000000000000000000000000000000000000000000000000000000000000000000000000000000
310
00000000000000000000000000000000000000000000000000000000000000000000000000000000000000000000000000000000000000000000000000000000000000000000000000000000000000000000000000000000000000000000000000000000000000000000000000000000000000000000000000000000000000
310
00000000000000000000000000000000000000000000000000000000000000000000000000000000000000000000000000000000000000000000000000000000000000000000000000000000000000000000000000000000000000000000000000000000000000000000000000000000000000000000000000000000000000
310
00000000000000000000000000000000000000000000000000000000000000000000000000000000000000000000000000000000000000000000000000000000000000000000000000000000000000000000000000000000000000000000000000000000000000000000000000000000000000000000000000000000000000
310
00000000000000000000000000000000000000000000000000000000000000000000000000000000000000000000000000000000000000000000000000000000000000000000000000000000000000000000000000000000000000000000000000000000000000000000000000000000000000000000000000000000000000
310
00000000000000000000000000000000000000000000000000000000000000000000000000000000000000000000000000000000000000000000000000000000000000000000000000000000000000000000000000000000000000000000000000000000000000000000000000000000000000000000000000000000000000
310
00000000000000000000000000000000000000000000000000000000000000000000000000000000000000000000000000000000000000000000000000000000000000000000000000000000000000000000000000000000000000000000000000000000000000000000000000000000000000000000000000000000000000
310
00000000000000000000000000000000000000000000000000000000000000000000000000000000000000000000000000000000000000000000000000000000000000000000000000000000000000000000000000000000000000000000000000000000000000000000000000000000000000000000000000000000000000
310
00000000000000000000000000000000000000000000000000000000000000000000000000000000000000000000000000000000000000000000000000000000000000000000000000000000000000000000000000000000000000000000000000000000000000000000000000000000000000000000000000000000000000
310
00000000000000000000000000000000000000000000000000000000000000000000000000000000000000000000000000000000000000000000000000000000000000000000000000000000000000000000000000000000000000000000000000000000000000000000000000000000000000000000000000000000000000
310
00000000000000000000000000000000000000000000000000000000000000000000000000000000000000000000000000000000000000000000000000000000000000000000000000000000000000000000000000000000000000000000000000000000000000000000000000000000000000000000000000000000000000
310
00000000000000000000000000000000000000000000000000000000000000000000000000000000000000000000000000000000000000000000000000000000000000000000000000000000000000000000000000000000000000000000000000000000000000000000000000000000000000000000000000000000000000
310
00000000000000000000000000000000000000000000000000000000000000000000000000000000000000000000000000000000000000000000000000000000000000000000000000000000000000000000000000000000000000000000000000000000000000000000000000000000000000000000000000000000000000
310
00000000000000000000000000000000000000000000000000000000000000000000000000000000000000000000000000000000000000000000000000000000000000000000000000000000000000000000000000000000000000000000000000000000000000000000000000000000000000000000000000000000000000
310
00000000000000000000000000000000000000000000000000000000000000000000000000000000000000000000000000000000000000000000000000000000000000000000000000000000000000000000000000000000000000000000000000000000000000000000000000000000000000000000000000000000000000
310
00000000000000000000000000000000000000000000000000000000000000000000000000000000000000000000000000000000000000000000000000000000000000000000000000000000000000000000000000000000000000000000000000000000000000000000000000000000000000F5F5F5F5F5F5F5F5F5F5F5F5
310
F5F5F5F5F5F5F5F5F50000000000F5F5F5F5F5F5F5F5F5F5F5F5F5F5F5F5F5F5F5F5F50000000000F5F5F5F5F5F5F5F5F5F5F5F5F5F5F5F5F5F5F5F5F5000000000000000000000000000000000000000000000000000000000000000000000000000000000000000000000000000000000000000000000000000000000000
310
000000000000000000000000000000000000000000000000000000000000000000000000000000000000000000000000000000000000000000000000000000000000000000000000000000000000000000000000000000000000000000000000000000000000000000000000000000000000000000F5282828282828282828
310
282828282828ECECECECF50000000000F5282828282828282828282828282828EC28ECECF50000000000F528282828C3282828282828C3282828EC28EC28F500000000000000000000000000000000000000000000000000000000000000000000000000000000000000000000000000000000000000000000000000000000
310
0000000000000000000000000000000000000000000000000000000000000000000000000000000000000000000000000000000000000000000000000000000000000000000000000000000000000000000000000000000000000000000000000000000000000000000000000000000000000000000000F5C30F0F0FC3C300
310
C30FC30FC3C3C328ECECECECF50000000000F50FC30FC3C3C3000F0F0F0FC3C30028ECECECECF50000000000F50F0FC300C3C3C30F0FC300C3C3C328EC28ECECF50000000000000000000000000000000000000000000000000000000000000000000000000000000000000000000000000000000000000000000000000000
310
00000000000000000000000000000000000000000000000000000000000000000000000000000000000000000000000000000000000000000000000000000000000000000000000000000000000000000000000000000000000000000000000000000000000000000000000000000000000000000000000000F5C30F0F0FC3
310
C3C3C30FBE0FC3C3C3C328ECEC28F50000000000F50F0F0FC3F5F5C30F0F0F0FC3F5C3C3ECECEC28F50000000000F528C3C3BEC3C3C328C3C3BEC3C3C328ECECEC28F5000000000000000000000000000000000000000000000000000000000000000000000000000000000000000000000000000000000000000000000000
310
000000000000000000000000000000000000000000000000000000000000000000000000000000000000000000000000000000000000000000000000000000000000000000000000000000000000000000000000000000000000000000000000000000000000000000000000000000000000000000000000000000F528C3C3
310
C3C3C3C3C3C3C3C3C3C3C3C328282828F50000000000F528C3C3C3C3C3C328C3C3C3C3C3C3C328282828F50000000000F5C3C300C3C3C3C3C3C300C3C3C3C3ECECECEC28F500000000000000000000000000000000000000000000000000000000000000000000000000000000000000000000000000000000000000000000
310
0000000000000000000000000000000000000000000000000000000000000000000000000000000000000000000000000000000000000000000000000000000000000000000000000000000000000000000000000000000000000000000000000000000000000000000000000000000000000000000000000000000000F5EC
310
ECECECBEC3C3C3ECECECECC3C3C300000028F50000000000F5C3C3C3C3C3C3C3C3C3C3C3C3C3C3C300000028F50000000000F5ECECECBEBEC3C3ECECECBEBEC3C32800000028F50000000000000000000000000000000000000000000000000000000000000000000000000000000000000000000000000000000000000000
310
00000000000000000000000000000000000000000000000000000000000000000000000000000000000000000000000000000000000000000000000000000000000000000000000000000000000000000000000000000000000000000000000000000000000000000000000000000000000000000000000000000000000000
310
F5ECECECECEC0FBEBEECECECECF5F52800000028F50000000000F5ECECECECF5F528ECECECECECF5282800000028F50000000000F5280028280FBEBE28000028F528BEECEC000028F5000000000000000000000000000000000000000000000000000000000000000000000000000000000000000000000000000000000000
310
00000000000000000000000000000000000000000000000000000000000000000000000000000000000000000000000000000000000000000000000000000000000000000000000000000000000000000000000000000000000000000000000000000000000000000000000000000000000000000000000000000000000000
310
0000F5ECECECEC28282828ECECEC28282828ECECEC28F50000000000F5ECECECEC282828ECECECEC28C32828ECECEC28F50000000000F5ECECECEC282828ECECECEC282828ECEC000028F500000000000000000000000000000000000000000000000000000000000000000000000000000000000000000000000000000000
310
00000000000000000000000000000000000000000000000000000000000000000000000000000000000000000000000000000000000000000000000000000000000000000000000000000000000000000000000000000000000000000000000000000000000000000000000000000000000000000000000000000000000000
310
00000000F5C3C3C3C3C3C300C3C3C3C3C3C3C3ECECECEC28F50000000000F528002800C3C3002800280000C300ECECECEC28F50000000000F5C3DCC300C3C3C3C3DCC300C30000ECECEC0028F50000000000000000000000000000000000000000000000000000000000000000000000000000000000000000000000000000
310
00000000000000000000000000000000000000000000000000000000000000000000000000000000000000000000000000000000000000000000000000000000000000000000000000000000000000000000000000000000000000000000000000000000000000000000000000000000000000000000000000000000000000
310
000000000000F5C3DCDCDCBE0FC3C3DCBEDCC3C3C3C3ECECEC28F50000000000F5DCC3DCC3C3C3C3DC7DDCDCC3C3C3C3ECECEC28F50000000000F5C3C3C3BEC3C3C3C37DC3BEC3C3C3ECECEC0028F5000000000000000000000000000000000000000000000000000000000000000000000000000000000000000000000000
310
00000000000000000000000000000000000000000000000000000000000000000000000000000000000000000000000000000000000000000000000000000000000000000000000000000000000000000000000000000000000000000000000000000000000000000000000000000000000000000000000000000000000000
310
0000000000000000F528BEC3C3C3C3C3C3BEBEC3C3C3C3C3ECECECECF50000000000F528C3C3C3C3C3C328C3C3C3C3C3C3C3ECECECECF50000000000F5C3C3C3C3C3C3C3C3C3C3C3C3C3C3ECECECEC28F500000000000000000000000000000000000000000000000000000000000000000000000000000000000000000000
310
00000000000000000000000000000000000000000000000000000000000000000000000000000000000000000000000000000000000000000000000000000000000000000000000000000000000000000000000000000000000000000000000000000000000000000000000000000000000000000000000000000000000000
310
00000000000000000000F528C3C3C3C3C3C3C3C300C300C3C3C3ECECECECF50000000000F5C3C3C3C3C3C3C3C3C3C3C3C3C3C3C3ECECECECF50000000000F5ECECECBEBEC3C3ECECECBEBEC3C3ECECECEC28F50000000000000000000000000000000000000000000000000000000000000000000000000000000000000000
310
00000000000000000000000000000000000000000000000000000000000000000000000000000000000000000000000000000000000000000000000000000000000000000000000000000000000000000000000000000000000000000000000000000000000000000000000000000000000000000000000000000000000000
310
000000000000000000000000F5ECECECECEC0FC3BEECECECECF5C3C3ECECECECF50000000000F5ECECECECF5F5C3ECECECECECF5C3C3ECECEC28F50000000000F5ECECECBEBEBEBEECECECBEBEBEBE2828282828F5000000000000000000000000000000000000000000000000000000000000000000000000000000000000
310
00000000000000000000000000000000000000000000000000000000000000000000000000000000000000000000000000000000000000000000000000000000000000000000000000000000000000000000000000000000000000000000000000000000000000000000000000000000000000000000000000000000000000
310
0000000000000000000000000000F5ECECECEC28C32828ECECEC280F0F2828282828F50000000000F5ECECECECF5F528ECECECEC28F5282828282828F50000000000F5ECECECEC282828ECECECEC2828282828282828F500000000000000000000000000000000000000000000000000000000000000000000000000000000
310
00000000000000000000000000000000000000000000000000000000000000000000000000000000000000000000000000000000000000000000000000000000000000000000000000000000000000000000000000000000000000000000000000000000000000000000000000000000000000000000000000000000000000
310
00000000000000000000000000000000F5F5F5F5F5F5F5F5F5F5F5F5F5F5F5F5F5F5F5F5F50000000000F5F5F5F5F5F5F5F5F5F5F5F5F5F5F5F5F5F5F5F5F50000000000F5F5F5F5F5F5F5F5F5F5F5F5F5F5F5F5F5F5F5F5F50000000000000000000000000000000000000000000000000000000000000000000000000000
310
00000000000000000000000000000000000000000000000000000000000000000000000000000000000000000000000000000000000000000000000000000000000000000000000000000000000000000000000000000000000000000000000000000000000000000000000000000000000000000000000000000000000000
310
000000000000000000000000000000000000F5C3C3C3C3C3C328C3C3C3C3C3C3C328ECECECECF50000000000F5C3C3C3C3C3C328C3C3C3C3C3C3C328EC28ECECF50000000000F5C3C3C328C32828C3C3C328C3C32828EC28EC28F5000000000000000000000000000000000000000000000000000000000000000000000000
310
00000000000000000000000000000000000000000000000000000000000000000000000000000000000000000000000000000000000000000000000000000000000000000000000000000000000000000000000000000000000000000000000000000000000000000000000000000000000000000000000000000000000000
310
0000000000000000000000000000000000000000F5C3C3C3C3C3C3C3C3C3C3C3C3C3C3C3ECECECECF50000000000F5C3C3C3C3C3C3C3C3C3C3C3C3C3C3C3ECECECECF50000000000F5C3C3C300C3C3C3C3C3C300C3C3C328EC28ECECF500000000000000000000000000000000000000000000000000000000000000000000
310
00000000000000000000000000000000000000000000000000000000000000000000000000000000000000000000000000000000000000000000000000000000000000000000000000000000000000000000000000000000000000000000000000000000000000000000000000000000000000000000000000000000000000
310
00000000000000000000000000000000000000000000F528BEC3C3C3C3C3C3BEBEC3C3C3C3C3ECECEC28F50000000000F528C3C3C3C3C3C328C3C3C3C3C3C3C3ECECEC28F50000000000F528C3C3BEC3C3C328C3C3C3C3C3C328ECECEC28F50000000000000000000000000000000000000000000000000000000000000000
310
00000000000000000000000000000000000000000000000000000000000000000000000000000000000000000000000000000000000000000000000000000000000000000000000000000000000000000000000000000000000000000000000000000000000000000000000000000000000000000000000000000000000000
310
000000000000000000000000000000000000000000000000F528C3C3C3C3C3C3C3C300C3C3C3C3C328282828F50000000000F5C3C3C3C3C3C3C3C3C3C3C3C3C3C3C328282828F50000000000F5C3C300C3C3C3C328C3C3C3C3C3C3ECECECEC28F5000000000000000000000000000000000000000000000000000000000000
310
00000000000000000000000000000000000000000000000000000000000000000000000000000000000000000000000000000000000000000000000000000000000000000000000000000000000000000000000000000000000000000000000000000000000000000000000000000000000000000000000000000000000000
310
0000000000000000000000000000000000000000000000000000F5ECECECECECF5C3C3ECECECECF5C3C300000028F50000000000F5ECECECECC3BEC3C3ECECECECC3C3C300000028F50000000000F5ECECECBEBEC3C328ECECBEBEC3C32800000028F500000000000000000000000000000000000000000000000000000000
310
00000000000000000000000000000000000000000000000000000000000000000000000000000000000000000000000000000000000000000000000000000000000000000000000000000000000000000000000000000000000000000000000000000000000000000000000000000000000000000000000000000000000000
310
00000000000000000000000000000000000000000000000000000000F5ECECECECECF5BEECECECECECF5F5BE00000028F50000000000F5ECECECECF5F528ECECECECECF5282800000028F50000000000F5280000BEBEBEBE280000BEBEBEBEECEC000028F50000000000000000000000000000000000000000000000000000
310
00000000000000000000000000000000000000000000000000000000000000000000000000000000000000000000000000000000000000000000000000000000000000000000000000000000000000000000000000000000000000000000000000000000000000000000000000000000000000000000000000000000000000
310
000000000000000000000000000000000000000000000000000000000000F5282828282828282828282828282828ECECEC28F50000000000F52828282828282828282828282828ECECECEC28F50000000000F5ECECECEC282828ECECECEC282828ECEC000028F5000000000000000000000000000000000000000000000000
310
00000000000000000000000000000000000000000000000000000000000000000000000000000000000000000000000000000000000000000000000000000000000000000000000000000000000000000000000000000000000000000000000000000000000000000000000000000000000000000000000000000000000000
310
000000000000000000000000000000000000000000C3C3000000000000000000F5C3C3C3C3C3C300C3C3C3C3C3C3C3ECECECEC28F50000000000F528C3C3C3C3C30028C3C3C3C3C300ECECECEC28F50000000000F5C3C3C300C30000C3C3C300C30000ECECEC0028F500000000000000000000000000000000000000000000
310
00000000000000000000000000000000000000000000000000000000000000000000000000000000000000000000000000000000000000000000000000000000000000000000000000000000000000000000000000000000000000000000000000000000000000000000000000000000000000000000000000000000000000
310
000000000000000000000000000000000000C3C3C3DCC3C3C3000000000000000000F5C3BEC3C3BEBEC3C3BEBEC3C3BEC3C3ECECEC28F50000000000F5C3C3DCC3C3C3C3C3C3C3C3C3C3C3ECECECEC28F50000000000F5C3C3C3BEBEC3C3C3C3C3BEBEC3C3ECECEC0028F50000000000000000000000000000000000000000
310
00000000000000000000000000000000000000000000000000000000000000000000000000000000000000000000000000000000000000000000000000000000000000000000000000000000000000000000000000000000000000000000000000000000000000000000000000000000000000000000000000000000000000
310
0000000000000000000000000000000000000000C3C3C3C3C3C30F000000000000000000F528BEC3C3C3C3C3C3BEBEC3C3C3C3C3ECECECECF50000000000F528C3C3C3C3C3C328C3C3C3C3C3C3ECECECECECF50000000000F5C3C3C3C3C3BEC3C3C3C3C3C3BEC3ECECECEC28F5000000000000000000000000000000000000
310
00000000000000000000000000000000000000000000000000000000000000000000000000000000000000000000000000000000000000000000000000000000000000000000000000000000000000000000000000000000000000000000000000000000000000000000000000000000000000000000000000000000000000
310
0000000000000000000000000000000000000000000000C300C3000000000000000000000000F528C3C3C3C3C3C3C3C300C300C3C3C3ECECECECF50000000000F5C3C3C3C3C3C3C3C3C3C3C3C3C3C3C3ECECECECF50000000000F5C3C300C3C3C3C3C3C300C3C3C3C3ECECECEC28F500000000000000000000000000000000
310
00000000000000000000000000000000000000000000000000000000000000000000000000000000000000000000000000000000000000000000000000000000000000000000000000000000000000000000000000000000000000000000000000000000000000000000000000000000000000000000000000000000000000
310
00000000000000000000000000000000000000000000000000000000000000000000000000000000F5ECECECECECC3C3BEECECECECF5C3C328282828F50000000000F5ECECECECC3C3C3ECECECECECF5C3C328282828F50000000000F5ECECECBEBEBEBEECECECBEBEC3BE2828282828F50000000000000000000000000000
310
00000000000000000000000000000000000000000000000000000000000000000000000000000000000000000000000000000000000000000000000000000000000000000000000000000000000000000000000000000000000000000000000000000000000000000000000000000000000000000000000000000000000000
310
000000000000000000000000000000000000000000000000000000000000000000000000000000000000F5ECECECEC28282828ECECEC28F5F52828282828F50000000000F5ECECECEC28282828ECECEC28F5282828282828F50000000000F5ECECECEC282828ECECEC28F528282828282828F5000000000000000000000000
310
00000000000000000000000000000000000000000000000000000000000000000000000000000000000000000000000000000000000000000000000000000000000000000000000000000000000000000000000000000000000000000000000000000000000000000000000000000000000000000000000000000000000000
310
000000000000000000000000000000000000000000F5F5F5F5F5F5F5F5F5F5F5F5F5F5F5F5F5F5F5F5F50000F5F5F5F5F5F5F5F5F5F5F5F5F5F5F5F5F5F5F5F5F50000000000F5F5F5F5F5F5F5F5F5F5F5F5F5F5F5F5F5F5F5F5F50000000000F5F5F5F5F5F5F5F5F5F5F5F5F5F5F5F5F5F5F5F5F500000000000000000000
310
00000000000000000000000000000000000000000000000000000000000000000000000000000000000000000000000000000000000000000000000000000000000000000000000000000000000000000000000000000000000000000000000000000000000000000000000000000000000000000000000000000000000000
310
0000000000000000000000000000000000000000000000F5F5F528C3C32828C3C328C3C3282828ECECF5F5280000F5282828282828282828282828282828ECECECECF50000000000F5282828282828282828282828282828EC28ECECF50000000000F5282828282828282828282828282828EC28EC28F50000000000000000
310
00000000000000000000000000000000000000000000000000000000000000000000000000000000000000000000000000000000000000000000000000000000000000000000000000000000000000000000000000000000000000000000000000000000000000000000000000000000000000000000000000000000000000
310
00000000000000000000000000000000000000000000000000F528C3F5C3C3C3C3C3C300C3C3C3C328ECF528EC280000F5280000000000000000000000000028ECECECECF50000000000F5280000000000000000000000000028ECECECECF50000000000F5280000000000000000000000000028EC28ECECF5000000000000
310
00000000000000000000000000000000000000000000000000000000000000000000000000000000000000000000000000000000000000000000000000000000000000000000000000000000000000000000000000000000000000000000000000000000000000000000000000000000000000000000000000000000000000
310
000000000000000000000000000000000000000000000000000000F528C3C3F500C3C3C3C3BEC3C3C300F5F5ECEC28280000F52800C3C3000000C3C30000C30000ECECECEC28F50000000000F52800C3C30000C3C30000C3C30000ECECECEC28F50000000000F52800C3C30000000000C3C300000028ECECEC28F500000000
310
00000000000000000000000000000000000000000000000000000000000000000000000000000000000000000000000000000000000000000000000000000000000000000000000000000000000000000000000000000000000000000000000000000000000000000000000000000000000000000000000000000000000000
310
0000000000000000000000000000000000000000000000000000000000F52800C3C3F5F5C3C3C3C3C3C3C3F52828282828280000F528C3DCBEC3C3C3DCC3C3BEC3C3C32828282828F50000000000F528C3DCC3C3C3DCC3C3BEBEC3C3C32828282828F50000000000F528C3DCDCC3C300BEBEBEC3C3C300ECECECEC28F50000
310
00000000000000000000000000000000000000000000000000000000000000000000000000000000000000000000000000000000000000000000000000000000000000000000000000000000000000000000000000000000000000000000000000000000000000000000000000000000000000000000000000000000000000
310
00000000000000000000000000000000000000000000000000000000000000F52800ECEC0000F500C3BEBEBEF5C3ECECECEC00F50000F528C3DCBEC3C3C3DCC3C3C3C3C3C32800000028F50000000000F528C3DCC3C3C3DCC3C3BEBEBEC3C32800000028F50000000000F528C3DCDCC3C3C3C3C3C3C3C3C3002800000028F5
310
00000000000000000000000000000000000000000000000000000000000000000000000000000000000000000000000000000000000000000000000000000000000000000000000000000000000000000000000000000000000000000000000000000000000000000000000000000000000000000000000000000000000000
310
000000000000000000000000000000000000000000000000000000000000000000F52828ECEC2828ECF5F528F5F52828ECECEC0000F50000F528C3C3BEC3C3C3C3C3C3BEBEBEC32800000028F50000000000F528C3C3C3C3C3C3C3C3BEBEBEBEC32800000028F50000000000F528C3C3C3C3C3C3BEBEBEBEBEC300ECEC0000
310
28F50000000000000000000000000000000000000000000000000000000000000000000000000000000000000000000000000000000000000000000000000000000000000000000000000000000000000000000000000000000000000000000000000000000000000000000000000000000000000000000000000000000000
310
0000000000000000000000000000000000000000000000000000000000000000000000F5282828282828282828F5282828282828282828280000F52800ECBEC30000C3C3C3C3C3C3C3ECECECEC28F50000000000F52800C3C3C300C3C3C3C3BEC3C3C3ECECECEC28F50000000000F52800C3C3C30000C3BEBEC3BEC300ECEC
310
EC0028F5000000000000000000000000000000000000000000000000000000000000000000000000000000000000000000000000000000000000000000000000000000000000000000000000000000000000000000000000000000000000000000000000000000000000000000000000000000000000000000000000000000
310
00000000000000000000000000000000000000000000000000000000000000000000000000F528C3C3C3C3C3C3F5F500F5F5C300ECECECEC00F50000F52800C3C30000ECECECC3C3C3C3C3ECECECEC28F50000000000F528ECC3C30000ECEC00C3C3C3C3C3ECECECEC28F50000000000F52800C3C3000000C3C3C3C3C3C300
310
ECECEC0028F500000000000000000000000000000000000000000000000000000000000000000000000000000000000000000000000000000000000000000000000000000000000000000000000000000000000000000000000000000000000000000000000000000000000000000000000000000000000000000000000000
310
000000000000000000000000000000000000000000000000000000000000000000000000000000F528C3C3BE00C3F5C3C3BEC3C3F5C3ECECEC0000F50000F52800ECEC0000ECECECBEBEBEBEC3ECECEC0028F50000000000F528ECECEC0000ECECC3BEBEBEC3C3ECECEC0028F50000000000F52800ECECEC00C3BEBEBEBEC3
310
C300ECECEC0028F50000000000000000000000000000000000000000000000000000000000000000000000000000000000000000000000000000000000000000000000000000000000000000000000000000000000000000000000000000000000000000000000000000000000000000000000000000000000000000000000
310
0000000000000000000000000000000000000000000000000000000000000000000000000000000000F52800C3C3F5F5C3C3C3C3C3C3C3F5ECEC282828280000F5280000000000000000BEBEBEBE28ECEC282828F50000000000F5280000000000000000BEBEBEBEBEEC28282828F50000000000F528000000000028282828
310
28282800EC28282828F5000000000000000000000000000000000000000000000000000000000000000000000000000000000000000000000000000000000000000000000000000000000000000000000000000000000000000000000000000000000000000000000000000000000000000000000000000000000000000000
310
00000000000000000000000000000000000000000000000000000000000000000000000000000000000000F52800ECF50000EC00C3BEBEC3C3C3F5F5ECECEC280000F5280000000000000000000000000028ECECECECF50000000000F52800000000000000000000000000ECECECECECF50000000000F52800000000000000
310
000000000000ECECECEC28F500000000000000000000000000000000000000000000000000000000000000000000000000000000000000000000000000000000000000000000000000000000000000000000000000000000000000000000000000000000000000000000000000000000000000000000000000000000000000
310
000000000000000000000000000000000000000000000000000000000000000000000000000000000000000000F52800F5EC0000ECEC28BEBEBE280028ECF5ECEC280000F528000000000000000000000000002828282828F50000000000F528000000000000000000000000002828282828F50000000000F5280000000000
310
00000000000000002828282828F50000000000000000000000000000000000000000000000000000000000000000000000000000000000000000000000000000000000000000000000000000000000000000000000000000000000000000000000000000000000000000000000000000000000000000000000000000000000
310
0000000000000000000000000000000000000000000000000000000000000000000000000000000000000000000000F5F5F5ECEC282828282828C3282828282828F5F5F50000F5ECECECEC282828282828282828282828282828F50000000000F5ECECECEC282828282828282828282828282828F50000000000F5ECECECEC
310
282828282828282828282828282828F5000000000000000000000000000000000000000000000000000000000000000000000000000000000000000000000000000000000000000000000000000000000000000000000000000000000000000000000000000000000000000000000000000000000000000000000000000000
310
00000000000000000000000000000000000000000000000000000000000000000000000000000000000000000000000000F5F5F5F5F5F5F5F5F5F5F5F5F5F5F5F5F5F5F5F5F50000F5F5F5F5F5F5F5F528F5F5F5F5F5F528F5F528F5F50000000000F5F5F5F5F5F5F5F5F5F5F5F5F5F5F528F528F5F5F50000000000F5F5F5
310
F5F5F5F5F528F5F5F5F5F5F528F528F5F5F500000000000000000000000000000000000000000000000000000000000000000000000000000000000000000000000000000000000000000000000000000000000000000000000000000000000000000000000000000000000000000000000000000000000000000000000000
310
0000000000000000000000000000000000000000000000000000000000000000000000000000000000000000000000000000000000000000000000000000000000000000000000000000F5280028282828282800000000000028ECECECECF50000000000F528002828280F282800000000000028EC28ECECF50000000000F5
310
282828282828282800000000000028EC28ECECF50000000000000000000000000000000000000000000000000000000000000000000000000000000000000000000000000000000000000000000000000000000000000000000000000000000000000000000000000000000000000000000000000000000000000000000000
310
00000000000000000000000000000000000000000000000000000000000000000000000000000000000000000000000000000000000000000000000000000000000000000000000000000000F52800C3C3C30FBE2800000000000028ECECECECF50000000000F52800C3C3C30FBE0000000000000028ECECECECF500000000
310
00F5282828000000002800000000000028EC28ECECF5000000000000000000000000000000000000000000000000000000000000000000000000000000000000000000000000000000000000000000000000000000000000000000000000000000000000000000000000000000000000000000000000000000000000000000
310
000000000000000000000000000000000000000000000000000000000000000000000000000000000000000000000000000000000000000000000000000000000000000000000000000000000000F52800C3BEC3C3BEC3000000000000ECECECEC28F50000000000F52800C3BEC3C3BEC3000000000000ECECECEC28F50000
310
000000F52828C3C30000002800000000000028ECECEC28F500000000000000000000000000000000000000000000000000000000000000000000000000000000000000000000000000000000000000000000000000000000000000000000000000000000000000000000000000000000000000000000000000000000000000
310
0000000000000000000000000000000000000000000000000000000000000000000000000000000000000000000000000000000000000000000000000000000000000000000000000000000000000000F52800C3C3C3C3C3280000000000002828282828F50000000000F52800C3ECC3C3C3000000000000002828282828F5
310
0000000000F52828C3C300000028000000000000ECECECEC28F50000000000000000000000000000000000000000000000000000000000000000000000000000000000000000000000000000000000000000000000000000000000000000000000000000000000000000000000000000000000000000000000000000000000
310
00000000000000000000000000000000000000000000000000000000000000000000000000000000000000000000000000000000000000000000000000000000000000000000000000000000000000000000F52800C3BEBE0000280000000000002800000028F50000000000F52800C3BEBE00000000000000000028000000
310
28F50000000000F52828C3C3000000280000000000002800000028F5000000000000000000000000000000000000000000000000000000000000000000000000000000000000000000000000000000000000000000000000000000000000000000000000000000000000000000000000000000000000000000000000000000
310
000000000000000000000000000000000000000000000000000000000000000000000000000000000000000000000000000000000000000000000000000000000000000000000000000000000000000000000000F52800C3C3C30000280000000000002800000028F50000000000F52800C3C3C30000000000000000002800
310
000028F50000000000F52828C3C3C30000280000000000002800000028F500000000000000000000000000000000000000000000000000000000000000000000000000000000000000000000000000000000000000000000000000000000000000000000000000000000000000000000000000000000000000000000000000
310
0000000000000000000000000000000000000000000000000000000000000000000000000000000000000000000000000000000000000000000000000000000000000000000000000000000000000000000000000000F52800C3C3BE000028000000000000ECECECEC28F50000000000F52800C3C3BE000000000000000000
310
ECECECEC28F50000000000F52828C3C3C3000028000000000000ECEC000028F50000000000000000000000000000000000000000000000000000000000000000000000000000000000000000000000000000000000000000000000000000000000000000000000000000000000000000000000000000000000000000000000
310
00000000000000000000000000000000000000000000000000000000000000000000000000000000000000000000000000000000000000000000000000000000000000000000000000000000000000000000000000000000F52800C3C3C3C30028000000000000ECECECEC28F50000000000F52800C3C3C3C3000000000000
310
0000ECECECEC28F50000000000F52828C3C3C3000028000000000000ECECEC0028F5000000000000000000000000000000000000000000000000000000000000000000000000000000000000000000000000000000000000000000000000000000000000000000000000000000000000000000000000000000000000000000
310
000000000000000000000000000000000000000000000000000000000000000000000000000000000000000000000000000000000000000000000000000000000000000000000000000000000000000000000000000000000000F5ECECC3C3DC280028000000000000ECECEC0028F50000000000F5ECECC3C3DC2800000000
310
00000000ECECEC0028F50000000000F5280000C3C3000028000000000000ECECEC0028F500000000000000000000000000000000000000000000000000000000000000000000000000000000000000000000000000000000000000000000000000000000000000000000000000000000000000000000000000000000000000
310
0000000000000000000000000000000000000000000000000000000000000000000000000000000000000000000000000000000000000000000000000000000000000000000000000000000000000000000000000000000000000000F5280028C3C3000028000000000000ECECECECECF50000000000F5280028C3C3000000
310
000000000000ECECECEC28F50000000000F5280000C300000028000000000000ECECECEC28F50000000000000000000000000000000000000000000000000000000000000000000000000000000000000000000000000000000000000000000000000000000000000000000000000000000000000000000000000000000000
310
00000000000000000000000000000000000000000000000000000000000000000000000000000000000000000000000000000000000000000000000000000000000000000000000000000000000000000000000000000000000000000000F5ECECC3BEDC00002800000000000028ECECECECF50000000000F5ECECC3C3DC00
310
000000000000000028ECECEC28F50000000000F5ECECC3DC00000028000000000000ECECECEC28F5000000000000000000000000000000000000000000000000000000000000000000000000000000000000000000000000000000000000000000000000000000000000000000000000000000000000000000000000000000
310
000000000000000000000000000000000000000000000000000000000000000000000000000000000000000000000000000000000000000000000000000000000000000000000000000000000000000000000000000000000000000000000000F52800C3C3DC2800280000000000002828282828F50000000000F52800C3C3
310
DC2800000000000000002828282828F50000000000F52828C3DCC30000280000000000002828282828F500000000000000000000000000000000000000000000000000000000000000000000000000000000000000000000000000000000000000000000000000000000000000000000000000000000000000000000000000
310
0000000000000000000000000000000000000000000000000000000000000000000000000000000000000000000000000000000000000000000000000000000000000000000000000000000000000000000000000000000000000000000000000000F5ECECECC3C32828282828282828282828282828F50000000000F5ECEC
310
ECC3C32828282828282828282828282828F50000000000F5ECECECC3282828282828282828282828282828F50000000000000000000000000000000000000000000000000000000000000000000000000000000000000000000000000000000000000000000000000000000000000000000000000000000000000000000000
310
00000000000000000000000000000000000000000000000000000000000000000000000000000000000000000000000000000000000000000000000000000000000000000000000000000000000000000000000000000000000000000000000000000000F5F5F5F5F5F5F5F5F5F5F5F5F5F5F528F5F528F5F50000000000F5
310
F5F5F5F5F5F5F5F5F5F5F5F5F5F528F528F5F5F50000000000F5F5F5F5F5F5F5F5F5F5F5F5F5F5F5F5F5F5F5F5F5000000000000000000000000000000000000000000000000000000000000000000000000000000000000000000000000000000000000000000000000000000000000000000000000000000000000000000
310
000000000000000000000000000000000000000000000000000000000000000000000000000000000000000000000000000000000000000000000000000000000000000000000000000000000000000000000000000000000000000000000000000000000000F5280000000000000000000000000028ECECECECF500000000
310
00F5280000000000000000000000000028EC28ECECF50000000000F5280000000000000000000000000028EC28ECECF500000000000000000000000000000000000000000000000000000000000000000000000000000000000000000000000000000000000000000000000000000000000000000000000000000000000000
310
0000000000000000000000000000000000000000000000000000000000000000000000000000000000000000000000000000000000000000000000000000000000000000000000000000000000000000000000000000000000000000000000000000000000000000F5280000000000000000000000000028ECECECECF50000
310
000000F5280000000000000000000000000028ECECECECF50000000000F5280000000000000000000000000028EC28ECECF50000000000000000000000000000000000000000000000000000000000000000000000000000000000000000000000000000000000000000000000000000000000000000000000000000000000
310
00000000000000000000000000000000000000000000000000000000000000000000000000000000000000000000000000000000000000000000000000000000000000000000000000000000000000000000000000000000000000000000000000000000000000000000F5280FC30FC3C3C30FC3C300C3C3C3ECECECEC28F5
310
0000000000F528C3C3C3C3C3C3BEC3C300C3C300ECECECEC28F50000000000F5280000C3C3C3C3BEC3C30FC3C300ECECECEC28F5000000000000000000000000000000000000000000000000000000000000000000000000000000000000000000000000000000000000000000000000000000000000000000000000000000
310
000000000000000000000000000000000000000000000000000000000000000000000000000000000000000000000000000000000000000000000000000000000000000000000000000000000000000000000000000000000000000000000000000000000000000000000000F528BEBEC3C3BE0F0FC3C3BE0FBEC328282828
310
28F50000000000F528DCC3C3C3BE0FBEC3C3BE0FC3C32828282828F50000000000F5280000C3C3BE0FBEC3C30F0FC3C3ECECECEC28F500000000000000000000000000000000000000000000000000000000000000000000000000000000000000000000000000000000000000000000000000000000000000000000000000
310
0000000000000000000000000000000000000000000000000000000000000000000000000000000000000000000000000000000000000000000000000000000000000000000000000000000000000000000000000000000000000000000000000000000000000000000000000000F528BEC3ECECC3C3C3C3C3C3C3C3C32800
310
000028F50000000000F528C3C3ECC3C3C3C3C3C3C3C3C3C32800000028F50000000000F52800ECC3C3C3C3C3C3C3C3C3C3002800000028F50000000000000000000000000000000000000000000000000000000000000000000000000000000000000000000000000000000000000000000000000000000000000000000000
310
00000000000000000000000000000000000000000000000000000000000000000000000000000000000000000000000000000000000000000000000000000000000000000000000000000000000000000000000000000000000000000000000000000000000000000000000000000000F5ECECECECECBEC3F5BE28BEC3BEC3
310
2800000028F50000000000F5ECECECECECBEC3BEBEC3BEC3BEC32800000028F50000000000F5ECECECECECBEC3BEBEC3C3F5BE28ECEC000028F5000000000000000000000000000000000000000000000000000000000000000000000000000000000000000000000000000000000000000000000000000000000000000000
310
000000000000000000000000000000000000000000000000000000000000000000000000000000000000000000000000000000000000000000000000000000000000000000000000000000000000000000000000000000000000000000000000000000000000000000000000000000000000F5ECECECECEC28282828282828
310
2828ECECECEC28F50000000000F5ECECECEC28282828282828282828ECECECEC28F50000000000F5ECECECEC28282828282828282828ECEC000028F500000000000000000000000000000000000000000000000000000000000000000000000000000000000000000000000000000000000000000000000000000000000000
310
0000000000000000000000000000000000000000000000000000000000000000000000000000000000000000000000000000000000000000000000000000000000000000000000000000000000000000000000000000000000000000000000000000000000000000000000000000000000000000F528000000000000000000
310
00000000ECECECEC28F50000000000F52800000000000000000000000000ECECECEC28F50000000000F52800000000000000000000000000ECECEC0028F50000000000000000000000000000000000000000000000000000000000000000000000000000000000000000000000000000000000000000000000000000000000
310
00000000000000000000000000000000000000000000000000000000000000000000000000000000000000000000000000000000000000000000000000000000000000000000000000000000000000000000000000000000000000000000000000000000000000000000000000000000000000000000F5280FC30FC3C3C30F
310
C3C300C3C300ECECEC0028F50000000000F5280FC30FC3C3C3BEC3C300C3C300ECECEC0028F50000000000F52800000FC3C3C3BEC3C3C3C3C300ECECEC0028F5000000000000000000000000000000000000000000000000000000000000000000000000000000000000000000000000000000000000000000000000000000
310
000000000000000000000000000000000000000000000000000000000000000000000000000000000000000000000000000000000000000000000000000000000000000000000000000000000000000000000000000000000000000000000000000000000000000000000000000000000000000000000000F5280FC30FC300
310
0F0FC3C3000F00C3ECECECECECF50000000000F528C3C3C3C3000FBEC3C3000F00C3ECECECEC28F50000000000F5280000C3C3000FBEC3C3C30FC3C3ECECECEC28F500000000000000000000000000000000000000000000000000000000000000000000000000000000000000000000000000000000000000000000000000
310
0000000000000000000000000000000000000000000000000000000000000000000000000000000000000000000000000000000000000000000000000000000000000000000000000000000000000000000000000000000000000000000000000000000000000000000000000000000000000000000000000000F528BEBEC3
310
C3C3C3C3C3C3C3C3C3C328ECECECECF50000000000F528C3C3C3C3C3C3C3C3C3C3C3C3C328ECECECECF50000000000F5280000C3C3C3C3C3C3C3C3C3C3C3ECECECECECF50000000000000000000000000000000000000000000000000000000000000000000000000000000000000000000000000000000000000000000000
310
00000000000000000000000000000000000000000000000000000000000000000000000000000000000000000000000000000000000000000000000000000000000000000000000000000000000000000000000000000000000000000000000000000000000000000000000000000000000000000000000000000000F528EC
310
ECECECBEC3C3C300C3C3C3C32828282828F50000000000F5ECECC3ECC3C3C3C3C3C3C3C3C3C32828282828F50000000000F52800ECC3ECC3C3C3C3C3C3C3C30028282828ECF5000000000000000000000000000000000000000000000000000000000000000000000000000000000000000000000000000000000000000000
310
000000000000000000000000000000000000000000000000000000000000000000000000000000000000000000000000000000000000000000000000000000000000000000000000000000000000000000000000000000000000000000000000000000000000000000000000000000000000000000000000000000000000F5
310
ECECECECEC28282828282828BEBE2828282828F50000000000F5ECECECEC2828282828282828BE282828282828F50000000000F5ECECECEC2828282828282828BE282828282828F500000000000000000000000000000000000000000000000000000000000000000000000000000000000000000000000000000000000000
310
00000000000000000000000000000000000000000000000000000000000000000000000000000000000000000000000000000000000000000000000000000000000000000000000000000000000000000000000000000000000000000000000000000000000000000000000000000000000000000000000000000000000000
310
00F5F5F5F5F5F5F5F5F5F5F5F5F5F5F528F5F528F5F50000000000F5F5F5F5F5F5F5F5F5F5F5F5F5F5F528F528F5F5F50000000000F5F5F5F5F5F5F5F5F5F5F5F5F5F5F528F528F5F5F50000000000000000000000000000000000000000000000000000000000000000000000000000000000000000000000000000000000
310
00000000000000000000000000000000000000000000000000000000000000000000000000000000000000000000000000000000000000000000000000000000000000000000000000000000000000000000000000000000000000000000000000000000000000000000000000000000000000000000000000000000000000
310
000000F5280000000000000000000000000028ECECECECF50000000000F5280000000000000000000000000028EC28ECECF50000000000F5280000000000000000000000000028EC28ECECF5000000000000000000000000000000000000000000000000000000000000000000000000000000000000000000000000000000
310
00000000000000000000000000000000000000000000000000000000000000000000000000000000000000000000000000000000000000000000000000000000000000000000000000000000000000000000000000000000000000000000000000000000000000000000000000000000000000000000000000000000000000
310
0000000000F5280F0F0F0F000F0F0000000F000028ECECECECF50000000000F5280F000F0F000F0000000F0F000028ECECECECF50000000000F52800000F00000F0000000F0F000028EC28ECECF500000000000000000000000000000000000000000000000000000000000000000000000000000000000000000000000000
310
00000000000000000000000000000000000000000000000000000000000000000000000000000000000000000000000000000000000000000000000000000000000000000000000000000000000000000000000000000000000000000000000000000000000000000000000000000000000000000000000000000000000000
310
00000000000000F5280FC30FC3C3C3F5C3C300C3C3C3ECECECEC28F50000000000F528C3C3C3C3C3C3BEC3C30FC3C300ECECECEC28F50000000000F5280000C3C3C3C3C3C3C30FC3C300ECECECEC28F50000000000000000000000000000000000000000000000000000000000000000000000000000000000000000000000
310
00000000000000000000000000000000000000000000000000000000000000000000000000000000000000000000000000000000000000000000000000000000000000000000000000000000000000000000000000000000000000000000000000000000000000000000000000000000000000000000000000000000000000
310
000000000000000000F528BEBEC3F5BE0F0FC3C3BE0FBEC3C328282828F50000000000F528F5C3F5C3BE0FBEC3C30F0FC3C3C328282828F50000000000F5280000F5C3BEF5BEC3BE0F0FC3C3ECECECEC28F5000000000000000000000000000000000000000000000000000000000000000000000000000000000000000000
310
00000000000000000000000000000000000000000000000000000000000000000000000000000000000000000000000000000000000000000000000000000000000000000000000000000000000000000000000000000000000000000000000000000000000000000000000000000000000000000000000000000000000000
310
0000000000000000000000F528BEC3ECECC3C3C3C3C3C3C3C3C32800000028F50000000000F5ECC3C3ECC3C3C3C3C3C3C3C3C3C32800000028F50000000000F52800ECC3C3C3C3C3C3C3C3C3C3002800000028F500000000000000000000000000000000000000000000000000000000000000000000000000000000000000
310
00000000000000000000000000000000000000000000000000000000000000000000000000000000000000000000000000000000000000000000000000000000000000000000000000000000000000000000000000000000000000000000000000000000000000000000000000000000000000000000000000000000000000
310
00000000000000000000000000F5ECECECECECBEF5F5BE28BEF5BEC32800000028F50000000000F5ECECECECECBEF5BEBEC3F5F5BEC32800000028F50000000000F5ECECECEC28BEF5BEBEBEF5F5BE28ECEC000028F50000000000000000000000000000000000000000000000000000000000000000000000000000000000
310
00000000000000000000000000000000000000000000000000000000000000000000000000000000000000000000000000000000000000000000000000000000000000000000000000000000000000000000000000000000000000000000000000000000000000000000000000000000000000000000000000000000000000
310
000000000000000000000000000000F5ECECECECEC282828282828282828ECECECEC28F50000000000F5ECECECEC28282828282828282828ECECECEC28F50000000000F5ECECECEC28282828282828282828ECEC000028F5000000000000000000000000000000000000000000000000000000000000000000000000000000
310
00000000000000000000000000000000000000000000000000000000000000000000000000000000000000000000000000000000000000000000000000000000000000000000000000000000000000000000000000000000000000000000000000000000000000000000000000000000000000000000000000000000000000
310
0000000000000000000000000000000000F52800000000000000000000000000ECECECEC28F50000000000F52800000000000000000000000000ECECECEC28F50000000000F52800000000000000000000000000ECECEC0028F500000000000000000000000000000000000000000000000000000000000000000000000000
310
00000000000000000000000000000000000000000000000000000000000000000000000000000000000000000000000000000000000000000000000000000000000000000000000000000000000000000000000000000000000000000000000000000000000000000000000000000000000000000000000000000000000000
310
00000000000000000000000000000000000000F5280F0F0F0FC30F0FC3C3000FC3C3ECECEC0028F50000000000F5280FC30F0FC30FBEC3C3000FC300ECECEC0028F50000000000F52800000FC3C30FBEC3C30F0FC300ECECEC0028F50000000000000000000000000000000000000000000000000000000000000000000000
310
00000000000000000000000000000000000000000000000000000000000000000000000000000000000000000000000000000000000000000000000000000000000000000000000000000000000000000000000000000000000000000000000000000000000000000000000000000000000000000000000000000000000000
310
000000000000000000000000000000000000000000F5280F0F0F0F00F5F5C3C3000F00C3ECECECECECF50000000000F5280FC30F0FBEF5BEC3C3F5F5BEC3ECECECECECF50000000000F52800000FC300F5BEC3C30F0FC3C3ECECECEC28F5000000000000000000000000000000000000000000000000000000000000000000
310
00000000000000000000000000000000000000000000000000000000000000000000000000000000000000000000000000000000000000000000000000000000000000000000000000000000000000000000000000000000000000000000000000000000000000000000000000000000000000000000000000000000000000
310
0000000000000000000000000000000000000000000000F528F5BEC3F5C3F5F5C3C3C3F5C3C328ECECECECF50000000000F528F5C3F5C3C3F5C3C3C3C3F5C3C328ECECECECF50000000000F5280000F5C3C3F5C3C3C3F5F5C3C3ECECECECECF500000000000000000000000000000000000000000000000000000000000000
310
00000000000000000000000000000000000000000000000000000000000000000000000000000000000000000000000000000000000000000000000000000000000000000000000000000000000000000000000000000000000000000000000000000000000000000000000000000000000000000000000000000000000000
310
00000000000000000000000000000000000000000000000000F528ECECECECBEF5F5C300C3F5C3C32828282828F50000000000F5ECECECECECC3F5C3BEC3C3F5C3C32828282828F50000000000F52800ECC3ECC3F5C3BEC3F5F5BE002828282828F50000000000000000000000000000000000000000000000000000000000
310
00000000000000000000000000000000000000000000000000000000000000000000000000000000000000000000000000000000000000000000000000000000000000000000000000000000000000000000000000000000000000000000000000000000000000000000000000000000000000000000000000000000000000
310
000000000000000000000000000000000000000000000000000000F5ECECECECEC28282828282828BEBE2828282828F50000000000F5ECECECEC2828282828282828BE282828282828F50000000000F5ECECECEC2828282828282828BE282828282828F5000000000000000000000000000000000000000000000000000000
310
00000000000000000000000000000000000000000000000000000000000000000000000000000000000000000000000000000000000000000000000000000000000000000000000000000000000000000000000000000000000000000000000000000000000000000000000000000000000000000000000000000000000000
310
0000000000000000000000000000000000000000000000000000000000F5F5F5F5F5F5F5F5F5F5F5F5F5F5F5F5F5F5F5F5F50000000000F5F5F5F5F5F5F5F5F5F5F5F5F5F5F5F5F5F5F5F5F50000000000F5F5F5F5F5F5F5F5F5F5F5F5F5F5F5F5F5F5F5F5F500000000000000000000000000000000000000000000000000
310
00000000000000000000000000000000000000000000000000000000000000000000000000000000000000000000000000000000000000000000000000000000000000000000000000000000000000000000000000000000000000000000000000000000000000000000000000000000000000000000000000000000000000
310
00000000000000000000000000000000000000000000000000000000000000000000000000000000000000000000000000000000000000000000000000000000000000000000000000000000000000000000000000000000000000000000000000000000000000000000000000000000000000000000000000000000000000
310
00000000000000000000000000000000000000000000000000000000000000000000000000000000000000000000000000000000000000000000000000000000000000000000000000000000000000000000000000000000000000000000000000000000000000000000000000000000000000000000000000000000000000
310
00000000000000000000000000000000000000000000000000000000000000000000000000000000000000000000000000000000000000000000000000000000000000000000000000000000000000000000000000000000000000000000000000000000000000000000000000000000000000000000000000000000000000
310
00000000000000000000000000000000000000000000000000000000000000000000000000000000000000000000000000000000000000000000000000000000000000000000000000000000000000000000000000000000000000000000000000000000000000000000000000000000000000000000000000000000000000
310
00000000000000000000000000000000000000000000000000000000000000000000000000000000000000000000000000000000000000000000000000000000000000000000000000000000000000000000000000000000000000000000000000000000000000000000000000000000000000000000000000000000000000
310
00000000000000000000000000000000000000000000000000000000000000000000000000000000000000000000000000000000000000000000000000000000000000000000000000000000000000000000000000000000000000000000000000000000000000000000000000000000000000000000000000000000000000
310
00000000000000000000000000000000000000000000000000000000000000000000000000000000000000000000000000000000000000000000000000000000000000000000000000000000000000000000000000000000000000000000000000000000000000000000000000000000000000000000000000000000000000
310
00000000000000000000000000000000000000000000000000000000000000000000000000000000000000000000000000000000000000000000000000000000000000000000000000000000000000000000000000000000000000000000000000000000000000000000000000000000000000000000000000000000000000
310
00000000000000000000000000000000000000000000000000000000000000000000000000000000000000000000000000000000000000000000000000000000000000000000000000000000000000000000000000000000000000000000000000000000000000000000000000000000000000000000000000000000000000
310
00000000000000000000000000000000000000000000000000000000000000000000000000000000000000000000000000000000000000000000000000000000000000000000000000000000000000000000000000000000000000000000000000000000000000000000000000000000000000000000000000000000000000
310
00000000000000000000000000000000000000000000000000000000000000000000000000000000000000000000000000000000000000000000000000000000000000000000000000000000000000000000000000000000000000000000000000000000000000000000000000000000000000000000000000000000000000
310
00000000000000000000000000000000000000000000000000000000000000000000000000000000000000000000000000000000000000000000000000000000000000000000000000000000000000000000000000000000000000000000000000000000000000000000000000000000000000000000000000000000000000
310
00000000000000000000000000000000000000000000000000000000000000000000000000000000000000000000000000000000000000000000000000000000000000000000000000000000000000000000000000000000000000000000000000000000000000000000000000000000000000000000000000000000000000
310
00000000000000000000000000000000000000000000000000000000000000000000000000000000000000000000000000000000000000000000000000000000000000000000000000000000000000000000000000000000000000000000000000000000000000000000000000000000000000000000000000000000000000
310
00000000000000000000000000000000000000000000000000000000000000000000000000000000000000000000000000000000000000000000000000000000000000000000000000000000000000000000000000000000000000000000000000000000000000000000000000000000000000000000000000000000000000
310
00000000000000000000000000000000000000000000000000000000000000000000000000000000000000000000000000000000000000000000000000000000000000000000000000000000000000000000000000000000000000000000000000000000000000000000000000000000000000000000000000000000000000
310
00000000000000000000000000000000000000000000000000000000000000000000000000000000000000000000000000000000000000000000000000000000000000000000000000000000000000000000000000000000000000000000000000000000000000000000000000000000000000000000000000000000000000
310
00000000000000000000000000000000000000000000000000000000000000000000000000000000000000000000000000000000000000000000000000000000000000000000000000000000000000000000000000000000000000000000000000000000000000000000000000000000000000000000000000000000000000
310
00000000000000000000000000000000000000000000000000000000000000000000000000000000000000000000000000000000000000000000000000000000000000000000000000000000000000000000000000000000000000000000000000000000000000000000000000000000000000000000000000000000000000
310
00000000000000000000000000000000000000000000000000000000000000000000000000000000000000000000000000000000000000000000000000000000000000000000000000000000000000000000000000000000000000000000000000000000000000000000000000000000000000000000000000000000000000
310
00000000000000000000000000000000000000000000000000000000000000000000000000000000000000000000000000000000000000000000000000000000000000000000000000000000000000000000000000000000000000000000000000000000000000000000000000000000000000000000000000000000000000
310
00000000000000000000000000000000000000000000000000000000000000000000000000000000000000000000000000000000000000000000000000000000000000000000000000000000000000000000000000000000000000000000000000000000000000000000000000000000000000000000000000000000000000
310
00000000000000000000000000000000000000000000000000000000000000000000000000000000000000000000000000000000000000000000000000000000000000000000000000000000000000000000000000000000000000000000000000000000000000000000000000000000000000000000000000000000000000
310
00000000000000000000000000000000000000000000000000000000000000000000000000000000000000000000000000000000000000000000000000000000000000000000000000000000000000000000000000000000000000000000000000000000000000000000000000000000000000000000000000000000000000
310
00000000000000000000000000000000000000000000000000000000000000000000000000000000000000000000000000000000000000000000000000000000000000000000000000000000000000000000000000000000000000000000000000000000000000000000000000000000000000000000000000000000000000
310
00000000000000000000000000000000000000000000000000000000000000000000000000000000000000000000000000000000000000000000000000000000000000000000000000000000000000000000000000000000000000000000000000000000000000000000000000000000000000000000000000000000000000
310
00000000000000000000000000000000000000000000000000000000000000000000000000000000000000000000000000000000000000000000000000000000000000000000000000000000000000000000000000000000000000000000000000000000000000000000000000000000000000000000000000000000000000
310
00000000000000000000000000000000000000000000000000000000000000000000000000000000000000000000000000000000000000000000000000000000000000000000000000000000000000000000000000000000000000000000000000000000000000000000000000000000000000000000000000000000000000
310
00000000000000000000000000000000000000000000000000000000000000000000000000000000000000000000000000000000000000000000000000000000000000000000000000000000000000000000000000000000000000000000000000000000000000000000000000000000000000000000000000000000000000
310
000000000000000000000000000000000000000000000000000000000000000000000000000000000000000000000000000000000000000000000000000000000000
  0
XRECORD
  5
145A2
102
{ACAD_REACTORS
330
145A1
102
}
330
145A1
100
AcDbXrecord
280
     1
102
SHADEPLOT
 70
     0
102
SHADEPLOTRESLEVEL
 70
     2
102
SHADEPLOTCUSTOMDPI
 70
   300
  0
XRECORD
  5
145A4
102
{ACAD_REACTORS
330
3DB1
102
}
330
3DB1
100
AcDbXrecord
280
     1
102
MATERIAL
148
0.0
149
0.0
149
0.0
 93
        0
 94
      127
282
     0
 72
     0
 77
     0
171
     0
175
     0
179
     0
273
     0
  0
XRECORD
  5
3DB3
102
{ACAD_REACTORS
330
3DB1
102
}
330
3DB1
100
AcDbXrecord
280
     1
270
     1
271
     1
  0
XRECORD
  5
3DB2
102
{ACAD_REACTORS
330
3DB1
102
}
330
3DB1
100
AcDbXrecord
280
     1
270
     1
271
     1
  0
XRECORD
  5
3DB6
102
{ACAD_REACTORS
330
3DB1
102
}
330
3DB1
100
AcDbXrecord
280
     1
270
     1
271
     1
  0
XRECORD
  5
3DB5
102
{ACAD_REACTORS
330
3DB1
102
}
330
3DB1
100
AcDbXrecord
280
     1
270
     1
271
     1
  0
XRECORD
  5
3DB7
102
{ACAD_REACTORS
330
3DB1
102
}
330
3DB1
100
AcDbXrecord
280
     1
270
     1
271
     1
  0
XRECORD
  5
3DB4
102
{ACAD_REACTORS
330
3DB1
102
}
330
3DB1
100
AcDbXrecord
280
     1
270
     1
271
     1
  0
XRECORD
  5
145A3
102
{ACAD_REACTORS
330
3DA9
102
}
330
3DA9
100
AcDbXrecord
280
     1
102
MATERIAL
148
0.0
149
0.0
149
0.0
 93
        0
 94
      127
282
     0
 72
     0
 77
     0
171
     0
175
     0
179
     0
273
     0
  0
XRECORD
  5
3DAB
102
{ACAD_REACTORS
330
3DA9
102
}
330
3DA9
100
AcDbXrecord
280
     1
270
     1
271
     1
  0
XRECORD
  5
3DAA
102
{ACAD_REACTORS
330
3DA9
102
}
330
3DA9
100
AcDbXrecord
280
     1
270
     1
271
     1
  0
XRECORD
  5
3DAE
102
{ACAD_REACTORS
330
3DA9
102
}
330
3DA9
100
AcDbXrecord
280
     1
270
     1
271
     1
  0
XRECORD
  5
3DAD
102
{ACAD_REACTORS
330
3DA9
102
}
330
3DA9
100
AcDbXrecord
280
     1
270
     1
271
     1
  0
XRECORD
  5
3DAF
102
{ACAD_REACTORS
330
3DA9
102
}
330
3DA9
100
AcDbXrecord
280
     1
270
     1
271
     1
  0
XRECORD
  5
3DAC
102
{ACAD_REACTORS
330
3DA9
102
}
330
3DA9
100
AcDbXrecord
280
     1
270
     1
271
     1
  0
XRECORD
  5
145A5
102
{ACAD_REACTORS
330
3DB9
102
}
330
3DB9
100
AcDbXrecord
280
     1
102
MATERIAL
148
0.0
149
0.0
149
0.0
 93
        0
 94
      127
282
     0
 72
     0
 77
     0
171
     0
175
     0
179
     0
273
     0
  0
XRECORD
  5
3DBB
102
{ACAD_REACTORS
330
3DB9
102
}
330
3DB9
100
AcDbXrecord
280
     1
270
     1
271
     1
  0
XRECORD
  5
3DBA
102
{ACAD_REACTORS
330
3DB9
102
}
330
3DB9
100
AcDbXrecord
280
     1
270
     1
271
     1
  0
XRECORD
  5
3DBE
102
{ACAD_REACTORS
330
3DB9
102
}
330
3DB9
100
AcDbXrecord
280
     1
270
     1
271
     1
  0
XRECORD
  5
3DBD
102
{ACAD_REACTORS
330
3DB9
102
}
330
3DB9
100
AcDbXrecord
280
     1
270
     1
271
     1
  0
XRECORD
  5
3DBF
102
{ACAD_REACTORS
330
3DB9
102
}
330
3DB9
100
AcDbXrecord
280
     1
270
     1
271
     1
  0
XRECORD
  5
3DBC
102
{ACAD_REACTORS
330
3DB9
102
}
330
3DB9
100
AcDbXrecord
280
     1
270
     1
271
     1
  0
XRECORD
  5
1459C
102
{ACAD_REACTORS
330
1459B
102
}
330
1459B
100
AcDbXrecord
280
     1
102
ACAD_ROUNDTRIP_2012_MLEADER_STYLE
298
     1
  0
CELLSTYLEMAP
  5
1459A
102
{ACAD_REACTORS
330
14599
102
}
330
14599
100
AcDbCellStyleMap
 90
        3
300
CELLSTYLE
  1
TABLEFORMAT_BEGIN
 90
        5
170
     1
 91
        0
 92
    32768
 62
   257
 93
        1
300
CONTENTFORMAT
  1
CONTENTFORMAT_BEGIN
 90
        0
 91
        0
 92
        4
 93
        0
300

 40
0.0
140
1.0
 94
        5
 62
     0
340
7
144
0.25
309
CONTENTFORMAT_END
171
     0
 94
        6
 95
        1
302
GRIDFORMAT
  1
GRIDFORMAT_BEGIN
 90
        0
 91
        1
 62
     0
 92
       -2
340
0
 93
        0
 40
0.045
309
GRIDFORMAT_END
 95
        2
302
GRIDFORMAT
  1
GRIDFORMAT_BEGIN
 90
        0
 91
        1
 62
     0
 92
       -2
340
0
 93
        0
 40
0.045
309
GRIDFORMAT_END
 95
        4
302
GRIDFORMAT
  1
GRIDFORMAT_BEGIN
 90
        0
 91
        1
 62
     0
 92
       -2
340
0
 93
        0
 40
0.045
309
GRIDFORMAT_END
 95
        8
302
GRIDFORMAT
  1
GRIDFORMAT_BEGIN
 90
        0
 91
        1
 62
     0
 92
       -2
340
0
 93
        0
 40
0.045
309
GRIDFORMAT_END
 95
       16
302
GRIDFORMAT
  1
GRIDFORMAT_BEGIN
 90
        0
 91
        1
 62
     0
 92
       -2
340
0
 93
        0
 40
0.045
309
GRIDFORMAT_END
 95
       32
302
GRIDFORMAT
  1
GRIDFORMAT_BEGIN
 90
        0
 91
        1
 62
     0
 92
       -2
340
0
 93
        0
 40
0.045
309
GRIDFORMAT_END
309
TABLEFORMAT_END
  1
CELLSTYLE_BEGIN
 90
        1
 91
        1
300
_TITLE
309
CELLSTYLE_END
300
CELLSTYLE
  1
TABLEFORMAT_BEGIN
 90
        5
170
     1
 91
        0
 92
        0
 62
   257
 93
        1
300
CONTENTFORMAT
  1
CONTENTFORMAT_BEGIN
 90
        0
 91
        0
 92
        4
 93
        0
300

 40
0.0
140
1.0
 94
        5
 62
     0
340
7
144
0.18
309
CONTENTFORMAT_END
171
     0
 94
        6
 95
        1
302
GRIDFORMAT
  1
GRIDFORMAT_BEGIN
 90
        0
 91
        1
 62
     0
 92
       -2
340
0
 93
        0
 40
0.045
309
GRIDFORMAT_END
 95
        2
302
GRIDFORMAT
  1
GRIDFORMAT_BEGIN
 90
        0
 91
        1
 62
     0
 92
       -2
340
0
 93
        0
 40
0.045
309
GRIDFORMAT_END
 95
        4
302
GRIDFORMAT
  1
GRIDFORMAT_BEGIN
 90
        0
 91
        1
 62
     0
 92
       -2
340
0
 93
        0
 40
0.045
309
GRIDFORMAT_END
 95
        8
302
GRIDFORMAT
  1
GRIDFORMAT_BEGIN
 90
        0
 91
        1
 62
     0
 92
       -2
340
0
 93
        0
 40
0.045
309
GRIDFORMAT_END
 95
       16
302
GRIDFORMAT
  1
GRIDFORMAT_BEGIN
 90
        0
 91
        1
 62
     0
 92
       -2
340
0
 93
        0
 40
0.045
309
GRIDFORMAT_END
 95
       32
302
GRIDFORMAT
  1
GRIDFORMAT_BEGIN
 90
        0
 91
        1
 62
     0
 92
       -2
340
0
 93
        0
 40
0.045
309
GRIDFORMAT_END
309
TABLEFORMAT_END
  1
CELLSTYLE_BEGIN
 90
        2
 91
        1
300
_HEADER
309
CELLSTYLE_END
300
CELLSTYLE
  1
TABLEFORMAT_BEGIN
 90
        5
170
     1
 91
        0
 92
        0
 62
   257
 93
        1
300
CONTENTFORMAT
  1
CONTENTFORMAT_BEGIN
 90
        0
 91
        0
 92
        4
 93
        0
300

 40
0.0
140
1.0
 94
        2
 62
     0
340
7
144
0.18
309
CONTENTFORMAT_END
171
     0
 94
        6
 95
        1
302
GRIDFORMAT
  1
GRIDFORMAT_BEGIN
 90
        0
 91
        1
 62
     0
 92
       -2
340
0
 93
        0
 40
0.045
309
GRIDFORMAT_END
 95
        2
302
GRIDFORMAT
  1
GRIDFORMAT_BEGIN
 90
        0
 91
        1
 62
     0
 92
       -2
340
0
 93
        0
 40
0.045
309
GRIDFORMAT_END
 95
        4
302
GRIDFORMAT
  1
GRIDFORMAT_BEGIN
 90
        0
 91
        1
 62
     0
 92
       -2
340
0
 93
        0
 40
0.045
309
GRIDFORMAT_END
 95
        8
302
GRIDFORMAT
  1
GRIDFORMAT_BEGIN
 90
        0
 91
        1
 62
     0
 92
       -2
340
0
 93
        0
 40
0.045
309
GRIDFORMAT_END
 95
       16
302
GRIDFORMAT
  1
GRIDFORMAT_BEGIN
 90
        0
 91
        1
 62
     0
 92
       -2
340
0
 93
        0
 40
0.045
309
GRIDFORMAT_END
 95
       32
302
GRIDFORMAT
  1
GRIDFORMAT_BEGIN
 90
        0
 91
        1
 62
     0
 92
       -2
340
0
 93
        0
 40
0.045
309
GRIDFORMAT_END
309
TABLEFORMAT_END
  1
CELLSTYLE_BEGIN
 90
        3
 91
        2
300
_DATA
309
CELLSTYLE_END
  0
XRECORD
  5
1459F
102
{ACAD_REACTORS
330
14599
102
}
330
14599
100
AcDbXrecord
280
     1
102
ACAD_ROUNDTRIP_PRE2007_TABLESTYLE
 90
        4
 91
        0
  1

 92
        4
 93
        0
  2

 94
        4
 95
        0
  3

  0
XRECORD
  5
145B1
102
{ACAD_REACTORS
330
145B0
102
}
330
145B0
100
AcDbXrecord
280
     1
102
RTVSPropertyOp0
 70
     1
102
RTVSPropertyOp1
 70
     1
102
RTVSPropertyOp2
 70
     1
102
RTVSPropertyOp3
 70
     1
102
RTVSPropertyOp4
 70
     1
102
RTVSPropertyOp5
 70
     1
102
RTVSPropertyOp6
 70
     1
102
RTVSPropertyOp7
 70
     1
102
RTVSPropertyOp8
 70
     1
102
RTVSPropertyOp9
 70
     1
102
RTVSPropertyOp10
 70
     1
102
RTVSPropertyOp11
 70
     1
102
RTVSPropertyOp12
 70
     1
102
RTVSPropertyOp13
 70
     1
102
RTVSPropertyOp14
 70
     1
102
RTVSPropertyOp15
 70
     1
102
RTVSPropertyOp16
 70
     1
102
RTVSPropertyOp17
 70
     1
102
RTVSPropertyOp18
 70
     1
102
RTVSPropertyOp19
 70
     1
102
RTVSPropertyOp20
 70
     1
102
RTVSPropertyOp21
 70
     1
102
RTVSPropertyOp22
 70
     1
102
RTVSPropertyOp23
 70
     1
102
RTVSPropertyOp24
 70
     1
102
RTVSPropertyOp25
 70
     1
102
RTVSPropertyOp26
 70
     1
102
RTVSPropertyOp27
 70
     1
102
RTVSPropertyOp28
 70
     1
102
RTVSPropertyOp29
 70
     1
102
RTVSPropertyOp30
 70
     1
102
RTVSPropertyOp31
 70
     1
102
RTVSPropertyOp32
 70
     1
  0
XRECORD
  5
145AF
102
{ACAD_REACTORS
330
145AE
102
}
330
145AE
100
AcDbXrecord
280
     1
102
RTVSPropertyOp0
 70
     1
102
RTVSPropertyOp1
 70
     1
102
RTVSPropertyOp2
 70
     1
102
RTVSPropertyOp3
 70
     1
102
RTVSPropertyOp4
 70
     1
102
RTVSPropertyOp5
 70
     1
102
RTVSPropertyOp6
 70
     1
102
RTVSPropertyOp7
 70
     1
102
RTVSPropertyOp8
 70
     1
102
RTVSPropertyOp9
 70
     1
102
RTVSPropertyOp10
 70
     1
102
RTVSPropertyOp11
 70
     1
102
RTVSPropertyOp12
 70
     1
102
RTVSPropertyOp13
 70
     1
102
RTVSPropertyOp14
 70
     1
102
RTVSPropertyOp15
 70
     1
102
RTVSPropertyOp16
 70
     1
102
RTVSPropertyOp17
 70
     1
102
RTVSPropertyOp18
 70
     1
102
RTVSPropertyOp19
 70
     1
102
RTVSPropertyOp20
 70
     1
102
RTVSPropertyOp21
 70
     1
102
RTVSPropertyOp22
 70
     1
102
RTVSPropertyOp23
 70
     1
102
RTVSPropertyOp24
 70
     1
102
RTVSPropertyOp25
 70
     1
102
RTVSPropertyOp26
 70
     1
102
RTVSPropertyOp27
 70
     1
102
RTVSPropertyOp28
 70
     1
102
RTVSPropertyOp29
 70
     1
102
RTVSPropertyOp30
 70
     1
102
RTVSPropertyOp31
 70
     1
102
RTVSPropertyOp32
 70
     1
  0
XRECORD
  5
145BD
102
{ACAD_REACTORS
330
145BC
102
}
330
145BC
100
AcDbXrecord
280
     1
102
RTVSPropertyOp0
 70
     1
102
RTVSPropertyOp1
 70
     1
102
RTVSPropertyOp2
 70
     1
102
RTVSPropertyOp3
 70
     1
102
RTVSPropertyOp4
 70
     1
102
RTVSPropertyOp5
 70
     1
102
RTVSPropertyOp6
 70
     1
102
RTVSPropertyOp7
 70
     1
102
RTVSPropertyOp8
 70
     1
102
RTVSPropertyOp9
 70
     1
102
RTVSPropertyOp10
 70
     1
102
RTVSPropertyOp11
 70
     1
102
RTVSPropertyOp12
 70
     1
102
RTVSPropertyOp13
 70
     1
102
RTVSPropertyOp14
 70
     1
102
RTVSPropertyOp15
 70
     1
102
RTVSPropertyOp16
 70
     1
102
RTVSPropertyOp17
 70
     1
102
RTVSPropertyOp18
 70
     1
102
RTVSPropertyOp19
 70
     1
102
RTVSPropertyOp20
 70
     1
102
RTVSPropertyOp21
 70
     1
102
RTVSPropertyOp22
 70
     1
102
RTVSPropertyOp23
 70
     1
102
RTVSPropertyOp24
 70
     1
102
RTVSPropertyOp25
 70
     1
102
RTVSPropertyOp26
 70
     1
102
RTVSPropertyOp27
 70
     1
102
RTVSPropertyOp28
 70
     1
102
RTVSPropertyOp29
 70
     1
102
RTVSPropertyOp30
 70
     1
102
RTVSPropertyOp31
 70
     1
102
RTVSPropertyOp32
 70
     1
  0
XRECORD
  5
145C5
102
{ACAD_REACTORS
330
145C4
102
}
330
145C4
100
AcDbXrecord
280
     1
102
RTVSPropertyOp0
 70
     1
102
RTVSPropertyOp1
 70
     1
102
RTVSPropertyOp2
 70
     1
102
RTVSPropertyOp3
 70
     1
102
RTVSPropertyOp4
 70
     1
102
RTVSPropertyOp5
 70
     1
102
RTVSPropertyOp6
 70
     1
102
RTVSPropertyOp7
 70
     1
102
RTVSPropertyOp8
 70
     1
102
RTVSPropertyOp9
 70
     1
102
RTVSPropertyOp10
 70
     1
102
RTVSPropertyOp11
 70
     1
102
RTVSPropertyOp12
 70
     1
102
RTVSPropertyOp13
 70
     1
102
RTVSPropertyOp14
 70
     1
102
RTVSPropertyOp15
 70
     1
102
RTVSPropertyOp16
 70
     1
102
RTVSPropertyOp17
 70
     1
102
RTVSPropertyOp18
 70
     1
102
RTVSPropertyOp19
 70
     1
102
RTVSPropertyOp20
 70
     1
102
RTVSPropertyOp21
 70
     1
102
RTVSPropertyOp22
 70
     1
102
RTVSPropertyOp23
 70
     1
102
RTVSPropertyOp24
 70
     1
102
RTVSPropertyOp25
 70
     1
102
RTVSPropertyOp26
 70
     1
102
RTVSPropertyOp27
 70
     1
102
RTVSPropertyOp28
 70
     1
102
RTVSPropertyOp29
 70
     1
102
RTVSPropertyOp30
 70
     1
102
RTVSPropertyOp31
 70
     1
102
RTVSPropertyOp32
 70
     1
  0
XRECORD
  5
145B7
102
{ACAD_REACTORS
330
145B6
102
}
330
145B6
100
AcDbXrecord
280
     1
102
RTVSPropertyOp0
 70
     1
102
RTVSPropertyOp1
 70
     1
102
RTVSPropertyOp2
 70
     1
102
RTVSPropertyOp3
 70
     1
102
RTVSPropertyOp4
 70
     1
102
RTVSPropertyOp5
 70
     1
102
RTVSPropertyOp6
 70
     1
102
RTVSPropertyOp7
 70
     1
102
RTVSPropertyOp8
 70
     1
102
RTVSPropertyOp9
 70
     1
102
RTVSPropertyOp10
 70
     1
102
RTVSPropertyOp11
 70
     1
102
RTVSPropertyOp12
 70
     1
102
RTVSPropertyOp13
 70
     1
102
RTVSPropertyOp14
 70
     1
102
RTVSPropertyOp15
 70
     1
102
RTVSPropertyOp16
 70
     1
102
RTVSPropertyOp17
 70
     1
102
RTVSPropertyOp18
 70
     1
102
RTVSPropertyOp19
 70
     1
102
RTVSPropertyOp20
 70
     1
102
RTVSPropertyOp21
 70
     1
102
RTVSPropertyOp22
 70
     1
102
RTVSPropertyOp23
 70
     1
102
RTVSPropertyOp24
 70
     1
102
RTVSPropertyOp25
 70
     1
102
RTVSPropertyOp26
 70
     1
102
RTVSPropertyOp27
 70
     1
102
RTVSPropertyOp28
 70
     1
102
RTVSPropertyOp29
 70
     1
102
RTVSPropertyOp30
 70
     1
102
RTVSPropertyOp31
 70
     1
102
RTVSPropertyOp32
 70
     1
  0
XRECORD
  5
145BB
102
{ACAD_REACTORS
330
145BA
102
}
330
145BA
100
AcDbXrecord
280
     1
102
RTVSPropertyOp0
 70
     1
102
RTVSPropertyOp1
 70
     1
102
RTVSPropertyOp2
 70
     1
102
RTVSPropertyOp3
 70
     1
102
RTVSPropertyOp4
 70
     1
102
RTVSPropertyOp5
 70
     1
102
RTVSPropertyOp6
 70
     1
102
RTVSPropertyOp7
 70
     1
102
RTVSPropertyOp8
 70
     1
102
RTVSPropertyOp9
 70
     1
102
RTVSPropertyOp10
 70
     1
102
RTVSPropertyOp11
 70
     1
102
RTVSPropertyOp12
 70
     1
102
RTVSPropertyOp13
 70
     1
102
RTVSPropertyOp14
 70
     1
102
RTVSPropertyOp15
 70
     1
102
RTVSPropertyOp16
 70
     1
102
RTVSPropertyOp17
 70
     1
102
RTVSPropertyOp18
 70
     1
102
RTVSPropertyOp19
 70
     1
102
RTVSPropertyOp20
 70
     1
102
RTVSPropertyOp21
 70
     1
102
RTVSPropertyOp22
 70
     1
102
RTVSPropertyOp23
 70
     1
102
RTVSPropertyOp24
 70
     1
102
RTVSPropertyOp25
 70
     1
102
RTVSPropertyOp26
 70
     1
102
RTVSPropertyOp27
 70
     1
102
RTVSPropertyOp28
 70
     1
102
RTVSPropertyOp29
 70
     1
102
RTVSPropertyOp30
 70
     1
102
RTVSPropertyOp31
 70
     1
102
RTVSPropertyOp32
 70
     1
  0
XRECORD
  5
145D5
102
{ACAD_REACTORS
330
145D4
102
}
330
145D4
100
AcDbXrecord
280
     1
102
RTVSPropertyOp0
 70
     0
102
RTVSPropertyOp1
 70
     0
102
RTVSPropertyOp2
 70
     0
102
RTVSPropertyOp3
 70
     0
102
RTVSPropertyOp4
 70
     0
102
RTVSPropertyOp5
 70
     0
102
RTVSPropertyOp6
 70
     0
102
RTVSPropertyOp7
 70
     0
102
RTVSPropertyOp8
 70
     0
102
RTVSPropertyOp9
 70
     0
102
RTVSPropertyOp10
 70
     0
102
RTVSPropertyOp11
 70
     0
102
RTVSPropertyOp12
 70
     0
102
RTVSPropertyOp13
 70
     0
102
RTVSPropertyOp14
 70
     2
102
RTVSPropertyOp15
 70
     0
102
RTVSPropertyOp16
 70
     0
102
RTVSPropertyOp17
 70
     0
102
RTVSPropertyOp18
 70
     0
102
RTVSPropertyOp19
 70
     0
102
RTVSPropertyOp20
 70
     0
102
RTVSPropertyOp21
 70
     0
102
RTVSPropertyOp22
 70
     0
102
RTVSPropertyOp23
 70
     0
102
RTVSPropertyOp24
 70
     0
102
RTVSPropertyOp25
 70
     0
102
RTVSPropertyOp26
 70
     0
102
RTVSPropertyOp27
 70
     0
102
RTVSPropertyOp28
 70
     1
102
RTVSPropertyOp29
 70
     1
102
RTVSPropertyOp30
 70
     1
102
RTVSPropertyOp31
 70
     1
102
RTVSPropertyOp32
 70
     1
  0
XRECORD
  5
145C3
102
{ACAD_REACTORS
330
145C2
102
}
330
145C2
100
AcDbXrecord
280
     1
102
RTVSPropertyOp0
 70
     1
102
RTVSPropertyOp1
 70
     1
102
RTVSPropertyOp2
 70
     1
102
RTVSPropertyOp3
 70
     1
102
RTVSPropertyOp4
 70
     1
102
RTVSPropertyOp5
 70
     1
102
RTVSPropertyOp6
 70
     1
102
RTVSPropertyOp7
 70
     1
102
RTVSPropertyOp8
 70
     1
102
RTVSPropertyOp9
 70
     1
102
RTVSPropertyOp10
 70
     1
102
RTVSPropertyOp11
 70
     1
102
RTVSPropertyOp12
 70
     1
102
RTVSPropertyOp13
 70
     1
102
RTVSPropertyOp14
 70
     1
102
RTVSPropertyOp15
 70
     1
102
RTVSPropertyOp16
 70
     1
102
RTVSPropertyOp17
 70
     1
102
RTVSPropertyOp18
 70
     1
102
RTVSPropertyOp19
 70
     1
102
RTVSPropertyOp20
 70
     1
102
RTVSPropertyOp21
 70
     1
102
RTVSPropertyOp22
 70
     1
102
RTVSPropertyOp23
 70
     1
102
RTVSPropertyOp24
 70
     1
102
RTVSPropertyOp25
 70
     1
102
RTVSPropertyOp26
 70
     1
102
RTVSPropertyOp27
 70
     1
102
RTVSPropertyOp28
 70
     1
102
RTVSPropertyOp29
 70
     1
102
RTVSPropertyOp30
 70
     1
102
RTVSPropertyOp31
 70
     1
102
RTVSPropertyOp32
 70
     1
  0
XRECORD
  5
145A7
102
{ACAD_REACTORS
330
145A6
102
}
330
145A6
100
AcDbXrecord
280
     1
102
RTVSPropertyOp0
 70
     1
102
RTVSPropertyOp1
 70
     1
102
RTVSPropertyOp2
 70
     1
102
RTVSPropertyOp3
 70
     1
102
RTVSPropertyOp4
 70
     1
102
RTVSPropertyOp5
 70
     1
102
RTVSPropertyOp6
 70
     1
102
RTVSPropertyOp7
 70
     1
102
RTVSPropertyOp8
 70
     1
102
RTVSPropertyOp9
 70
     1
102
RTVSPropertyOp10
 70
     1
102
RTVSPropertyOp11
 70
     1
102
RTVSPropertyOp12
 70
     1
102
RTVSPropertyOp13
 70
     1
102
RTVSPropertyOp14
 70
     1
102
RTVSPropertyOp15
 70
     1
102
RTVSPropertyOp16
 70
     1
102
RTVSPropertyOp17
 70
     1
102
RTVSPropertyOp18
 70
     1
102
RTVSPropertyOp19
 70
     1
102
RTVSPropertyOp20
 70
     1
102
RTVSPropertyOp21
 70
     1
102
RTVSPropertyOp22
 70
     1
102
RTVSPropertyOp23
 70
     1
102
RTVSPropertyOp24
 70
     1
102
RTVSPropertyOp25
 70
     1
102
RTVSPropertyOp26
 70
     1
102
RTVSPropertyOp27
 70
     1
102
RTVSPropertyOp28
 70
     1
102
RTVSPropertyOp29
 70
     1
102
RTVSPropertyOp30
 70
     1
102
RTVSPropertyOp31
 70
     1
102
RTVSPropertyOp32
 70
     1
  0
XRECORD
  5
145A9
102
{ACAD_REACTORS
330
145A8
102
}
330
145A8
100
AcDbXrecord
280
     1
102
RTVSPropertyOp0
 70
     1
102
RTVSPropertyOp1
 70
     1
102
RTVSPropertyOp2
 70
     1
102
RTVSPropertyOp3
 70
     1
102
RTVSPropertyOp4
 70
     1
102
RTVSPropertyOp5
 70
     1
102
RTVSPropertyOp6
 70
     1
102
RTVSPropertyOp7
 70
     1
102
RTVSPropertyOp8
 70
     1
102
RTVSPropertyOp9
 70
     1
102
RTVSPropertyOp10
 70
     1
102
RTVSPropertyOp11
 70
     1
102
RTVSPropertyOp12
 70
     1
102
RTVSPropertyOp13
 70
     1
102
RTVSPropertyOp14
 70
     1
102
RTVSPropertyOp15
 70
     1
102
RTVSPropertyOp16
 70
     1
102
RTVSPropertyOp17
 70
     1
102
RTVSPropertyOp18
 70
     1
102
RTVSPropertyOp19
 70
     1
102
RTVSPropertyOp20
 70
     1
102
RTVSPropertyOp21
 70
     1
102
RTVSPropertyOp22
 70
     1
102
RTVSPropertyOp23
 70
     1
102
RTVSPropertyOp24
 70
     1
102
RTVSPropertyOp25
 70
     1
102
RTVSPropertyOp26
 70
     1
102
RTVSPropertyOp27
 70
     1
102
RTVSPropertyOp28
 70
     1
102
RTVSPropertyOp29
 70
     1
102
RTVSPropertyOp30
 70
     1
102
RTVSPropertyOp31
 70
     1
102
RTVSPropertyOp32
 70
     1
  0
XRECORD
  5
145AB
102
{ACAD_REACTORS
330
145AA
102
}
330
145AA
100
AcDbXrecord
280
     1
102
RTVSPropertyOp0
 70
     1
102
RTVSPropertyOp1
 70
     1
102
RTVSPropertyOp2
 70
     1
102
RTVSPropertyOp3
 70
     1
102
RTVSPropertyOp4
 70
     1
102
RTVSPropertyOp5
 70
     1
102
RTVSPropertyOp6
 70
     1
102
RTVSPropertyOp7
 70
     1
102
RTVSPropertyOp8
 70
     1
102
RTVSPropertyOp9
 70
     1
102
RTVSPropertyOp10
 70
     1
102
RTVSPropertyOp11
 70
     1
102
RTVSPropertyOp12
 70
     1
102
RTVSPropertyOp13
 70
     1
102
RTVSPropertyOp14
 70
     1
102
RTVSPropertyOp15
 70
     1
102
RTVSPropertyOp16
 70
     1
102
RTVSPropertyOp17
 70
     1
102
RTVSPropertyOp18
 70
     1
102
RTVSPropertyOp19
 70
     1
102
RTVSPropertyOp20
 70
     1
102
RTVSPropertyOp21
 70
     1
102
RTVSPropertyOp22
 70
     1
102
RTVSPropertyOp23
 70
     1
102
RTVSPropertyOp24
 70
     1
102
RTVSPropertyOp25
 70
     1
102
RTVSPropertyOp26
 70
     1
102
RTVSPropertyOp27
 70
     1
102
RTVSPropertyOp28
 70
     1
102
RTVSPropertyOp29
 70
     1
102
RTVSPropertyOp30
 70
     1
102
RTVSPropertyOp31
 70
     1
102
RTVSPropertyOp32
 70
     1
  0
XRECORD
  5
145AD
102
{ACAD_REACTORS
330
145AC
102
}
330
145AC
100
AcDbXrecord
280
     1
102
RTVSPropertyOp0
 70
     1
102
RTVSPropertyOp1
 70
     1
102
RTVSPropertyOp2
 70
     1
102
RTVSPropertyOp3
 70
     1
102
RTVSPropertyOp4
 70
     1
102
RTVSPropertyOp5
 70
     1
102
RTVSPropertyOp6
 70
     1
102
RTVSPropertyOp7
 70
     1
102
RTVSPropertyOp8
 70
     1
102
RTVSPropertyOp9
 70
     1
102
RTVSPropertyOp10
 70
     1
102
RTVSPropertyOp11
 70
     1
102
RTVSPropertyOp12
 70
     1
102
RTVSPropertyOp13
 70
     1
102
RTVSPropertyOp14
 70
     1
102
RTVSPropertyOp15
 70
     1
102
RTVSPropertyOp16
 70
     1
102
RTVSPropertyOp17
 70
     1
102
RTVSPropertyOp18
 70
     1
102
RTVSPropertyOp19
 70
     1
102
RTVSPropertyOp20
 70
     1
102
RTVSPropertyOp21
 70
     1
102
RTVSPropertyOp22
 70
     1
102
RTVSPropertyOp23
 70
     1
102
RTVSPropertyOp24
 70
     1
102
RTVSPropertyOp25
 70
     1
102
RTVSPropertyOp26
 70
     1
102
RTVSPropertyOp27
 70
     1
102
RTVSPropertyOp28
 70
     1
102
RTVSPropertyOp29
 70
     1
102
RTVSPropertyOp30
 70
     1
102
RTVSPropertyOp31
 70
     1
102
RTVSPropertyOp32
 70
     1
  0
XRECORD
  5
145B5
102
{ACAD_REACTORS
330
145B4
102
}
330
145B4
100
AcDbXrecord
280
     1
102
RTVSPropertyOp0
 70
     1
102
RTVSPropertyOp1
 70
     1
102
RTVSPropertyOp2
 70
     1
102
RTVSPropertyOp3
 70
     1
102
RTVSPropertyOp4
 70
     1
102
RTVSPropertyOp5
 70
     1
102
RTVSPropertyOp6
 70
     1
102
RTVSPropertyOp7
 70
     1
102
RTVSPropertyOp8
 70
     1
102
RTVSPropertyOp9
 70
     1
102
RTVSPropertyOp10
 70
     1
102
RTVSPropertyOp11
 70
     1
102
RTVSPropertyOp12
 70
     1
102
RTVSPropertyOp13
 70
     1
102
RTVSPropertyOp14
 70
     1
102
RTVSPropertyOp15
 70
     1
102
RTVSPropertyOp16
 70
     1
102
RTVSPropertyOp17
 70
     1
102
RTVSPropertyOp18
 70
     1
102
RTVSPropertyOp19
 70
     1
102
RTVSPropertyOp20
 70
     1
102
RTVSPropertyOp21
 70
     1
102
RTVSPropertyOp22
 70
     1
102
RTVSPropertyOp23
 70
     1
102
RTVSPropertyOp24
 70
     1
102
RTVSPropertyOp25
 70
     1
102
RTVSPropertyOp26
 70
     1
102
RTVSPropertyOp27
 70
     1
102
RTVSPropertyOp28
 70
     1
102
RTVSPropertyOp29
 70
     1
102
RTVSPropertyOp30
 70
     1
102
RTVSPropertyOp31
 70
     1
102
RTVSPropertyOp32
 70
     1
  0
XRECORD
  5
145D1
102
{ACAD_REACTORS
330
145D0
102
}
330
145D0
100
AcDbXrecord
280
     1
102
RTVSPropertyOp0
 70
     0
102
RTVSPropertyOp1
 70
     0
102
RTVSPropertyOp2
 70
     0
102
RTVSPropertyOp3
 70
     0
102
RTVSPropertyOp4
 70
     0
102
RTVSPropertyOp5
 70
     0
102
RTVSPropertyOp6
 70
     0
102
RTVSPropertyOp7
 70
     0
102
RTVSPropertyOp8
 70
     0
102
RTVSPropertyOp9
 70
     0
102
RTVSPropertyOp10
 70
     0
102
RTVSPropertyOp11
 70
     0
102
RTVSPropertyOp12
 70
     0
102
RTVSPropertyOp13
 70
     0
102
RTVSPropertyOp14
 70
     2
102
RTVSPropertyOp15
 70
     0
102
RTVSPropertyOp16
 70
     0
102
RTVSPropertyOp17
 70
     0
102
RTVSPropertyOp18
 70
     0
102
RTVSPropertyOp19
 70
     0
102
RTVSPropertyOp20
 70
     0
102
RTVSPropertyOp21
 70
     0
102
RTVSPropertyOp22
 70
     0
102
RTVSPropertyOp23
 70
     0
102
RTVSPropertyOp24
 70
     0
102
RTVSPropertyOp25
 70
     0
102
RTVSPropertyOp26
 70
     0
102
RTVSPropertyOp27
 70
     0
102
RTVSPropertyOp28
 70
     1
102
RTVSPropertyOp29
 70
     1
102
RTVSPropertyOp30
 70
     1
102
RTVSPropertyOp31
 70
     1
102
RTVSPropertyOp32
 70
     1
  0
XRECORD
  5
145C1
102
{ACAD_REACTORS
330
145C0
102
}
330
145C0
100
AcDbXrecord
280
     1
102
RTVSPropertyOp0
 70
     1
102
RTVSPropertyOp1
 70
     1
102
RTVSPropertyOp2
 70
     1
102
RTVSPropertyOp3
 70
     1
102
RTVSPropertyOp4
 70
     1
102
RTVSPropertyOp5
 70
     1
102
RTVSPropertyOp6
 70
     1
102
RTVSPropertyOp7
 70
     1
102
RTVSPropertyOp8
 70
     1
102
RTVSPropertyOp9
 70
     1
102
RTVSPropertyOp10
 70
     1
102
RTVSPropertyOp11
 70
     1
102
RTVSPropertyOp12
 70
     1
102
RTVSPropertyOp13
 70
     1
102
RTVSPropertyOp14
 70
     1
102
RTVSPropertyOp15
 70
     1
102
RTVSPropertyOp16
 70
     1
102
RTVSPropertyOp17
 70
     1
102
RTVSPropertyOp18
 70
     1
102
RTVSPropertyOp19
 70
     1
102
RTVSPropertyOp20
 70
     1
102
RTVSPropertyOp21
 70
     1
102
RTVSPropertyOp22
 70
     1
102
RTVSPropertyOp23
 70
     1
102
RTVSPropertyOp24
 70
     1
102
RTVSPropertyOp25
 70
     1
102
RTVSPropertyOp26
 70
     1
102
RTVSPropertyOp27
 70
     1
102
RTVSPropertyOp28
 70
     1
102
RTVSPropertyOp29
 70
     1
102
RTVSPropertyOp30
 70
     1
102
RTVSPropertyOp31
 70
     1
102
RTVSPropertyOp32
 70
     1
  0
XRECORD
  5
145D3
102
{ACAD_REACTORS
330
145D2
102
}
330
145D2
100
AcDbXrecord
280
     1
102
RTVSPropertyOp0
 70
     0
102
RTVSPropertyOp1
 70
     0
102
RTVSPropertyOp2
 70
     0
102
RTVSPropertyOp3
 70
     0
102
RTVSPropertyOp4
 70
     0
102
RTVSPropertyOp5
 70
     0
102
RTVSPropertyOp6
 70
     0
102
RTVSPropertyOp7
 70
     0
102
RTVSPropertyOp8
 70
     0
102
RTVSPropertyOp9
 70
     0
102
RTVSPropertyOp10
 70
     0
102
RTVSPropertyOp11
 70
     0
102
RTVSPropertyOp12
 70
     0
102
RTVSPropertyOp13
 70
     0
102
RTVSPropertyOp14
 70
     2
102
RTVSPropertyOp15
 70
     0
102
RTVSPropertyOp16
 70
     0
102
RTVSPropertyOp17
 70
     0
102
RTVSPropertyOp18
 70
     0
102
RTVSPropertyOp19
 70
     0
102
RTVSPropertyOp20
 70
     0
102
RTVSPropertyOp21
 70
     0
102
RTVSPropertyOp22
 70
     0
102
RTVSPropertyOp23
 70
     0
102
RTVSPropertyOp24
 70
     0
102
RTVSPropertyOp25
 70
     0
102
RTVSPropertyOp26
 70
     0
102
RTVSPropertyOp27
 70
     0
102
RTVSPropertyOp28
 70
     1
102
RTVSPropertyOp29
 70
     1
102
RTVSPropertyOp30
 70
     1
102
RTVSPropertyOp31
 70
     1
102
RTVSPropertyOp32
 70
     1
  0
XRECORD
  5
145B9
102
{ACAD_REACTORS
330
145B8
102
}
330
145B8
100
AcDbXrecord
280
     1
102
RTVSPropertyOp0
 70
     1
102
RTVSPropertyOp1
 70
     1
102
RTVSPropertyOp2
 70
     1
102
RTVSPropertyOp3
 70
     1
102
RTVSPropertyOp4
 70
     1
102
RTVSPropertyOp5
 70
     1
102
RTVSPropertyOp6
 70
     1
102
RTVSPropertyOp7
 70
     1
102
RTVSPropertyOp8
 70
     1
102
RTVSPropertyOp9
 70
     1
102
RTVSPropertyOp10
 70
     1
102
RTVSPropertyOp11
 70
     1
102
RTVSPropertyOp12
 70
     1
102
RTVSPropertyOp13
 70
     1
102
RTVSPropertyOp14
 70
     1
102
RTVSPropertyOp15
 70
     1
102
RTVSPropertyOp16
 70
     1
102
RTVSPropertyOp17
 70
     1
102
RTVSPropertyOp18
 70
     1
102
RTVSPropertyOp19
 70
     1
102
RTVSPropertyOp20
 70
     1
102
RTVSPropertyOp21
 70
     1
102
RTVSPropertyOp22
 70
     1
102
RTVSPropertyOp23
 70
     1
102
RTVSPropertyOp24
 70
     1
102
RTVSPropertyOp25
 70
     1
102
RTVSPropertyOp26
 70
     1
102
RTVSPropertyOp27
 70
     1
102
RTVSPropertyOp28
 70
     1
102
RTVSPropertyOp29
 70
     1
102
RTVSPropertyOp30
 70
     1
102
RTVSPropertyOp31
 70
     1
102
RTVSPropertyOp32
 70
     1
  0
XRECORD
  5
145CF
102
{ACAD_REACTORS
330
145CE
102
}
330
145CE
100
AcDbXrecord
280
     1
102
RTVSPropertyOp0
 70
     1
102
RTVSPropertyOp1
 70
     1
102
RTVSPropertyOp2
 70
     1
102
RTVSPropertyOp3
 70
     1
102
RTVSPropertyOp4
 70
     1
102
RTVSPropertyOp5
 70
     1
102
RTVSPropertyOp6
 70
     1
102
RTVSPropertyOp7
 70
     1
102
RTVSPropertyOp8
 70
     1
102
RTVSPropertyOp9
 70
     1
102
RTVSPropertyOp10
 70
     1
102
RTVSPropertyOp11
 70
     1
102
RTVSPropertyOp12
 70
     1
102
RTVSPropertyOp13
 70
     1
102
RTVSPropertyOp14
 70
     1
102
RTVSPropertyOp15
 70
     1
102
RTVSPropertyOp16
 70
     1
102
RTVSPropertyOp17
 70
     1
102
RTVSPropertyOp18
 70
     1
102
RTVSPropertyOp19
 70
     1
102
RTVSPropertyOp20
 70
     1
102
RTVSPropertyOp21
 70
     1
102
RTVSPropertyOp22
 70
     1
102
RTVSPropertyOp23
 70
     1
102
RTVSPropertyOp24
 70
     1
102
RTVSPropertyOp25
 70
     1
102
RTVSPropertyOp26
 70
     1
102
RTVSPropertyOp27
 70
     1
102
RTVSPropertyOp28
 70
     1
102
RTVSPropertyOp29
 70
     1
102
RTVSPropertyOp30
 70
     1
102
RTVSPropertyOp31
 70
     1
102
RTVSPropertyOp32
 70
     1
  0
XRECORD
  5
145CD
102
{ACAD_REACTORS
330
145CC
102
}
330
145CC
100
AcDbXrecord
280
     1
102
RTVSPropertyOp0
 70
     1
102
RTVSPropertyOp1
 70
     1
102
RTVSPropertyOp2
 70
     1
102
RTVSPropertyOp3
 70
     1
102
RTVSPropertyOp4
 70
     1
102
RTVSPropertyOp5
 70
     1
102
RTVSPropertyOp6
 70
     1
102
RTVSPropertyOp7
 70
     1
102
RTVSPropertyOp8
 70
     1
102
RTVSPropertyOp9
 70
     1
102
RTVSPropertyOp10
 70
     1
102
RTVSPropertyOp11
 70
     1
102
RTVSPropertyOp12
 70
     1
102
RTVSPropertyOp13
 70
     1
102
RTVSPropertyOp14
 70
     1
102
RTVSPropertyOp15
 70
     1
102
RTVSPropertyOp16
 70
     1
102
RTVSPropertyOp17
 70
     1
102
RTVSPropertyOp18
 70
     1
102
RTVSPropertyOp19
 70
     1
102
RTVSPropertyOp20
 70
     1
102
RTVSPropertyOp21
 70
     1
102
RTVSPropertyOp22
 70
     1
102
RTVSPropertyOp23
 70
     1
102
RTVSPropertyOp24
 70
     1
102
RTVSPropertyOp25
 70
     1
102
RTVSPropertyOp26
 70
     1
102
RTVSPropertyOp27
 70
     1
102
RTVSPropertyOp28
 70
     1
102
RTVSPropertyOp29
 70
     1
102
RTVSPropertyOp30
 70
     1
102
RTVSPropertyOp31
 70
     1
102
RTVSPropertyOp32
 70
     1
  0
XRECORD
  5
145C7
102
{ACAD_REACTORS
330
145C6
102
}
330
145C6
100
AcDbXrecord
280
     1
102
RTVSPropertyOp0
 70
     1
102
RTVSPropertyOp1
 70
     1
102
RTVSPropertyOp2
 70
     1
102
RTVSPropertyOp3
 70
     1
102
RTVSPropertyOp4
 70
     1
102
RTVSPropertyOp5
 70
     1
102
RTVSPropertyOp6
 70
     1
102
RTVSPropertyOp7
 70
     1
102
RTVSPropertyOp8
 70
     1
102
RTVSPropertyOp9
 70
     1
102
RTVSPropertyOp10
 70
     1
102
RTVSPropertyOp11
 70
     1
102
RTVSPropertyOp12
 70
     1
102
RTVSPropertyOp13
 70
     1
102
RTVSPropertyOp14
 70
     1
102
RTVSPropertyOp15
 70
     1
102
RTVSPropertyOp16
 70
     1
102
RTVSPropertyOp17
 70
     1
102
RTVSPropertyOp18
 70
     1
102
RTVSPropertyOp19
 70
     1
102
RTVSPropertyOp20
 70
     1
102
RTVSPropertyOp21
 70
     1
102
RTVSPropertyOp22
 70
     1
102
RTVSPropertyOp23
 70
     1
102
RTVSPropertyOp24
 70
     1
102
RTVSPropertyOp25
 70
     1
102
RTVSPropertyOp26
 70
     1
102
RTVSPropertyOp27
 70
     1
102
RTVSPropertyOp28
 70
     1
102
RTVSPropertyOp29
 70
     1
102
RTVSPropertyOp30
 70
     1
102
RTVSPropertyOp31
 70
     1
102
RTVSPropertyOp32
 70
     1
  0
XRECORD
  5
145C9
102
{ACAD_REACTORS
330
145C8
102
}
330
145C8
100
AcDbXrecord
280
     1
102
RTVSPropertyOp0
 70
     1
102
RTVSPropertyOp1
 70
     1
102
RTVSPropertyOp2
 70
     1
102
RTVSPropertyOp3
 70
     1
102
RTVSPropertyOp4
 70
     1
102
RTVSPropertyOp5
 70
     1
102
RTVSPropertyOp6
 70
     1
102
RTVSPropertyOp7
 70
     1
102
RTVSPropertyOp8
 70
     1
102
RTVSPropertyOp9
 70
     1
102
RTVSPropertyOp10
 70
     1
102
RTVSPropertyOp11
 70
     1
102
RTVSPropertyOp12
 70
     1
102
RTVSPropertyOp13
 70
     1
102
RTVSPropertyOp14
 70
     1
102
RTVSPropertyOp15
 70
     1
102
RTVSPropertyOp16
 70
     1
102
RTVSPropertyOp17
 70
     1
102
RTVSPropertyOp18
 70
     1
102
RTVSPropertyOp19
 70
     1
102
RTVSPropertyOp20
 70
     1
102
RTVSPropertyOp21
 70
     1
102
RTVSPropertyOp22
 70
     1
102
RTVSPropertyOp23
 70
     1
102
RTVSPropertyOp24
 70
     1
102
RTVSPropertyOp25
 70
     1
102
RTVSPropertyOp26
 70
     1
102
RTVSPropertyOp27
 70
     1
102
RTVSPropertyOp28
 70
     1
102
RTVSPropertyOp29
 70
     1
102
RTVSPropertyOp30
 70
     1
102
RTVSPropertyOp31
 70
     1
102
RTVSPropertyOp32
 70
     1
  0
XRECORD
  5
145BF
102
{ACAD_REACTORS
330
145BE
102
}
330
145BE
100
AcDbXrecord
280
     1
102
RTVSPropertyOp0
 70
     1
102
RTVSPropertyOp1
 70
     1
102
RTVSPropertyOp2
 70
     1
102
RTVSPropertyOp3
 70
     1
102
RTVSPropertyOp4
 70
     1
102
RTVSPropertyOp5
 70
     1
102
RTVSPropertyOp6
 70
     1
102
RTVSPropertyOp7
 70
     1
102
RTVSPropertyOp8
 70
     1
102
RTVSPropertyOp9
 70
     1
102
RTVSPropertyOp10
 70
     1
102
RTVSPropertyOp11
 70
     1
102
RTVSPropertyOp12
 70
     1
102
RTVSPropertyOp13
 70
     1
102
RTVSPropertyOp14
 70
     1
102
RTVSPropertyOp15
 70
     1
102
RTVSPropertyOp16
 70
     1
102
RTVSPropertyOp17
 70
     1
102
RTVSPropertyOp18
 70
     1
102
RTVSPropertyOp19
 70
     1
102
RTVSPropertyOp20
 70
     1
102
RTVSPropertyOp21
 70
     1
102
RTVSPropertyOp22
 70
     1
102
RTVSPropertyOp23
 70
     1
102
RTVSPropertyOp24
 70
     1
102
RTVSPropertyOp25
 70
     1
102
RTVSPropertyOp26
 70
     1
102
RTVSPropertyOp27
 70
     1
102
RTVSPropertyOp28
 70
     1
102
RTVSPropertyOp29
 70
     1
102
RTVSPropertyOp30
 70
     1
102
RTVSPropertyOp31
 70
     1
102
RTVSPropertyOp32
 70
     1
  0
XRECORD
  5
145B3
102
{ACAD_REACTORS
330
145B2
102
}
330
145B2
100
AcDbXrecord
280
     1
102
RTVSPropertyOp0
 70
     1
102
RTVSPropertyOp1
 70
     1
102
RTVSPropertyOp2
 70
     1
102
RTVSPropertyOp3
 70
     1
102
RTVSPropertyOp4
 70
     1
102
RTVSPropertyOp5
 70
     1
102
RTVSPropertyOp6
 70
     1
102
RTVSPropertyOp7
 70
     1
102
RTVSPropertyOp8
 70
     1
102
RTVSPropertyOp9
 70
     1
102
RTVSPropertyOp10
 70
     1
102
RTVSPropertyOp11
 70
     1
102
RTVSPropertyOp12
 70
     1
102
RTVSPropertyOp13
 70
     1
102
RTVSPropertyOp14
 70
     1
102
RTVSPropertyOp15
 70
     1
102
RTVSPropertyOp16
 70
     1
102
RTVSPropertyOp17
 70
     1
102
RTVSPropertyOp18
 70
     1
102
RTVSPropertyOp19
 70
     1
102
RTVSPropertyOp20
 70
     1
102
RTVSPropertyOp21
 70
     1
102
RTVSPropertyOp22
 70
     1
102
RTVSPropertyOp23
 70
     1
102
RTVSPropertyOp24
 70
     1
102
RTVSPropertyOp25
 70
     1
102
RTVSPropertyOp26
 70
     1
102
RTVSPropertyOp27
 70
     1
102
RTVSPropertyOp28
 70
     1
102
RTVSPropertyOp29
 70
     1
102
RTVSPropertyOp30
 70
     1
102
RTVSPropertyOp31
 70
     1
102
RTVSPropertyOp32
 70
     1
  0
XRECORD
  5
145CB
102
{ACAD_REACTORS
330
145CA
102
}
330
145CA
100
AcDbXrecord
280
     1
102
RTVSPropertyOp0
 70
     1
102
RTVSPropertyOp1
 70
     1
102
RTVSPropertyOp2
 70
     1
102
RTVSPropertyOp3
 70
     1
102
RTVSPropertyOp4
 70
     1
102
RTVSPropertyOp5
 70
     1
102
RTVSPropertyOp6
 70
     1
102
RTVSPropertyOp7
 70
     1
102
RTVSPropertyOp8
 70
     1
102
RTVSPropertyOp9
 70
     1
102
RTVSPropertyOp10
 70
     1
102
RTVSPropertyOp11
 70
     1
102
RTVSPropertyOp12
 70
     1
102
RTVSPropertyOp13
 70
     1
102
RTVSPropertyOp14
 70
     1
102
RTVSPropertyOp15
 70
     1
102
RTVSPropertyOp16
 70
     1
102
RTVSPropertyOp17
 70
     1
102
RTVSPropertyOp18
 70
     1
102
RTVSPropertyOp19
 70
     1
102
RTVSPropertyOp20
 70
     1
102
RTVSPropertyOp21
 70
     1
102
RTVSPropertyOp22
 70
     1
102
RTVSPropertyOp23
 70
     1
102
RTVSPropertyOp24
 70
     1
102
RTVSPropertyOp25
 70
     1
102
RTVSPropertyOp26
 70
     1
102
RTVSPropertyOp27
 70
     1
102
RTVSPropertyOp28
 70
     1
102
RTVSPropertyOp29
 70
     1
102
RTVSPropertyOp30
 70
     1
102
RTVSPropertyOp31
 70
     1
102
RTVSPropertyOp32
 70
     1
  0
ENDSEC
  0
EOF
