  0
SECTION
  2
HEADER
  9
$ACADVER
  1
AC1015
  9
$ACADMAINTVER
 70
    20
  9
$DWGCODEPAGE
  3
ANSI_932
  9
$INSBASE
 10
0.0
 20
0.0
 30
0.0
  9
$EXTMIN
 10
-0.0961157012643526
 20
-0.1087428640512371
 30
-0.000000000000013
  9
$EXTMAX
 10
1260.000005868048
 20
891.1291834334242
 30
0.0000000000000023
  9
$LIMMIN
 10
0.0
 20
0.0
  9
$LIMMAX
 10
1260.0
 20
891.0
  9
$ORTHOMODE
 70
     1
  9
$REGENMODE
 70
     1
  9
$FILLMODE
 70
     1
  9
$QTEXTMODE
 70
     0
  9
$MIRRTEXT
 70
     1
  9
$LTSCALE
 40
25.2
  9
$ATTMODE
 70
     1
  9
$TEXTSIZE
 40
0.2
  9
$TRACEWID
 40
0.05
  9
$TEXTSTYLE
  7
STANDARD
  9
$CLAYER
  8
0
  9
$CELTYPE
  6
CONTINUOUS
  9
$CECOLOR
 62
   256
  9
$CELTSCALE
 40
1.0
  9
$DISPSILH
 70
     0
  9
$DIMSCALE
 40
1.0
  9
$DIMASZ
 40
0.18
  9
$DIMEXO
 40
0.0625
  9
$DIMDLI
 40
0.38
  9
$DIMRND
 40
0.0
  9
$DIMDLE
 40
0.0
  9
$DIMEXE
 40
0.18
  9
$DIMTP
 40
0.0
  9
$DIMTM
 40
0.0
  9
$DIMTXT
 40
0.18
  9
$DIMCEN
 40
0.09
  9
$DIMTSZ
 40
0.0
  9
$DIMTOL
 70
     0
  9
$DIMLIM
 70
     0
  9
$DIMTIH
 70
     1
  9
$DIMTOH
 70
     1
  9
$DIMSE1
 70
     0
  9
$DIMSE2
 70
     0
  9
$DIMTAD
 70
     0
  9
$DIMZIN
 70
     0
  9
$DIMBLK
  1

  9
$DIMASO
 70
     1
  9
$DIMSHO
 70
     1
  9
$DIMPOST
  1

  9
$DIMAPOST
  1

  9
$DIMALT
 70
     0
  9
$DIMALTD
 70
     2
  9
$DIMALTF
 40
25.4
  9
$DIMLFAC
 40
1.0
  9
$DIMTOFL
 70
     0
  9
$DIMTVP
 40
0.0
  9
$DIMTIX
 70
     0
  9
$DIMSOXD
 70
     0
  9
$DIMSAH
 70
     0
  9
$DIMBLK1
  1

  9
$DIMBLK2
  1

  9
$DIMSTYLE
  2
STANDARD
  9
$DIMCLRD
 70
     0
  9
$DIMCLRE
 70
     0
  9
$DIMCLRT
 70
     0
  9
$DIMTFAC
 40
1.0
  9
$DIMGAP
 40
0.09
  9
$DIMJUST
 70
     0
  9
$DIMSD1
 70
     0
  9
$DIMSD2
 70
     0
  9
$DIMTOLJ
 70
     1
  9
$DIMTZIN
 70
     0
  9
$DIMALTZ
 70
     0
  9
$DIMALTTZ
 70
     0
  9
$DIMUPT
 70
     0
  9
$DIMDEC
 70
     4
  9
$DIMTDEC
 70
     4
  9
$DIMALTU
 70
     2
  9
$DIMALTTD
 70
     2
  9
$DIMTXSTY
  7
STANDARD
  9
$DIMAUNIT
 70
     0
  9
$DIMADEC
 70
     0
  9
$DIMALTRND
 40
0.0
  9
$DIMAZIN
 70
     0
  9
$DIMDSEP
 70
    46
  9
$DIMATFIT
 70
     3
  9
$DIMFRAC
 70
     0
  9
$DIMLDRBLK
  1

  9
$DIMLUNIT
 70
     2
  9
$DIMLWD
 70
    -2
  9
$DIMLWE
 70
    -2
  9
$DIMTMOVE
 70
     0
  9
$LUNITS
 70
     2
  9
$LUPREC
 70
     4
  9
$SKETCHINC
 40
0.1
  9
$FILLETRAD
 40
0.0
  9
$AUNITS
 70
     0
  9
$AUPREC
 70
     0
  9
$MENU
  1
.
  9
$ELEVATION
 40
0.0
  9
$PELEVATION
 40
0.0
  9
$THICKNESS
 40
0.0
  9
$LIMCHECK
 70
     0
  9
$CHAMFERA
 40
0.0
  9
$CHAMFERB
 40
0.0
  9
$CHAMFERC
 40
0.0
  9
$CHAMFERD
 40
0.0
  9
$SKPOLY
 70
     0
  9
$TDCREATE
 40
2451212.682759178
  9
$TDUCREATE
 40
2451212.307759178
  9
$TDUPDATE
 40
2458321.593409074
  9
$TDUUPDATE
 40
2458321.218409074
  9
$TDINDWG
 40
0.0819511111
  9
$TDUSRTIMER
 40
0.0819511111
  9
$USRTIMER
 70
     1
  9
$ANGBASE
 50
0.0
  9
$ANGDIR
 70
     0
  9
$PDMODE
 70
     0
  9
$PDSIZE
 40
0.0
  9
$PLINEWID
 40
0.0
  9
$SPLFRAME
 70
     0
  9
$SPLINETYPE
 70
     6
  9
$SPLINESEGS
 70
     8
  9
$HANDSEED
  5
11AD
  9
$SURFTAB1
 70
     6
  9
$SURFTAB2
 70
     6
  9
$SURFTYPE
 70
     6
  9
$SURFU
 70
     6
  9
$SURFV
 70
     6
  9
$UCSBASE
  2

  9
$UCSNAME
  2

  9
$UCSORG
 10
0.0
 20
0.0
 30
0.0
  9
$UCSXDIR
 10
1.0
 20
0.0
 30
0.0
  9
$UCSYDIR
 10
0.0
 20
1.0
 30
0.0
  9
$UCSORTHOREF
  2

  9
$UCSORTHOVIEW
 70
     0
  9
$UCSORGTOP
 10
0.0
 20
0.0
 30
0.0
  9
$UCSORGBOTTOM
 10
0.0
 20
0.0
 30
0.0
  9
$UCSORGLEFT
 10
0.0
 20
0.0
 30
0.0
  9
$UCSORGRIGHT
 10
0.0
 20
0.0
 30
0.0
  9
$UCSORGFRONT
 10
0.0
 20
0.0
 30
0.0
  9
$UCSORGBACK
 10
0.0
 20
0.0
 30
0.0
  9
$PUCSBASE
  2

  9
$PUCSNAME
  2

  9
$PUCSORG
 10
0.0
 20
0.0
 30
0.0
  9
$PUCSXDIR
 10
1.0
 20
0.0
 30
0.0
  9
$PUCSYDIR
 10
0.0
 20
1.0
 30
0.0
  9
$PUCSORTHOREF
  2

  9
$PUCSORTHOVIEW
 70
     0
  9
$PUCSORGTOP
 10
0.0
 20
0.0
 30
0.0
  9
$PUCSORGBOTTOM
 10
0.0
 20
0.0
 30
0.0
  9
$PUCSORGLEFT
 10
0.0
 20
0.0
 30
0.0
  9
$PUCSORGRIGHT
 10
0.0
 20
0.0
 30
0.0
  9
$PUCSORGFRONT
 10
0.0
 20
0.0
 30
0.0
  9
$PUCSORGBACK
 10
0.0
 20
0.0
 30
0.0
  9
$USERI1
 70
     0
  9
$USERI2
 70
     0
  9
$USERI3
 70
     0
  9
$USERI4
 70
     0
  9
$USERI5
 70
     0
  9
$USERR1
 40
0.0
  9
$USERR2
 40
0.0
  9
$USERR3
 40
0.0
  9
$USERR4
 40
0.0
  9
$USERR5
 40
0.0
  9
$WORLDVIEW
 70
     1
  9
$SHADEDGE
 70
     3
  9
$SHADEDIF
 70
    70
  9
$TILEMODE
 70
     1
  9
$MAXACTVP
 70
    16
  9
$PINSBASE
 10
0.0
 20
0.0
 30
0.0
  9
$PLIMCHECK
 70
     0
  9
$PEXTMIN
 10
1.000000000000000E+20
 20
1.000000000000000E+20
 30
1.000000000000000E+20
  9
$PEXTMAX
 10
-1.000000000000000E+20
 20
-1.000000000000000E+20
 30
-1.000000000000000E+20
  9
$PLIMMIN
 10
0.0
 20
0.0
  9
$PLIMMAX
 10
12.0
 20
9.0
  9
$UNITMODE
 70
     0
  9
$VISRETAIN
 70
     1
  9
$PLINEGEN
 70
     0
  9
$PSLTSCALE
 70
     1
  9
$TREEDEPTH
 70
  3020
  9
$CMLSTYLE
  2
STANDARD
  9
$CMLJUST
 70
     0
  9
$CMLSCALE
 40
1.0
  9
$PROXYGRAPHICS
 70
     1
  9
$MEASUREMENT
 70
     0
  9
$CELWEIGHT
370
    -1
  9
$ENDCAPS
280
     0
  9
$JOINSTYLE
280
     0
  9
$LWDISPLAY
290
     0
  9
$INSUNITS
 70
     0
  9
$HYPERLINKBASE
  1

  9
$STYLESHEET
  1

  9
$XEDIT
290
     1
  9
$CEPSNTYPE
380
     0
  9
$PSTYLEMODE
290
     0
  9
$FINGERPRINTGUID
  2
{5515FCAB-87E1-497F-8228-C13691A2264C}
  9
$VERSIONGUID
  2
{E03AB60A-27E3-4C30-922C-4F7A6F9CAC89}
  9
$EXTNAMES
290
     1
  9
$PSVPSCALE
 40
0.0
  9
$OLESTARTUP
290
     0
  0
ENDSEC
  0
SECTION
  2
CLASSES
  0
CLASS
  1
ACDBDICTIONARYWDFLT
  2
AcDbDictionaryWithDefault
  3
ObjectDBX Classes
 90
        0
280
     0
281
     0
  0
CLASS
  1
TABLESTYLE
  2
AcDbTableStyle
  3
ObjectDBX Classes
 90
     4095
280
     0
281
     0
  0
CLASS
  1
DICTIONARYVAR
  2
AcDbDictionaryVar
  3
ObjectDBX Classes
 90
        0
280
     0
281
     0
  0
CLASS
  1
ACDBPLACEHOLDER
  2
AcDbPlaceHolder
  3
ObjectDBX Classes
 90
        0
280
     0
281
     0
  0
CLASS
  1
LAYOUT
  2
AcDbLayout
  3
ObjectDBX Classes
 90
        0
280
     0
281
     0
  0
CLASS
  1
SORTENTSTABLE
  2
AcDbSortentsTable
  3
ObjectDBX Classes
 90
        0
280
     0
281
     0
  0
CLASS
  1
MATERIAL
  2
AcDbMaterial
  3
ObjectDBX Classes
 90
     1153
280
     0
281
     0
  0
CLASS
  1
VISUALSTYLE
  2
AcDbVisualStyle
  3
ObjectDBX Classes
 90
     4095
280
     0
281
     0
  0
CLASS
  1
SCALE
  2
AcDbScale
  3
ObjectDBX Classes
 90
     1153
280
     0
281
     0
  0
CLASS
  1
MLEADERSTYLE
  2
AcDbMLeaderStyle
  3
ACDB_MLEADERSTYLE_CLASS
 90
     4095
280
     0
281
     0
  0
CLASS
  1
CELLSTYLEMAP
  2
AcDbCellStyleMap
  3
ObjectDBX Classes
 90
     1152
280
     0
281
     0
  0
ENDSEC
  0
SECTION
  2
TABLES
  0
TABLE
  2
VPORT
  5
1
330
0
100
AcDbSymbolTable
 70
     1
  0
VPORT
  5
1029
330
1
100
AcDbSymbolTableRecord
100
AcDbViewportTableRecord
  2
*Active
 70
     0
 10
0.0
 20
0.0
 11
1.0
 21
1.0
 12
629.9519450833918
 22
445.5102202846864
 13
0.0
 23
0.0
 14
1.0
 24
1.0
 15
0.0
 25
0.0
 16
0.0
 26
0.0
 36
1.0
 17
0.0
 27
0.0
 37
0.0
 40
899.6326320396809
 41
1.882075471698112
 42
50.0
 43
0.0
 44
0.0
 50
0.0
 51
0.0
 71
     0
 72
   100
 73
     1
 74
     1
 75
     0
 76
     0
 77
     0
 78
     0
281
     0
 65
     1
110
0.0
120
0.0
130
0.0
111
1.0
121
0.0
131
0.0
112
0.0
122
1.0
132
0.0
 79
     0
146
0.0
1001
ACAD_NAV_VCDISPLAY
1070
     3
  0
ENDTAB
  0
TABLE
  2
LTYPE
  5
6C
330
0
100
AcDbSymbolTable
 70
     4
  0
LTYPE
  5
1D
330
6C
100
AcDbSymbolTableRecord
100
AcDbLinetypeTableRecord
  2
BYBLOCK
 70
     0
  3

 72
    65
 73
     0
 40
0.0
  0
LTYPE
  5
1E
330
6C
100
AcDbSymbolTableRecord
100
AcDbLinetypeTableRecord
  2
BYLAYER
 70
     0
  3

 72
    65
 73
     0
 40
0.0
  0
LTYPE
  5
1F
330
6C
100
AcDbSymbolTableRecord
100
AcDbLinetypeTableRecord
  2
CONTINUOUS
 70
     0
  3
Solid line
 72
    65
 73
     0
 40
0.0
  0
LTYPE
  5
26
330
6C
100
AcDbSymbolTableRecord
100
AcDbLinetypeTableRecord
  2
DASHDOT
 70
     0
  3
__ . __ . __ . __ . __ . __ . __ . __ . __ . __
 72
    65
 73
     4
 40
1.0
 49
0.5
 74
     0
 49
-0.25
 74
     0
 49
0.0
 74
     0
 49
-0.25
 74
     0
  0
LTYPE
  5
2F
330
6C
100
AcDbSymbolTableRecord
100
AcDbLinetypeTableRecord
  2
DOT
 70
     0
  3
. . . . . . . . . . . . . . . . . . . . . . . .
 72
    65
 73
     2
 40
0.25
 49
0.0
 74
     0
 49
-0.25
 74
     0
  0
LTYPE
  5
32
330
6C
100
AcDbSymbolTableRecord
100
AcDbLinetypeTableRecord
  2
HIDDEN
 70
     0
  3
__ __ __ __ __ __ __ __ __ __ __ __ __ __ __ __
 72
    65
 73
     2
 40
0.375
 49
0.25
 74
     0
 49
-0.125
 74
     0
  0
ENDTAB
  0
TABLE
  2
LAYER
  5
6B
102
{ACAD_XDICTIONARY
360
ED9
102
}
330
0
100
AcDbSymbolTable
 70
     2
  0
LAYER
  5
38
102
{ACAD_XDICTIONARY
360
1110
102
}
330
6B
100
AcDbSymbolTableRecord
100
AcDbLayerTableRecord
  2
0
 70
     0
 62
     7
  6
CONTINUOUS
370
    -3
390
A93
  0
LAYER
  5
39
102
{ACAD_XDICTIONARY
360
1112
102
}
330
6B
100
AcDbSymbolTableRecord
100
AcDbLayerTableRecord
  2
LEVEL001
 70
     0
 62
     7
  6
CONTINUOUS
370
    -3
390
A93
  0
ENDTAB
  0
TABLE
  2
STYLE
  5
6
330
0
100
AcDbSymbolTable
 70
     1
  0
STYLE
  5
7
330
6
100
AcDbSymbolTableRecord
100
AcDbTextStyleTableRecord
  2
STANDARD
 70
     0
 40
0.0
 41
0.8
 50
0.0
 71
     0
 42
0.2
  3
TXT.shx
  4
BIGFONT.shx
  0
ENDTAB
  0
TABLE
  2
VIEW
  5
2
330
0
100
AcDbSymbolTable
 70
     1
  0
ENDTAB
  0
TABLE
  2
UCS
  5
3
330
0
100
AcDbSymbolTable
 70
     0
  0
ENDTAB
  0
TABLE
  2
APPID
  5
4
330
0
100
AcDbSymbolTable
 70
     5
  0
APPID
  5
5
330
4
100
AcDbSymbolTableRecord
100
AcDbRegAppTableRecord
  2
ACAD
 70
     0
  0
APPID
  5
1079
330
4
100
AcDbSymbolTableRecord
100
AcDbRegAppTableRecord
  2
ACAD_NAV_VCDISPLAY
 70
     0
  0
APPID
  5
10C1
330
4
100
AcDbSymbolTableRecord
100
AcDbRegAppTableRecord
  2
GradientColor1ACI
 70
     0
  0
APPID
  5
10C2
330
4
100
AcDbSymbolTableRecord
100
AcDbRegAppTableRecord
  2
GradientColor2ACI
 70
     0
  0
APPID
  5
11AC
330
4
100
AcDbSymbolTableRecord
100
AcDbRegAppTableRecord
  2
ACAD_MLEADERVER
 70
     0
  0
ENDTAB
  0
TABLE
  2
DIMSTYLE
  5
6A
330
0
100
AcDbSymbolTable
 70
     1
100
AcDbDimStyleTable
 71
     0
  0
DIMSTYLE
105
3F
330
6A
100
AcDbSymbolTableRecord
100
AcDbDimStyleTableRecord
  2
STANDARD
 70
     0
340
7
  0
ENDTAB
  0
TABLE
  2
BLOCK_RECORD
  5
9
330
0
100
AcDbSymbolTable
 70
     0
  0
BLOCK_RECORD
  5
A
102
{ACAD_XDICTIONARY
360
1025
102
}
330
9
100
AcDbSymbolTableRecord
100
AcDbBlockTableRecord
  2
*MODEL_SPACE
340
A9A
  0
BLOCK_RECORD
  5
B
330
9
100
AcDbSymbolTableRecord
100
AcDbBlockTableRecord
  2
*PAPER_SPACE
340
A9B
  0
ENDTAB
  0
ENDSEC
  0
SECTION
  2
BLOCKS
  0
BLOCK
  5
44
330
A
100
AcDbEntity
  8
0
100
AcDbBlockBegin
  2
*MODEL_SPACE
 70
     0
 10
0.0
 20
0.0
 30
0.0
  3
*MODEL_SPACE
  1

  0
ENDBLK
  5
57
330
A
100
AcDbEntity
  8
0
100
AcDbBlockEnd
  0
BLOCK
  5
45
330
B
100
AcDbEntity
 67
     1
  8
0
100
AcDbBlockBegin
  2
*PAPER_SPACE
 70
     0
 10
0.0
 20
0.0
 30
0.0
  3
*PAPER_SPACE
  1

  0
ENDBLK
  5
58
330
B
100
AcDbEntity
 67
     1
  8
0
100
AcDbBlockEnd
  0
ENDSEC
  0
SECTION
  2
ENTITIES
  0
LWPOLYLINE
  5
A9
330
A
100
AcDbEntity
  8
LEVEL001
  6
Continuous
 62
     3
370
    40
100
AcDbPolyline
 90
        5
 70
     0
 43
0.0
 10
46.500000000082
 20
36.000000000006
 10
1213.5000000001
 20
36.000000000006
 10
1213.5000000001
 20
855.00000000001
 10
46.500000000082
 20
855.00000000001
 10
46.500000000082
 20
36.000000000006
  0
LINE
  5
B0
330
A
100
AcDbEntity
  8
LEVEL001
  6
Continuous
 62
     3
370
    40
100
AcDbLine
 10
913.50000000008
 20
855.00000000001
 30
0.0
 11
913.50000000008
 21
36.000000000006
 31
0.0
  0
LWPOLYLINE
  5
B1
102
{ACAD_REACTORS
330
10C3
102
}
330
A
100
AcDbEntity
  8
LEVEL001
  6
Continuous
 62
     3
100
AcDbPolyline
 90
        6
 70
     0
 43
0.0
 10
1032.4500000001
 20
816.2250000000099
 10
1010.8500000001
 20
816.2250000000099
 10
1010.8500000001
 20
783.82500000001
 10
1021.6500000001
 20
783.82500000001
 10
1021.6500000001
 20
789.22500000001
 10
1032.4500000001
 20
789.22500000001
  0
ARC
  5
B9
330
A
100
AcDbEntity
  8
LEVEL001
  6
Continuous
 62
     3
100
AcDbCircle
 10
1032.4500000001
 20
802.7250000000099
 30
0.0
 40
13.5
100
AcDbArc
 50
270.0
 51
90.0
  0
LINE
  5
BA
330
A
100
AcDbEntity
  8
LEVEL001
  6
Continuous
 62
     3
100
AcDbLine
 10
1021.6500000001
 20
800.02500000001
 30
0.0
 11
1032.4500000001
 21
800.02500000001
 31
0.0
  0
ARC
  5
BB
330
A
100
AcDbEntity
  8
LEVEL001
  6
Continuous
 62
     3
100
AcDbCircle
 10
1032.4500000001
 20
802.7250000000099
 30
0.0
 40
2.7
100
AcDbArc
 50
270.0
 51
90.0
  0
LINE
  5
BC
330
A
100
AcDbEntity
  8
LEVEL001
  6
Continuous
 62
     3
100
AcDbLine
 10
1032.4500000001
 20
805.4250000000099
 30
0.0
 11
1021.6500000001
 21
805.4250000000099
 31
0.0
  0
LINE
  5
BD
330
A
100
AcDbEntity
  8
LEVEL001
  6
Continuous
 62
     3
100
AcDbLine
 10
1021.6500000001
 20
805.4250000000099
 30
0.0
 11
1021.6500000001
 21
800.02500000001
 31
0.0
  0
LWPOLYLINE
  5
BE
102
{ACAD_REACTORS
330
10C3
102
}
330
A
100
AcDbEntity
  8
LEVEL001
  6
Continuous
 62
     3
100
AcDbPolyline
 90
       26
 70
     0
 43
0.0
 10
1037.8500000001
 20
783.82500000001
 10
1059.4500000001
 20
816.2250000000099
 10
1086.4500000001
 20
816.2250000000099
 10
1086.4500000001
 20
794.62500000001
 10
1102.6500000001
 20
794.62500000001
 10
1102.6500000001
 20
805.4250000000099
 10
1091.8500000001
 20
805.4250000000099
 10
1091.8500000001
 20
816.2250000000099
 10
1156.6500000001
 20
816.2250000000099
 10
1156.6500000001
 20
805.4250000000099
 10
1135.0500000001
 20
805.4250000000099
 10
1135.0500000001
 20
802.7250000000099
 10
1153.9500000001
 20
802.7250000000099
 10
1153.9500000001
 20
797.32500000001
 10
1135.0500000001
 20
797.32500000001
 10
1135.0500000001
 20
794.62500000001
 10
1156.6500000001
 20
794.62500000001
 10
1156.6500000001
 20
783.82500000001
 10
1124.2500000001
 20
783.82500000001
 10
1124.2500000001
 20
805.4250000000099
 10
1113.4500000001
 20
805.4250000000099
 10
1113.4500000001
 20
783.82500000001
 10
1075.6500000001
 20
783.82500000001
 10
1075.6500000001
 20
816.2250000000099
 10
1054.0500000001
 20
783.82500000001
 10
1037.8500000001
 20
783.82500000001
  0
LWPOLYLINE
  5
DA
102
{ACAD_REACTORS
330
10C3
102
}
330
A
100
AcDbEntity
  8
LEVEL001
  6
Continuous
 62
     3
100
AcDbPolyline
 90
        4
 70
     0
 43
0.0
 10
1072.0500000001
 20
804.3350077041701
 10
1058.3766615307
 20
783.82500000001
 10
1072.0500000001
 20
783.82500000001
 10
1072.0500000001
 20
804.3350077041701
  0
ARC
  5
E0
330
A
100
AcDbEntity
  8
LEVEL001
  6
Continuous
 62
     3
100
AcDbCircle
 10
1172.8500000001
 20
800.02500000001
 30
0.0
 40
16.2
100
AcDbArc
 50
90.0
 51
270.0
  0
ARC
  5
E1
330
A
100
AcDbEntity
  8
LEVEL001
  6
Continuous
 62
     3
100
AcDbCircle
 10
1172.8500000001
 20
800.02500000001
 30
0.0
 40
5.4
100
AcDbArc
 50
90.0
 51
270.0
  0
LWPOLYLINE
  5
E2
102
{ACAD_REACTORS
330
10C3
102
}
330
A
100
AcDbEntity
  8
LEVEL001
  6
Continuous
 62
     3
100
AcDbPolyline
 90
        4
 70
     0
 43
0.0
 10
1172.8500000001
 20
816.2250000000099
 10
1189.0500000001
 20
816.2250000000099
 10
1189.0500000001
 20
805.4250000000099
 10
1172.8500000001
 20
805.4250000000099
  0
LINE
  5
E8
330
A
100
AcDbEntity
  8
LEVEL001
  6
Continuous
 62
     3
100
AcDbLine
 10
1010.8500000001
 20
816.2250000000099
 30
0.0
 11
1010.8500000001
 21
783.82500000001
 31
0.0
  0
LINE
  5
E9
330
A
100
AcDbEntity
  8
LEVEL001
  6
Continuous
 62
     3
100
AcDbLine
 10
1010.8500000001
 20
783.82500000001
 30
0.0
 11
1021.6500000001
 21
783.82500000001
 31
0.0
  0
LINE
  5
EA
330
A
100
AcDbEntity
  8
LEVEL001
  6
Continuous
 62
     3
100
AcDbLine
 10
1021.6500000001
 20
783.82500000001
 30
0.0
 11
1021.6500000001
 21
789.22500000001
 31
0.0
  0
LINE
  5
EB
330
A
100
AcDbEntity
  8
LEVEL001
  6
Continuous
 62
     3
100
AcDbLine
 10
1021.6500000001
 20
789.22500000001
 30
0.0
 11
1032.4500000001
 21
789.22500000001
 31
0.0
  0
ARC
  5
EC
102
{ACAD_REACTORS
330
10C3
102
}
330
A
100
AcDbEntity
  8
LEVEL001
  6
Continuous
 62
     3
100
AcDbCircle
 10
1032.4500000001
 20
802.7250000000099
 30
0.0
 40
13.5
100
AcDbArc
 50
270.0
 51
90.0
  0
LINE
  5
ED
102
{ACAD_REACTORS
330
10C3
102
}
330
A
100
AcDbEntity
  8
LEVEL001
  6
Continuous
 62
     3
100
AcDbLine
 10
1032.4500000001
 20
816.2250000000099
 30
0.0
 11
1010.8500000001
 21
816.2250000000099
 31
0.0
  0
LINE
  5
EE
102
{ACAD_REACTORS
330
10C3
102
}
330
A
100
AcDbEntity
  8
LEVEL001
  6
Continuous
 62
     3
100
AcDbLine
 10
1021.6500000001
 20
805.4250000000099
 30
0.0
 11
1021.6500000001
 21
800.02500000001
 31
0.0
  0
LINE
  5
EF
102
{ACAD_REACTORS
330
10C3
102
}
330
A
100
AcDbEntity
  8
LEVEL001
  6
Continuous
 62
     3
100
AcDbLine
 10
1021.6500000001
 20
800.02500000001
 30
0.0
 11
1032.4500000001
 21
800.02500000001
 31
0.0
  0
ARC
  5
F0
102
{ACAD_REACTORS
330
10C3
102
}
330
A
100
AcDbEntity
  8
LEVEL001
  6
Continuous
 62
     3
100
AcDbCircle
 10
1032.4500000001
 20
802.7250000000099
 30
0.0
 40
2.7
100
AcDbArc
 50
270.0
 51
90.0
  0
LINE
  5
F1
102
{ACAD_REACTORS
330
10C3
102
}
330
A
100
AcDbEntity
  8
LEVEL001
  6
Continuous
 62
     3
100
AcDbLine
 10
1032.4500000001
 20
805.4250000000099
 30
0.0
 11
1021.6500000001
 21
805.4250000000099
 31
0.0
  0
LINE
  5
F2
330
A
100
AcDbEntity
  8
LEVEL001
  6
Continuous
 62
     3
100
AcDbLine
 10
1059.4500000001
 20
816.2250000000099
 30
0.0
 11
1037.8500000001
 21
783.82500000001
 31
0.0
  0
LINE
  5
F3
330
A
100
AcDbEntity
  8
LEVEL001
  6
Continuous
 62
     3
100
AcDbLine
 10
1037.8500000001
 20
783.82500000001
 30
0.0
 11
1054.0500000001
 21
783.82500000001
 31
0.0
  0
LINE
  5
F4
102
{ACAD_REACTORS
330
10C3
102
}
330
A
100
AcDbEntity
  8
LEVEL001
  6
Continuous
 62
     3
100
AcDbLine
 10
1054.0500000001
 20
783.82500000001
 30
0.0
 11
1075.6500000001
 21
816.2250000000099
 31
0.0
  0
LINE
  5
F5
330
A
100
AcDbEntity
  8
LEVEL001
  6
Continuous
 62
     3
100
AcDbLine
 10
1075.6500000001
 20
816.2250000000099
 30
0.0
 11
1059.4500000001
 21
816.2250000000099
 31
0.0
  0
LINE
  5
F6
330
A
100
AcDbEntity
  8
LEVEL001
  6
Continuous
 62
     3
100
AcDbLine
 10
1072.0500000001
 20
783.82500000001
 30
0.0
 11
1072.0500000001
 21
804.3350077041701
 31
0.0
  0
LINE
  5
F7
102
{ACAD_REACTORS
330
10C3
102
}
330
A
100
AcDbEntity
  8
LEVEL001
  6
Continuous
 62
     3
100
AcDbLine
 10
1072.0500000001
 20
804.3350077041701
 30
0.0
 11
1058.3766615307
 21
783.82500000001
 31
0.0
  0
LINE
  5
F8
330
A
100
AcDbEntity
  8
LEVEL001
  6
Continuous
 62
     3
100
AcDbLine
 10
1058.3766615307
 20
783.82500000001
 30
0.0
 11
1072.0500000001
 21
783.82500000001
 31
0.0
  0
LINE
  5
F9
102
{ACAD_REACTORS
330
10C3
102
}
330
A
100
AcDbEntity
  8
LEVEL001
  6
Continuous
 62
     3
100
AcDbLine
 10
1075.6500000001
 20
783.82500000001
 30
0.0
 11
1113.4500000001
 21
783.82500000001
 31
0.0
  0
LINE
  5
FA
330
A
100
AcDbEntity
  8
LEVEL001
  6
Continuous
 62
     3
100
AcDbLine
 10
1113.4500000001
 20
783.82500000001
 30
0.0
 11
1113.4500000001
 21
805.4250000000099
 31
0.0
  0
LINE
  5
FB
330
A
100
AcDbEntity
  8
LEVEL001
  6
Continuous
 62
     3
100
AcDbLine
 10
1113.4500000001
 20
805.4250000000099
 30
0.0
 11
1124.2500000001
 21
805.4250000000099
 31
0.0
  0
LINE
  5
FC
330
A
100
AcDbEntity
  8
LEVEL001
  6
Continuous
 62
     3
100
AcDbLine
 10
1124.2500000001
 20
805.4250000000099
 30
0.0
 11
1124.2500000001
 21
783.82500000001
 31
0.0
  0
LINE
  5
FD
330
A
100
AcDbEntity
  8
LEVEL001
  6
Continuous
 62
     3
100
AcDbLine
 10
1124.2500000001
 20
783.82500000001
 30
0.0
 11
1156.6500000001
 21
783.82500000001
 31
0.0
  0
LINE
  5
FE
330
A
100
AcDbEntity
  8
LEVEL001
  6
Continuous
 62
     3
100
AcDbLine
 10
1156.6500000001
 20
783.82500000001
 30
0.0
 11
1156.6500000001
 21
794.62500000001
 31
0.0
  0
LINE
  5
FF
330
A
100
AcDbEntity
  8
LEVEL001
  6
Continuous
 62
     3
100
AcDbLine
 10
1156.6500000001
 20
794.62500000001
 30
0.0
 11
1135.0500000001
 21
794.62500000001
 31
0.0
  0
LINE
  5
100
330
A
100
AcDbEntity
  8
LEVEL001
  6
Continuous
 62
     3
100
AcDbLine
 10
1135.0500000001
 20
794.62500000001
 30
0.0
 11
1135.0500000001
 21
797.32500000001
 31
0.0
  0
LINE
  5
101
330
A
100
AcDbEntity
  8
LEVEL001
  6
Continuous
 62
     3
100
AcDbLine
 10
1135.0500000001
 20
797.32500000001
 30
0.0
 11
1153.9500000001
 21
797.32500000001
 31
0.0
  0
LINE
  5
102
330
A
100
AcDbEntity
  8
LEVEL001
  6
Continuous
 62
     3
100
AcDbLine
 10
1153.9500000001
 20
797.32500000001
 30
0.0
 11
1153.9500000001
 21
802.7250000000099
 31
0.0
  0
LINE
  5
103
330
A
100
AcDbEntity
  8
LEVEL001
  6
Continuous
 62
     3
100
AcDbLine
 10
1153.9500000001
 20
802.7250000000099
 30
0.0
 11
1135.0500000001
 21
802.7250000000099
 31
0.0
  0
LINE
  5
104
330
A
100
AcDbEntity
  8
LEVEL001
  6
Continuous
 62
     3
100
AcDbLine
 10
1135.0500000001
 20
802.7250000000099
 30
0.0
 11
1135.0500000001
 21
805.4250000000099
 31
0.0
  0
LINE
  5
105
330
A
100
AcDbEntity
  8
LEVEL001
  6
Continuous
 62
     3
100
AcDbLine
 10
1135.0500000001
 20
805.4250000000099
 30
0.0
 11
1156.6500000001
 21
805.4250000000099
 31
0.0
  0
LINE
  5
106
330
A
100
AcDbEntity
  8
LEVEL001
  6
Continuous
 62
     3
100
AcDbLine
 10
1156.6500000001
 20
805.4250000000099
 30
0.0
 11
1156.6500000001
 21
816.2250000000099
 31
0.0
  0
LINE
  5
107
330
A
100
AcDbEntity
  8
LEVEL001
  6
Continuous
 62
     3
100
AcDbLine
 10
1156.6500000001
 20
816.2250000000099
 30
0.0
 11
1091.8500000001
 21
816.2250000000099
 31
0.0
  0
LINE
  5
108
330
A
100
AcDbEntity
  8
LEVEL001
  6
Continuous
 62
     3
100
AcDbLine
 10
1091.8500000001
 20
816.2250000000099
 30
0.0
 11
1091.8500000001
 21
805.4250000000099
 31
0.0
  0
LINE
  5
109
330
A
100
AcDbEntity
  8
LEVEL001
  6
Continuous
 62
     3
100
AcDbLine
 10
1091.8500000001
 20
805.4250000000099
 30
0.0
 11
1102.6500000001
 21
805.4250000000099
 31
0.0
  0
LINE
  5
10A
330
A
100
AcDbEntity
  8
LEVEL001
  6
Continuous
 62
     3
100
AcDbLine
 10
1102.6500000001
 20
805.4250000000099
 30
0.0
 11
1102.6500000001
 21
794.62500000001
 31
0.0
  0
LINE
  5
10B
330
A
100
AcDbEntity
  8
LEVEL001
  6
Continuous
 62
     3
100
AcDbLine
 10
1102.6500000001
 20
794.62500000001
 30
0.0
 11
1086.4500000001
 21
794.62500000001
 31
0.0
  0
LINE
  5
10C
330
A
100
AcDbEntity
  8
LEVEL001
  6
Continuous
 62
     3
100
AcDbLine
 10
1086.4500000001
 20
794.62500000001
 30
0.0
 11
1086.4500000001
 21
816.2250000000099
 31
0.0
  0
LINE
  5
10D
330
A
100
AcDbEntity
  8
LEVEL001
  6
Continuous
 62
     3
100
AcDbLine
 10
1086.4500000001
 20
816.2250000000099
 30
0.0
 11
1075.6500000001
 21
816.2250000000099
 31
0.0
  0
LINE
  5
10E
330
A
100
AcDbEntity
  8
LEVEL001
  6
Continuous
 62
     3
100
AcDbLine
 10
1075.6500000001
 20
816.2250000000099
 30
0.0
 11
1075.6500000001
 21
783.82500000001
 31
0.0
  0
LINE
  5
10F
102
{ACAD_REACTORS
330
10C3
102
}
330
A
100
AcDbEntity
  8
LEVEL001
  6
Continuous
 62
     3
100
AcDbLine
 10
1172.8500000001
 20
783.82500000001
 30
0.0
 11
1189.0500000001
 21
783.82500000001
 31
0.0
  0
LINE
  5
110
102
{ACAD_REACTORS
330
10C3
102
}
330
A
100
AcDbEntity
  8
LEVEL001
  6
Continuous
 62
     3
100
AcDbLine
 10
1189.0500000001
 20
783.82500000001
 30
0.0
 11
1189.0500000001
 21
794.62500000001
 31
0.0
  0
LINE
  5
111
102
{ACAD_REACTORS
330
10C3
102
}
330
A
100
AcDbEntity
  8
LEVEL001
  6
Continuous
 62
     3
100
AcDbLine
 10
1189.0500000001
 20
794.62500000001
 30
0.0
 11
1172.8500000001
 21
794.62500000001
 31
0.0
  0
ARC
  5
112
102
{ACAD_REACTORS
330
10C3
102
}
330
A
100
AcDbEntity
  8
LEVEL001
  6
Continuous
 62
     3
100
AcDbCircle
 10
1172.8500000001
 20
800.02500000001
 30
0.0
 40
5.4
100
AcDbArc
 50
90.0
 51
270.0
  0
LINE
  5
113
102
{ACAD_REACTORS
330
10C3
102
}
330
A
100
AcDbEntity
  8
LEVEL001
  6
Continuous
 62
     3
100
AcDbLine
 10
1172.8500000001
 20
805.4250000000099
 30
0.0
 11
1189.0500000001
 21
805.4250000000099
 31
0.0
  0
LINE
  5
114
330
A
100
AcDbEntity
  8
LEVEL001
  6
Continuous
 62
     3
100
AcDbLine
 10
1189.0500000001
 20
805.4250000000099
 30
0.0
 11
1189.0500000001
 21
816.2250000000099
 31
0.0
  0
LINE
  5
115
330
A
100
AcDbEntity
  8
LEVEL001
  6
Continuous
 62
     3
100
AcDbLine
 10
1189.0500000001
 20
816.2250000000099
 30
0.0
 11
1172.8500000001
 21
816.2250000000099
 31
0.0
  0
ARC
  5
116
102
{ACAD_REACTORS
330
10C3
102
}
330
A
100
AcDbEntity
  8
LEVEL001
  6
Continuous
 62
     3
100
AcDbCircle
 10
1172.8500000001
 20
800.02500000001
 30
0.0
 40
16.2
100
AcDbArc
 50
90.0
 51
270.0
  0
TEXT
  5
117
330
A
100
AcDbEntity
  8
LEVEL001
 62
     3
100
AcDbText
 10
1010.8500000001
 20
821.6250000000099
 30
0.0
 40
11.25
  1
ケージーパルテック株式会社
 41
0.8
100
AcDbText
  0
LWPOLYLINE
  5
118
102
{ACAD_REACTORS
330
10C3
102
}
330
A
100
AcDbEntity
  8
LEVEL001
  6
Continuous
 62
     3
100
AcDbPolyline
 90
        4
 70
     0
 43
0.0
 10
1000.0500000001
 20
791.0250000000099
 10
986.5500000001301
 20
812.62500000001
 10
1000.0500000001
 20
812.62500000001
 10
1000.0500000001
 20
791.0250000000099
  0
LINE
  5
11E
330
A
100
AcDbEntity
  8
LEVEL001
  6
Continuous
 62
     3
100
AcDbLine
 10
986.5500000001301
 20
812.62500000001
 30
0.0
 11
1000.0500000001
 21
791.0250000000099
 31
0.0
  0
LINE
  5
11F
330
A
100
AcDbEntity
  8
LEVEL001
  6
Continuous
 62
     3
100
AcDbLine
 10
1000.0500000001
 20
791.0250000000099
 30
0.0
 11
1000.0500000001
 21
812.62500000001
 31
0.0
  0
LINE
  5
120
102
{ACAD_REACTORS
330
10C3
102
}
330
A
100
AcDbEntity
  8
LEVEL001
  6
Continuous
 62
     3
100
AcDbLine
 10
1000.0500000001
 20
812.62500000001
 30
0.0
 11
986.5500000001301
 21
812.62500000001
 31
0.0
  0
LWPOLYLINE
  5
121
330
A
100
AcDbEntity
  8
LEVEL001
  6
Continuous
 62
     3
100
AcDbPolyline
 90
        3
 70
     0
 43
0.0
 10
957.15000000013
 20
841.42500000001
 10
937.95000000013
 20
812.62500000001
 10
957.15000000013
 20
783.82500000001
  0
LWPOLYLINE
  5
126
330
A
100
AcDbEntity
  8
LEVEL001
  6
Continuous
 62
     3
100
AcDbPolyline
 90
        3
 70
     0
 43
0.0
 10
973.3500000001299
 20
783.82500000001
 10
954.1500000001301
 20
812.62500000001
 10
973.3500000001299
 20
841.42500000001
  0
LWPOLYLINE
  5
12B
330
A
100
AcDbEntity
  8
LEVEL001
  6
Continuous
 62
     3
100
AcDbPolyline
 90
        3
 70
     0
 43
0.0
 10
981.45000000013
 20
841.42500000001
 10
962.2500000001299
 20
812.62500000001
 10
981.45000000013
 20
783.82500000001
  0
LWPOLYLINE
  5
130
330
A
100
AcDbEntity
  8
LEVEL001
  6
Continuous
 62
     3
100
AcDbPolyline
 90
        3
 70
     0
 43
0.0
 10
997.6500000001299
 20
783.82500000001
 10
978.4500000001299
 20
812.62500000001
 10
997.6500000001299
 20
841.42500000001
  0
LWPOLYLINE
  5
135
102
{ACAD_REACTORS
330
10C3
102
}
330
A
100
AcDbEntity
  8
LEVEL001
  6
Continuous
 62
     3
100
AcDbPolyline
 90
        3
 70
     0
 43
0.0
 10
957.15000000013
 20
783.82500000001
 10
937.95000000013
 20
812.62500000001
 10
957.15000000013
 20
841.42500000001
  0
LINE
  5
13A
102
{ACAD_REACTORS
330
10C3
102
}
330
A
100
AcDbEntity
  8
LEVEL001
  6
Continuous
 62
     3
100
AcDbLine
 10
957.15000000013
 20
841.42500000001
 30
0.0
 11
973.3500000001299
 21
841.42500000001
 31
0.0
  0
LWPOLYLINE
  5
13B
102
{ACAD_REACTORS
330
10C3
102
}
330
A
100
AcDbEntity
  8
LEVEL001
  6
Continuous
 62
     3
100
AcDbPolyline
 90
        3
 70
     0
 43
0.0
 10
973.3500000001299
 20
841.42500000001
 10
954.1500000001301
 20
812.62500000001
 10
973.3500000001299
 20
783.82500000001
  0
LINE
  5
140
102
{ACAD_REACTORS
330
10C3
102
}
330
A
100
AcDbEntity
  8
LEVEL001
  6
Continuous
 62
     3
100
AcDbLine
 10
973.3500000001299
 20
783.82500000001
 30
0.0
 11
957.15000000013
 21
783.82500000001
 31
0.0
  0
LWPOLYLINE
  5
141
102
{ACAD_REACTORS
330
10C3
102
}
330
A
100
AcDbEntity
  8
LEVEL001
  6
Continuous
 62
     3
100
AcDbPolyline
 90
        3
 70
     0
 43
0.0
 10
981.45000000013
 20
783.82500000001
 10
962.2500000001299
 20
812.62500000001
 10
981.45000000013
 20
841.42500000001
  0
LINE
  5
146
102
{ACAD_REACTORS
330
10C3
102
}
330
A
100
AcDbEntity
  8
LEVEL001
  6
Continuous
 62
     3
100
AcDbLine
 10
981.45000000013
 20
841.42500000001
 30
0.0
 11
997.6500000001299
 21
841.42500000001
 31
0.0
  0
LWPOLYLINE
  5
147
102
{ACAD_REACTORS
330
10C3
102
}
330
A
100
AcDbEntity
  8
LEVEL001
  6
Continuous
 62
     3
100
AcDbPolyline
 90
        3
 70
     0
 43
0.0
 10
997.6500000001299
 20
841.42500000001
 10
978.4500000001299
 20
812.62500000001
 10
997.6500000001299
 20
783.82500000001
  0
LINE
  5
14C
102
{ACAD_REACTORS
330
10C3
102
}
330
A
100
AcDbEntity
  8
LEVEL001
  6
Continuous
 62
     3
100
AcDbLine
 10
997.6500000001299
 20
783.82500000001
 30
0.0
 11
981.45000000013
 21
783.82500000001
 31
0.0
  0
LINE
  5
14D
330
A
100
AcDbEntity
  8
LEVEL001
  6
Continuous
 62
     3
100
AcDbLine
 10
913.50000000008
 20
770.25000000001
 30
0.0
 11
1213.5000000001
 21
770.25000000001
 31
0.0
  0
LINE
  5
14E
330
A
100
AcDbEntity
  8
LEVEL001
  6
Continuous
 62
     3
100
AcDbLine
 10
913.50000000008
 20
710.25000000001
 30
0.0
 11
1213.5000000001
 21
710.25000000001
 31
0.0
  0
LINE
  5
14F
330
A
100
AcDbEntity
  8
LEVEL001
  6
Continuous
 62
     3
100
AcDbLine
 10
913.50000000008
 20
650.2500000000099
 30
0.0
 11
1213.5000000001
 21
650.2500000000099
 31
0.0
  0
LINE
  5
150
330
A
100
AcDbEntity
  8
LEVEL001
  6
Continuous
 62
     3
100
AcDbLine
 10
913.50000000008
 20
216.00000000001
 30
0.0
 11
1213.5000000001
 21
216.00000000001
 31
0.0
  0
LINE
  5
151
330
A
100
AcDbEntity
  8
LEVEL001
  6
Continuous
 62
     3
100
AcDbLine
 10
913.50000000008
 20
156.00000000001
 30
0.0
 11
1213.5000000001
 21
156.00000000001
 31
0.0
  0
LINE
  5
152
330
A
100
AcDbEntity
  8
LEVEL001
  6
Continuous
 62
     3
100
AcDbLine
 10
913.50000000008
 20
96.000000000006
 30
0.0
 11
1213.5000000001
 21
96.000000000006
 31
0.0
  0
LINE
  5
153
330
A
100
AcDbEntity
  8
LEVEL001
  6
Continuous
 62
     3
100
AcDbLine
 10
1063.5000000001
 20
136.00000000001
 30
0.0
 11
1213.5000000001
 21
136.00000000001
 31
0.0
  0
LINE
  5
154
330
A
100
AcDbEntity
  8
LEVEL001
  6
Continuous
 62
     3
100
AcDbLine
 10
1063.5000000001
 20
156.00000000001
 30
0.0
 11
1063.5000000001
 21
36.000000000006
 31
0.0
  0
LINE
  5
155
330
A
100
AcDbEntity
  8
LEVEL001
  6
Continuous
 62
     3
100
AcDbLine
 10
1063.5000000001
 20
116.00000000001
 30
0.0
 11
1213.5000000001
 21
116.00000000001
 31
0.0
  0
LWPOLYLINE
  5
156
330
A
100
AcDbEntity
  8
0
  6
DOT
100
AcDbPolyline
 90
        5
 70
     0
 43
0.0
 10
0.0
 20
0.0
 10
1260.0
 20
0.0
 10
1260.0
 20
891.0
 10
0.0
 20
891.0
 10
0.0
 20
0.0
  0
LINE
  5
15D
330
A
100
AcDbEntity
  8
LEVEL001
  6
Continuous
 62
     3
370
    40
100
AcDbLine
 10
46.500000000082
 20
840.0000000000099
 30
0.0
 11
913.50000000008
 21
840.0000000000099
 31
0.0
  0
TEXT
  5
15E
330
A
100
AcDbEntity
  8
LEVEL001
 62
     8
100
AcDbText
 10
979.20000000008
 20
49.125000000006
 30
0.0
 40
11.25
  1
Ａ３
 41
0.8
 72
     1
 11
988.50000000008
 21
54.750000000006
 31
0.0
100
AcDbText
 73
     2
  0
TEXT
  5
15F
330
A
100
AcDbEntity
  8
LEVEL001
 62
     8
100
AcDbText
 10
1115.5652536825
 20
101.50000000001
 30
0.0
 40
9.0
  1
平成　　年　　月　　日
 41
0.8
 72
     1
 11
1161.6452536825
 21
106.00000000001
 31
0.0
100
AcDbText
 73
     2
  0
TEXT
  5
160
330
A
100
AcDbEntity
  8
LEVEL001
 62
     8
100
AcDbText
 10
917.5200000000799
 20
754.50000000001
 30
0.0
 40
9.0
  1
商品名：
 41
0.8
 72
     1
 11
932.40000000008
 21
759.00000000001
 31
0.0
100
AcDbText
 73
     2
  0
TEXT
  5
161
330
A
100
AcDbEntity
  8
LEVEL001
 62
     8
100
AcDbText
 10
917.34000000008
 20
694.5000000000099
 30
0.0
 40
9.0
  1
形式：
 41
0.8
 72
     1
 11
927.9000000000801
 21
699.00000000001
 31
0.0
100
AcDbText
 73
     2
  0
TEXT
  5
162
330
A
100
AcDbEntity
  8
LEVEL001
 62
     8
100
AcDbText
 10
917.34000000008
 20
634.50000000001
 30
0.0
 40
9.0
  1
仕様：
 41
0.8
 72
     1
 11
927.9000000000801
 21
639.00000000001
 31
0.0
100
AcDbText
 73
     2
  0
TEXT
  5
163
330
A
100
AcDbEntity
  8
LEVEL001
 62
     8
100
AcDbText
 10
917.4600000000799
 20
200.25000000001
 30
0.0
 40
9.0
  1
図面名称：
 41
0.8
 72
     1
 11
936.90000000008
 21
204.75000000001
 31
0.0
100
AcDbText
 73
     2
  0
TEXT
  5
164
330
A
100
AcDbEntity
  8
LEVEL001
 62
     8
100
AcDbText
 10
917.34000000008
 20
140.25000000001
 30
0.0
 40
9.0
  1
縮尺：
 41
0.8
 72
     1
 11
927.9000000000801
 21
144.75000000001
 31
0.0
100
AcDbText
 73
     2
  0
TEXT
  5
165
330
A
100
AcDbEntity
  8
LEVEL001
 62
     8
100
AcDbText
 10
917.88000000008
 20
81.66460568588499
 30
0.0
 40
9.0
  1
用紙サイズ：
 41
0.8
 72
     1
 11
941.40000000008
 21
86.16460568588498
 31
0.0
100
AcDbText
 73
     2
  0
TEXT
  5
166
330
A
100
AcDbEntity
  8
LEVEL001
 62
     8
100
AcDbText
 10
1068.9800000001
 20
141.80000000001
 30
0.0
 40
8.4
  1
作成日付：
 41
0.8
 72
     1
 11
1086.9000000001
 21
146.00000000001
 31
0.0
100
AcDbText
 73
     2
  0
TEXT
  5
167
330
A
100
AcDbEntity
  8
LEVEL001
 62
     8
100
AcDbText
 10
1068.9800000001
 20
121.80000000001
 30
0.0
 40
8.4
  1
変更日付：
 41
0.8
 72
     1
 11
1086.9000000001
 21
126.00000000001
 31
0.0
100
AcDbText
 73
     2
  0
TEXT
  5
168
330
A
100
AcDbEntity
  8
LEVEL001
 62
     8
100
AcDbText
 10
1067.6400000001
 20
80.250000000006
 30
0.0
 40
9.0
  1
ファイル名：
 41
0.8
 72
     1
 11
1091.4000000001
 21
84.750000000006
 31
0.0
100
AcDbText
 73
     2
  0
TEXT
  5
169
330
A
100
AcDbEntity
  8
LEVEL001
 62
     8
100
AcDbText
 10
982.2446299340999
 20
721.36381578949
 30
0.0
 40
13.5
  1
パルラインジャンティガード
 41
0.8
 72
     1
 11
1064.3246299341
 21
728.11381578949
 31
0.0
100
AcDbText
 73
     2
  0
TEXT
  5
16A
330
A
100
AcDbEntity
  8
LEVEL001
 62
     8
100
AcDbText
 10
1038.5800000001
 20
670.7500000000099
 30
0.0
 40
10.5
  1
ＪＰタイプ
 41
0.8
 72
     1
 11
1063.5000000001
 21
676.00000000001
 31
0.0
100
AcDbText
 73
     2
  0
TEXT
  5
16B
330
A
100
AcDbEntity
  8
LEVEL001
 62
     8
100
AcDbText
 10
1035.6000000001
 20
169.12500000001
 30
0.0
 40
11.25
  1
平面図･姿図
 41
0.8
 72
     1
 11
1063.5000000001
 21
174.75000000001
 31
0.0
100
AcDbText
 73
     2
  0
TEXT
  5
16C
330
A
100
AcDbEntity
  8
LEVEL001
 62
     8
100
AcDbText
 10
943.5000000000799
 20
614.25000000001
 30
0.0
 40
9.0
  1
笠木受(ＪＰ１５Ｕ)
 41
0.8
100
AcDbText
  0
TEXT
  5
16E
330
A
100
AcDbEntity
  8
LEVEL001
 62
     8
100
AcDbText
 10
943.5000000000799
 20
600.5460863177631
 30
0.0
 40
9.0
  1
　ＪＰ１５Ｕ－ＪＰ１５０適用
 41
0.8
100
AcDbText
  0
TEXT
  5
16F
330
A
100
AcDbEntity
  8
LEVEL001
 62
     8
100
AcDbText
 10
943.5000000000799
 20
588.5460863177631
 30
0.0
 40
9.0
  1
　･材質:特殊樹脂
 41
0.8
100
AcDbText
  0
TEXT
  5
170
330
A
100
AcDbEntity
  8
LEVEL001
 62
     8
100
AcDbText
 10
943.5000000000799
 20
566.25000000001
 30
0.0
 40
9.0
  1
　
100
AcDbText
  0
TEXT
  5
173
330
A
100
AcDbEntity
  8
LEVEL001
 62
     8
100
AcDbText
 10
943.5000000000799
 20
530.25000000001
 30
0.0
 40
9.0
  1

 41
0.5
100
AcDbText
  0
TEXT
  5
174
330
A
100
AcDbEntity
  8
LEVEL001
 62
     8
100
AcDbText
 10
943.5000000000799
 20
572.5932857995131
 30
0.0
 40
9.0
  1
ＪＰ１５０
 41
0.8
100
AcDbText
  0
TEXT
  5
175
330
A
100
AcDbEntity
  8
LEVEL001
 62
     8
100
AcDbText
 10
943.5000000000799
 20
560.5932857995131
 30
0.0
 40
9.0
  1
　･エンドキャップ　
 41
0.8
100
AcDbText
  0
TEXT
  5
176
330
A
100
AcDbEntity
  8
LEVEL001
 62
     8
100
AcDbText
 10
943.5000000000799
 20
548.593285799513
 30
0.0
 40
9.0
  1
　　(ＪＰ１５Ｅ)･･･ＡＢＳ
 41
0.8
100
AcDbText
  0
TEXT
  5
177
330
A
100
AcDbEntity
  8
LEVEL001
 62
     8
100
AcDbText
 10
943.5000000000799
 20
536.593285799513
 30
0.0
 40
9.0
  1
　･アールエンドキャップ
 41
0.8
100
AcDbText
  0
TEXT
  5
178
330
A
100
AcDbEntity
  8
LEVEL001
 62
     8
100
AcDbText
 10
943.5000000000799
 20
524.593285799513
 30
0.0
 40
9.0
  1
　　(ＪＰ１５ＲＥ)･･･ＡＢＳ
 41
0.8
100
AcDbText
  0
TEXT
  5
179
330
A
100
AcDbEntity
  8
LEVEL001
 62
     8
100
AcDbText
 10
943.5000000000799
 20
458.2500000000099
 30
0.0
 40
9.0
  1

 41
0.5
100
AcDbText
  0
TEXT
  5
17A
330
A
100
AcDbEntity
  8
LEVEL001
 62
     8
100
AcDbText
 10
943.5000000000799
 20
500.593285799513
 30
0.0
 40
9.0
  1
ＪＰ１５０Ｍ（木目色）
 41
0.8
100
AcDbText
  0
TEXT
  5
17B
330
A
100
AcDbEntity
  8
LEVEL001
 62
     8
100
AcDbText
 10
943.5000000000799
 20
488.593285799513
 30
0.0
 40
9.0
  1
　･エンドキャップ　
 41
0.8
100
AcDbText
  0
TEXT
  5
17C
330
A
100
AcDbEntity
  8
LEVEL001
 62
     8
100
AcDbText
 10
943.5000000000799
 20
476.5932857995131
 30
0.0
 40
9.0
  1
　　(ＪＰ１５ＥＭ)･･･ＡＢＳ
 41
0.8
100
AcDbText
  0
TEXT
  5
17D
330
A
100
AcDbEntity
  8
LEVEL001
 62
     8
100
AcDbText
 10
943.5000000000799
 20
464.5932857995131
 30
0.0
 40
9.0
  1
　･アールエンドキャップ
 41
0.8
100
AcDbText
  0
TEXT
  5
17E
330
A
100
AcDbEntity
  8
LEVEL001
 62
     8
100
AcDbText
 10
943.5000000000799
 20
452.5932857995131
 30
0.0
 40
9.0
  1
　　(ＪＰ１５ＲＥＭ)･･･ＡＢＳ
 41
0.8
100
AcDbText
  0
TEXT
  5
17F
330
A
100
AcDbEntity
  8
LEVEL001
 62
     8
100
AcDbText
 10
943.5000000000799
 20
386.25000000001
 30
0.0
 40
9.0
  1

 41
0.5
100
AcDbText
  0
TEXT
  5
180
330
A
100
AcDbEntity
  8
LEVEL001
 62
     8
100
AcDbText
 10
943.5000000000799
 20
428.593285799513
 30
0.0
 40
9.0
  1
仕上：標準色
 41
0.8
100
AcDbText
  0
TEXT
  5
181
330
A
100
AcDbEntity
  8
LEVEL001
 62
     8
100
AcDbText
 10
943.5000000000799
 20
416.593285799513
 30
0.0
 40
9.0
  1
　　　Ｐ０１－パールグレイ（白鼠）
 41
0.8
100
AcDbText
  0
TEXT
  5
182
330
A
100
AcDbEntity
  8
LEVEL001
 62
     8
100
AcDbText
 10
943.5000000000799
 20
404.593285799513
 30
0.0
 40
9.0
  1
　　　Ｐ０６－アイボリー（白茶）
 41
0.8
100
AcDbText
  0
TEXT
  5
183
330
A
100
AcDbEntity
  8
LEVEL001
 62
     8
100
AcDbText
 10
943.5000000000799
 20
392.5932857995131
 30
0.0
 40
9.0
  1
　　　Ｐ１１－チョコレート（濃茶）
 41
0.8
100
AcDbText
  0
TEXT
  5
184
330
A
100
AcDbEntity
  8
LEVEL001
 62
     8
100
AcDbText
 10
943.5000000000799
 20
326.25000000001
 30
0.0
 40
9.0
  1
　　　
100
AcDbText
  0
TEXT
  5
185
330
A
100
AcDbEntity
  8
LEVEL001
 62
     8
100
AcDbText
 10
943.5000000000799
 20
368.5932857995131
 30
0.0
 40
9.0
  1
　　　木目色（※ＪＰ１５０Ｍのみ）
 41
0.8
100
AcDbText
  0
TEXT
  5
186
330
A
100
AcDbEntity
  8
LEVEL001
 62
     8
100
AcDbText
 10
943.5000000000799
 20
356.5932857995131
 30
0.0
 40
9.0
  1
　　　Ｍ６６－ミディアムオーク　
 41
0.8
100
AcDbText
  0
TEXT
  5
187
330
A
100
AcDbEntity
  8
LEVEL001
 62
     8
100
AcDbText
 10
943.5000000000799
 20
344.5932857995131
 30
0.0
 40
9.0
  1
　　　Ｍ６４－ライトオーク　※受注生産
 41
0.8
100
AcDbText
  0
TEXT
  5
188
330
A
100
AcDbEntity
  8
LEVEL001
 62
     8
100
AcDbText
 10
943.5000000000799
 20
332.5932857995131
 30
0.0
 40
9.0
  1
　　　Ｍ６２－パーチオーク　※受注生産
 41
0.8
100
AcDbText
  0
TEXT
  5
189
330
A
100
AcDbEntity
  8
LEVEL001
 62
     8
100
AcDbText
 10
1119.0000000001
 20
49.125000000006
 30
0.0
 40
11.25
  1
ＪＰ－１
 41
0.8
 72
     1
 11
1138.5000000001
 21
54.750000000006
 31
0.0
100
AcDbText
 73
     2
  0
LINE
  5
18A
330
A
100
AcDbEntity
  8
LEVEL001
  6
Continuous
 62
     3
370
    40
100
AcDbLine
 10
46.500000000082
 20
430.50000000001
 30
0.0
 11
913.50000000008
 21
430.50000000001
 31
0.0
  0
LINE
  5
18B
330
A
100
AcDbEntity
  8
LEVEL001
  6
Continuous
 62
     3
370
    40
100
AcDbLine
 10
46.500000000082
 20
445.50000000001
 30
0.0
 11
913.50000000008
 21
445.50000000001
 31
0.0
  0
LINE
  5
18C
330
A
100
AcDbEntity
  8
LEVEL001
  6
Continuous
 62
     3
370
    40
100
AcDbLine
 10
480.00000000008
 20
855.00000000001
 30
0.0
 11
480.00000000008
 21
445.50000000001
 31
0.0
  0
ARC
  5
1AD
330
A
100
AcDbEntity
  8
LEVEL001
  6
Continuous
 62
     7
100
AcDbCircle
 10
101.4042359322321
 20
648.36216855657
 30
0.0
 40
5.0
100
AcDbArc
 50
2.6837267588524
 51
90.00000000001801
  0
LINE
  5
1AE
330
A
100
AcDbEntity
  8
LEVEL001
  6
Continuous
 62
     7
100
AcDbLine
 10
101.4042359322321
 20
653.36216855657
 30
0.0
 11
81.16775777414209
 21
653.36216855657
 31
0.0
  0
ARC
  5
1AF
330
A
100
AcDbEntity
  8
LEVEL001
  6
Continuous
 62
     7
100
AcDbCircle
 10
81.16775777414209
 20
648.36216855657
 30
0.0
 40
5.0
100
AcDbArc
 50
90.0
 51
180.00000000008
  0
ARC
  5
1B0
330
A
100
AcDbEntity
  8
LEVEL001
  6
Continuous
 62
     7
100
AcDbCircle
 10
81.16775777414209
 20
648.36216855657
 30
0.0
 40
3.0
100
AcDbArc
 50
90.00000000000202
 51
180.00000000003
  0
LINE
  5
1B1
330
A
100
AcDbEntity
  8
LEVEL001
  6
Continuous
 62
     7
100
AcDbLine
 10
81.16775777414209
 20
651.36216855657
 30
0.0
 11
101.4042359322321
 21
651.36216855657
 31
0.0
  0
ARC
  5
1B2
330
A
100
AcDbEntity
  8
LEVEL001
  6
Continuous
 62
     7
100
AcDbCircle
 10
101.4042359322321
 20
648.36216855657
 30
0.0
 40
3.0
100
AcDbArc
 50
2.6837267588536
 51
90.00000000001501
  0
ARC
  5
1B3
330
A
100
AcDbEntity
  8
LEVEL001
  6
Continuous
 62
     7
100
AcDbCircle
 10
101.3429634604321
 20
602.86216855657
 30
0.0
 40
4.5
100
AcDbArc
 50
0.9399461432191198
 51
90.000000000036
  0
ARC
  5
1B4
330
A
100
AcDbEntity
  8
LEVEL001
  6
Continuous
 62
     7
100
AcDbCircle
 10
-1391.956068883758
 20
578.36216855657
 30
0.0
 40
1498.0
100
AcDbArc
 50
0.0
 51
0.9399461432156099
  0
ARC
  5
1B5
330
A
100
AcDbEntity
  8
LEVEL001
  6
Continuous
 62
     7
100
AcDbCircle
 10
101.1219598877121
 20
613.86216855656
 30
0.0
 40
4.5
100
AcDbArc
 50
270.0
 51
1.362029966918399
  0
ARC
  5
1B6
330
A
100
AcDbEntity
  8
LEVEL001
  6
Continuous
 62
     7
100
AcDbCircle
 10
-1391.956068883758
 20
578.3621685565799
 30
0.0
 40
1498.0
100
AcDbArc
 50
1.362029966839799
 51
2.6837267588474
  0
ARC
  5
1B7
330
A
100
AcDbEntity
  8
LEVEL001
  6
Continuous
 62
     7
100
AcDbCircle
 10
101.4042359322321
 20
508.36216855657
 30
0.0
 40
5.0
100
AcDbArc
 50
270.0
 51
357.31627324114
  0
LINE
  5
1B8
330
A
100
AcDbEntity
  8
LEVEL001
  6
Continuous
 62
     7
100
AcDbLine
 10
101.4042359322321
 20
503.36216855657
 30
0.0
 11
81.16775777414209
 21
503.36216855657
 31
0.0
  0
ARC
  5
1B9
330
A
100
AcDbEntity
  8
LEVEL001
  6
Continuous
 62
     7
100
AcDbCircle
 10
81.16775777414209
 20
508.36216855657
 30
0.0
 40
5.0
100
AcDbArc
 50
180.0
 51
269.99999999998
  0
ARC
  5
1BA
330
A
100
AcDbEntity
  8
LEVEL001
  6
Continuous
 62
     7
100
AcDbCircle
 10
81.16775777414209
 20
508.36216855657
 30
0.0
 40
3.0
100
AcDbArc
 50
179.99999999998
 51
269.9999999999901
  0
LINE
  5
1BB
330
A
100
AcDbEntity
  8
LEVEL001
  6
Continuous
 62
     7
100
AcDbLine
 10
81.16775777414209
 20
505.3621685565699
 30
0.0
 11
101.4042359322321
 21
505.3621685565699
 31
0.0
  0
ARC
  5
1BC
330
A
100
AcDbEntity
  8
LEVEL001
  6
Continuous
 62
     7
100
AcDbCircle
 10
101.4042359322321
 20
508.36216855657
 30
0.0
 40
3.0
100
AcDbArc
 50
270.0
 51
357.31627324115
  0
LINE
  5
1BD
330
A
100
AcDbEntity
  8
LEVEL001
  6
Continuous
 62
     7
100
AcDbLine
 10
101.3429634604321
 20
549.36216855657
 30
0.0
 11
91.84157666730214
 21
549.36216855657
 31
0.0
  0
ARC
  5
1BE
330
A
100
AcDbEntity
  8
LEVEL001
  6
Continuous
 62
     7
100
AcDbCircle
 10
101.3429634604321
 20
553.86216855657
 30
0.0
 40
4.5
100
AcDbArc
 50
270.0
 51
359.06005385678
  0
ARC
  5
1BF
330
A
100
AcDbEntity
  8
LEVEL001
  6
Continuous
 62
     7
100
AcDbCircle
 10
-1391.956068883758
 20
578.36216855656
 30
0.0
 40
1498.0
100
AcDbArc
 50
359.06005385678
 51
0.0
  0
LINE
  5
1C0
330
A
100
AcDbEntity
  8
LEVEL001
  6
Continuous
 62
     7
100
AcDbLine
 10
101.1219598877121
 20
547.36216855657
 30
0.0
 11
92.7076020712821
 21
547.36216855657
 31
0.0
  0
ARC
  5
1C1
330
A
100
AcDbEntity
  8
LEVEL001
  6
Continuous
 62
     7
100
AcDbCircle
 10
101.1219598877121
 20
542.86216855657
 30
0.0
 40
4.5
100
AcDbArc
 50
358.63797003316
 51
90.00000000003899
  0
ARC
  5
1C2
330
A
100
AcDbEntity
  8
LEVEL001
  6
Continuous
 62
     7
100
AcDbCircle
 10
-1391.956068883758
 20
578.36216855657
 30
0.0
 40
1500.0
100
AcDbArc
 50
1.241505705365699
 51
2.683726758847699
  0
ARC
  5
1C3
330
A
100
AcDbEntity
  8
LEVEL001
  6
Continuous
 62
     7
100
AcDbCircle
 10
-1391.956068883758
 20
578.3621685565799
 30
0.0
 40
1500.0
100
AcDbArc
 50
0.0
 51
1.050481476427099
  0
LINE
  5
1C4
330
A
100
AcDbEntity
  8
LEVEL001
  6
Continuous
 62
     7
100
AcDbLine
 10
101.7302856876421
 20
539.4824095551899
 30
0.0
 11
90.78330901065209
 21
544.5972028687799
 31
0.0
  0
ARC
  5
1C5
330
A
100
AcDbEntity
  8
LEVEL001
  6
Continuous
 62
     7
100
AcDbCircle
 10
92.86354145040212
 20
546.37440192925
 30
0.0
 40
1.0
100
AcDbArc
 50
98.971281215175
 51
237.13418783544
  0
LINE
  5
1C6
330
A
100
AcDbEntity
  8
LEVEL001
  6
Continuous
 62
     7
100
AcDbLine
 10
92.32086809014214
 20
545.5344581072799
 30
0.0
 11
102.3652462816521
 21
540.84138896791
 31
0.0
  0
ARC
  5
1C7
330
A
100
AcDbEntity
  8
LEVEL001
  6
Continuous
 62
     7
100
AcDbCircle
 10
91.84157666731215
 20
546.86216855656
 30
0.0
 40
2.5
100
AcDbArc
 50
90.00000000019801
 51
244.95644704152
  0
ARC
  5
1C8
330
A
100
AcDbEntity
  8
LEVEL001
  6
Continuous
 62
     7
100
AcDbCircle
 10
102.0477659846421
 20
540.16189926155
 30
0.0
 40
0.75
100
AcDbArc
 50
244.95644704193
 51
64.956447041922
  0
LINE
  5
1C9
330
A
100
AcDbEntity
  8
LEVEL001
  6
Continuous
 62
     7
100
AcDbLine
 10
101.3429634604321
 20
607.36216855657
 30
0.0
 11
91.84157666730214
 21
607.36216855657
 31
0.0
  0
LINE
  5
1CA
330
A
100
AcDbEntity
  8
LEVEL001
  6
Continuous
 62
     7
100
AcDbLine
 10
101.1219598877121
 20
609.36216855657
 30
0.0
 11
92.7076020712821
 21
609.36216855657
 31
0.0
  0
LINE
  5
1CB
330
A
100
AcDbEntity
  8
LEVEL001
  6
Continuous
 62
     7
100
AcDbLine
 10
101.7302856876421
 20
617.24192755794
 30
0.0
 11
90.78330901065209
 21
612.12713424436
 31
0.0
  0
ARC
  5
1CC
330
A
100
AcDbEntity
  8
LEVEL001
  6
Continuous
 62
     7
100
AcDbCircle
 10
92.86354145044214
 20
610.3499351838699
 30
0.0
 40
1.0
100
AcDbArc
 50
122.86581216585
 51
261.02871878289
  0
LINE
  5
1CD
330
A
100
AcDbEntity
  8
LEVEL001
  6
Continuous
 62
     7
100
AcDbLine
 10
92.32086809014214
 20
611.18987900585
 30
0.0
 11
102.3652462816521
 21
615.88294814523
 31
0.0
  0
ARC
  5
1CE
330
A
100
AcDbEntity
  8
LEVEL001
  6
Continuous
 62
     7
100
AcDbCircle
 10
91.84157666731215
 20
609.86216855657
 30
0.0
 40
2.5
100
AcDbArc
 50
115.04355295842
 51
269.99999999981
  0
ARC
  5
1CF
330
A
100
AcDbEntity
  8
LEVEL001
  6
Continuous
 62
     7
100
AcDbCircle
 10
102.0477659846421
 20
616.5624378515799
 30
0.0
 40
0.75
100
AcDbArc
 50
295.04355295808
 51
115.04355295807
  0
LINE
  5
1D0
330
A
100
AcDbEntity
  8
LEVEL001
  6
Continuous
 62
     7
100
AcDbLine
 10
107.194001120292
 20
545.87266860658
 30
0.0
 11
107.6918181922021
 21
545.8627102732699
 31
0.0
  0
ARC
  5
1D1
330
A
100
AcDbEntity
  8
LEVEL001
  6
Continuous
 62
     7
100
AcDbCircle
 10
107.2140011202721
 20
546.87246858658
 30
0.0
 40
1.0
100
AcDbArc
 50
178.85400800163
 51
268.85400800318
  0
LINE
  5
1D2
330
A
100
AcDbEntity
  8
LEVEL001
  6
Continuous
 62
     7
100
AcDbLine
 10
107.7918181922021
 20
550.8617101732499
 30
0.0
 11
107.2940011202921
 21
550.87166850656
 31
0.0
  0
LINE
  5
1D3
330
A
100
AcDbEntity
  8
LEVEL001
  6
Continuous
 62
     7
100
AcDbLine
 10
106.274201140292
 20
549.8918685265699
 30
0.0
 11
106.2142011403021
 21
546.89246858658
 31
0.0
  0
ARC
  5
1D4
330
A
100
AcDbEntity
  8
LEVEL001
  6
Continuous
 62
     7
100
AcDbCircle
 10
107.2740011202921
 20
549.8718685265799
 30
0.0
 40
1.0
100
AcDbArc
 50
88.85400800162399
 51
178.85400800201
  0
LINE
  5
1D5
330
A
100
AcDbEntity
  8
LEVEL001
  6
Continuous
 62
     7
100
AcDbLine
 10
107.2940011202921
 20
550.87166850656
 30
0.0
 11
107.194001120292
 21
545.87266860658
 31
0.0
  0
ARC
  5
1D6
330
A
100
AcDbEntity
  8
LEVEL001
  6
Continuous
 62
     7
100
AcDbCircle
 10
-1391.956068883758
 20
578.36216855657
 30
0.0
 40
1500.0
100
AcDbArc
 50
357.31627324115
 51
358.75851499155
  0
ARC
  5
1D7
330
A
100
AcDbEntity
  8
LEVEL001
  6
Continuous
 62
     7
100
AcDbCircle
 10
-1391.956068883758
 20
578.36216855656
 30
0.0
 40
1500.0
100
AcDbArc
 50
358.94950101168
 51
0.0
  0
LINE
  5
1D8
330
A
100
AcDbEntity
  8
LEVEL001
  6
Continuous
 62
     7
100
AcDbLine
 10
107.194001120292
 20
610.85166850655
 30
0.0
 11
107.6918181922021
 21
610.86162683986
 31
0.0
  0
ARC
  5
1D9
330
A
100
AcDbEntity
  8
LEVEL001
  6
Continuous
 62
     7
100
AcDbCircle
 10
107.2140011202921
 20
609.8518685265499
 30
0.0
 40
1.0
100
AcDbArc
 50
91.14599199832099
 51
181.1459919980399
  0
LINE
  5
1DA
330
A
100
AcDbEntity
  8
LEVEL001
  6
Continuous
 62
     7
100
AcDbLine
 10
107.7918181922021
 20
605.86262693988
 30
0.0
 11
107.2940011202921
 21
605.8526686065699
 31
0.0
  0
LINE
  5
1DB
330
A
100
AcDbEntity
  8
LEVEL001
  6
Continuous
 62
     7
100
AcDbLine
 10
106.274201140292
 20
606.83246858657
 30
0.0
 11
106.2142011403021
 21
609.83186852656
 31
0.0
  0
ARC
  5
1DC
330
A
100
AcDbEntity
  8
LEVEL001
  6
Continuous
 62
     7
100
AcDbCircle
 10
107.2740011202921
 20
606.85246858657
 30
0.0
 40
1.0
100
AcDbArc
 50
181.14599199837
 51
271.14599199834
  0
LINE
  5
1DD
330
A
100
AcDbEntity
  8
LEVEL001
  6
Continuous
 62
     7
100
AcDbLine
 10
107.2940011202921
 20
605.8526686065699
 30
0.0
 11
107.194001120292
 21
610.85166850655
 31
0.0
  0
LINE
  5
1DE
330
A
100
AcDbEntity
  8
LEVEL001
  6
DASHDOT
 62
     6
370
    15
100
AcDbLine
 10
93.76807981789211
 20
578.36216855657
 30
0.0
 11
49.1609776714821
 21
578.36216855657
 31
0.0
  0
ARC
  5
1DF
330
A
100
AcDbEntity
  8
LEVEL001
  6
Continuous
 62
     1
100
AcDbCircle
 10
81.46620998048211
 20
623.3746721303999
 30
0.0
 40
25.5
100
AcDbArc
 50
35.739829399908
 51
91.79433020879598
  0
ARC
  5
1E0
330
A
100
AcDbEntity
  8
LEVEL001
  6
Continuous
 62
     1
100
AcDbCircle
 10
102.4451948062221
 20
629.8562554331799
 30
0.0
 40
0.8
100
AcDbArc
 50
269.20000000021
 51
319.51247760428
  0
ARC
  5
1E1
330
A
100
AcDbEntity
  8
LEVEL001
  6
Continuous
 62
     1
100
AcDbCircle
 10
102.4451948062521
 20
629.8562554331899
 30
0.0
 40
0.8
100
AcDbArc
 50
139.51247760511
 51
269.19999999823
  0
ARC
  5
1E2
330
A
100
AcDbEntity
  8
LEVEL001
  6
Continuous
 62
     1
100
AcDbCircle
 10
96.96925366092211
 20
634.53108896746
 30
0.0
 40
6.4
100
AcDbArc
 50
319.5124776039401
 51
35.739829399908
  0
ARC
  5
1E3
330
A
100
AcDbEntity
  8
LEVEL001
  6
Continuous
 62
     1
100
AcDbCircle
 10
80.3117221754921
 20
623.36465419433
 30
0.0
 40
28.0
100
AcDbArc
 50
31.59236548584301
 51
88.62307486211699
  0
ARC
  5
1E4
330
A
100
AcDbEntity
  8
LEVEL001
  6
Continuous
 62
     1
100
AcDbCircle
 10
96.96925366092211
 20
634.53108896746
 30
0.0
 40
8.0
100
AcDbArc
 50
319.5124776039401
 51
25.960352286101
  0
LINE
  5
1E5
330
A
100
AcDbEntity
  8
LEVEL001
  6
Continuous
 62
     1
100
AcDbLine
 10
82.6677577741421
 20
640.3266346507799
 30
0.0
 11
82.6677577741421
 21
646.86216855657
 31
0.0
  0
LINE
  5
1E6
330
A
100
AcDbEntity
  8
LEVEL001
  6
Continuous
 62
     1
100
AcDbLine
 10
82.6677577741421
 20
640.3266346507799
 30
0.0
 11
78.16775777414211
 21
635.8266346507799
 31
0.0
  0
LINE
  5
1E7
330
A
100
AcDbEntity
  8
LEVEL001
  6
Continuous
 62
     1
100
AcDbLine
 10
82.6677577741421
 20
646.86216855657
 30
0.0
 11
80.66775777414211
 21
646.86216855657
 31
0.0
  0
LINE
  5
1E8
330
A
100
AcDbEntity
  8
LEVEL001
  6
Continuous
 62
     1
100
AcDbLine
 10
80.66775777414211
 20
646.86216855657
 30
0.0
 11
80.66775777414211
 21
648.86216855657
 31
0.0
  0
LINE
  5
1E9
330
A
100
AcDbEntity
  8
LEVEL001
  6
Continuous
 62
     1
100
AcDbLine
 10
78.16775777414211
 20
621.36216855657
 30
0.0
 11
98.16775777414211
 21
621.36216855657
 31
0.0
  0
LINE
  5
1EA
330
A
100
AcDbEntity
  8
LEVEL001
  6
Continuous
 62
     1
100
AcDbLine
 10
96.16775777414211
 20
619.36216855657
 30
0.0
 11
78.16775777414211
 21
619.36216855657
 31
0.0
  0
LINE
  5
1EB
330
A
100
AcDbEntity
  8
LEVEL001
  6
Continuous
 62
     1
100
AcDbLine
 10
98.16775777414211
 20
621.36216855657
 30
0.0
 11
98.16775777414211
 21
615.5773954694
 31
0.0
  0
LINE
  5
1EC
330
A
100
AcDbEntity
  8
LEVEL001
  6
Continuous
 62
     1
100
AcDbLine
 10
98.16775777414211
 20
615.5773954694
 30
0.0
 11
78.16775777414211
 21
608.2979907840699
 31
0.0
  0
LINE
  5
1ED
330
A
100
AcDbEntity
  8
LEVEL001
  6
Continuous
 62
     1
100
AcDbLine
 10
98.16775777414211
 20
617.36216855657
 30
0.0
 11
102.5956353124021
 21
619.45833183888
 31
0.0
  0
LINE
  5
1EE
330
A
100
AcDbEntity
  8
LEVEL001
  6
Continuous
 62
     1
100
AcDbLine
 10
98.16775777414211
 20
621.36216855657
 30
0.0
 11
102.1677577741421
 21
621.36216855657
 31
0.0
  0
LINE
  5
1EF
330
A
100
AcDbEntity
  8
LEVEL001
  6
Continuous
 62
     1
100
AcDbLine
 10
96.16775777414211
 20
616.97781054586
 30
0.0
 11
96.16775777414211
 21
619.36216855657
 31
0.0
  0
ARC
  5
1F0
330
A
100
AcDbEntity
  8
LEVEL001
  6
Continuous
 62
     1
100
AcDbCircle
 10
102.1677577741521
 20
620.36216855657
 30
0.0
 40
1.0
100
AcDbArc
 50
295.33293861214
 51
90.00000000098399
  0
LINE
  5
1F1
330
A
100
AcDbEntity
  8
LEVEL001
  6
Continuous
 62
     1
100
AcDbLine
 10
78.16775777414211
 20
610.42634632906
 30
0.0
 11
96.16775777414211
 21
616.97781054586
 31
0.0
  0
LINE
  5
1F2
330
A
100
AcDbEntity
  8
LEVEL001
  6
Continuous
 62
     1
100
AcDbLine
 10
78.16775777414211
 20
535.36216855657
 30
0.0
 11
98.16775777414211
 21
535.36216855657
 31
0.0
  0
LINE
  5
1F3
330
A
100
AcDbEntity
  8
LEVEL001
  6
Continuous
 62
     1
100
AcDbLine
 10
98.16775777414211
 20
541.1469416437399
 30
0.0
 11
78.16775777414211
 21
548.42634632906
 31
0.0
  0
LINE
  5
1F4
330
A
100
AcDbEntity
  8
LEVEL001
  6
Continuous
 62
     1
100
AcDbLine
 10
78.16775777414211
 20
546.2979907840699
 30
0.0
 11
96.16775777414211
 21
539.7465265672799
 31
0.0
  0
LINE
  5
1F5
330
A
100
AcDbEntity
  8
LEVEL001
  6
Continuous
 62
     1
100
AcDbLine
 10
96.16775777414211
 20
537.3621685565701
 30
0.0
 11
78.16775777414211
 21
537.3621685565701
 31
0.0
  0
LINE
  5
1F6
330
A
100
AcDbEntity
  8
LEVEL001
  6
Continuous
 62
     1
100
AcDbLine
 10
98.16775777414211
 20
535.36216855657
 30
0.0
 11
98.16775777414211
 21
541.1469416437399
 31
0.0
  0
LINE
  5
1F7
330
A
100
AcDbEntity
  8
LEVEL001
  6
Continuous
 62
     1
100
AcDbLine
 10
96.16775777414211
 20
539.7465265672799
 30
0.0
 11
96.16775777414211
 21
537.3621685565701
 31
0.0
  0
LINE
  5
1F8
330
A
100
AcDbEntity
  8
LEVEL001
  6
Continuous
 62
     1
100
AcDbLine
 10
98.16775777414211
 20
539.36216855657
 30
0.0
 11
102.5956353124021
 21
537.26600527426
 31
0.0
  0
LINE
  5
1F9
330
A
100
AcDbEntity
  8
LEVEL001
  6
Continuous
 62
     1
100
AcDbLine
 10
98.16775777414211
 20
535.36216855657
 30
0.0
 11
102.1677577741421
 21
535.36216855657
 31
0.0
  0
ARC
  5
1FA
330
A
100
AcDbEntity
  8
LEVEL001
  6
Continuous
 62
     1
100
AcDbCircle
 10
102.167757774082
 20
536.3621685565899
 30
0.0
 40
1.0
100
AcDbArc
 50
270.00000000319
 51
64.667061383449
  0
LINE
  5
1FB
330
A
100
AcDbEntity
  8
LEVEL001
  6
Continuous
 62
     1
100
AcDbLine
 10
82.6677577741421
 20
516.39770246236
 30
0.0
 11
78.16775777414211
 21
520.89770246236
 31
0.0
  0
LINE
  5
1FC
330
A
100
AcDbEntity
  8
LEVEL001
  6
Continuous
 62
     1
100
AcDbLine
 10
82.6677577741421
 20
516.39770246236
 30
0.0
 11
82.6677577741421
 21
509.8621685565699
 31
0.0
  0
LINE
  5
1FD
330
A
100
AcDbEntity
  8
LEVEL001
  6
Continuous
 62
     1
100
AcDbLine
 10
82.6677577741421
 20
509.8621685565699
 30
0.0
 11
80.66775777414211
 21
509.8621685565699
 31
0.0
  0
ARC
  5
1FE
330
A
100
AcDbEntity
  8
LEVEL001
  6
Continuous
 62
     1
100
AcDbCircle
 10
81.46620998048211
 20
533.34966498274
 30
0.0
 40
25.5
100
AcDbArc
 50
268.2056697912
 51
324.26017060009
  0
LINE
  5
1FF
330
A
100
AcDbEntity
  8
LEVEL001
  6
Continuous
 62
     1
100
AcDbLine
 10
80.66775777414211
 20
509.8621685565699
 30
0.0
 11
80.66775777414211
 21
507.86216855657
 31
0.0
  0
ARC
  5
200
330
A
100
AcDbEntity
  8
LEVEL001
  6
Continuous
 62
     1
100
AcDbCircle
 10
80.3117221754921
 20
533.35968291881
 30
0.0
 40
28.0
100
AcDbArc
 50
271.37692513789
 51
328.40763451416
  0
ARC
  5
201
330
A
100
AcDbEntity
  8
LEVEL001
  6
Continuous
 62
     1
100
AcDbCircle
 10
102.4451948062021
 20
526.86808167994
 30
0.0
 40
0.8
100
AcDbArc
 50
40.487522395135
 51
90.79999999847899
  0
ARC
  5
202
330
A
100
AcDbEntity
  8
LEVEL001
  6
Continuous
 62
     1
100
AcDbCircle
 10
102.4451948062521
 20
526.86808167991
 30
0.0
 40
0.8
100
AcDbArc
 50
90.800000001803
 51
220.48752239323
  0
ARC
  5
203
330
A
100
AcDbEntity
  8
LEVEL001
  6
Continuous
 62
     1
100
AcDbCircle
 10
96.96925366092211
 20
522.19324814567
 30
0.0
 40
6.4
100
AcDbArc
 50
324.26017060009
 51
40.48752239605
  0
ARC
  5
204
330
A
100
AcDbEntity
  8
LEVEL001
  6
Continuous
 62
     1
100
AcDbCircle
 10
96.96925366092211
 20
522.19324814567
 30
0.0
 40
8.0
100
AcDbArc
 50
334.03964771391
 51
40.487522396075
  0
ARC
  5
205
330
A
100
AcDbEntity
  8
LEVEL001
  6
Continuous
 62
     7
100
AcDbCircle
 10
-1391.956068883758
 20
578.36216855655
 30
0.0
 40
1498.0
100
AcDbArc
 50
357.31627324115
 51
358.63797003316
  0
LINE
  5
206
330
A
100
AcDbEntity
  8
LEVEL001
  6
Continuous
 62
     7
100
AcDbLine
 10
74.1677577741421
 20
609.36216855657
 30
0.0
 11
74.1677577741421
 21
610.36216855657
 31
0.0
  0
LINE
  5
207
330
A
100
AcDbEntity
  8
LEVEL001
  6
Continuous
 62
     7
100
AcDbLine
 10
74.1677577741421
 20
547.36216855657
 30
0.0
 11
74.1677577741421
 21
546.36216855657
 31
0.0
  0
LINE
  5
208
330
A
100
AcDbEntity
  8
LEVEL001
  6
Continuous
 62
     7
100
AcDbLine
 10
79.6677577741421
 20
643.86216855657
 30
0.0
 11
78.16775777414211
 21
643.36216855657
 31
0.0
  0
LINE
  5
209
330
A
100
AcDbEntity
  8
LEVEL001
  6
Continuous
 62
     7
100
AcDbLine
 10
78.16775777414211
 20
643.36216855657
 30
0.0
 11
78.16775777414211
 21
648.36216855657
 31
0.0
  0
LINE
  5
20A
330
A
100
AcDbEntity
  8
LEVEL001
  6
Continuous
 62
     7
100
AcDbLine
 10
76.1677577741421
 20
648.36216855657
 30
0.0
 11
76.1677577741421
 21
642.86216855656
 31
0.0
  0
ARC
  5
20B
330
A
100
AcDbEntity
  8
LEVEL001
  6
Continuous
 62
     7
100
AcDbCircle
 10
77.6677577741421
 20
642.86216855656
 30
0.0
 40
1.5
100
AcDbArc
 50
180.0
 51
269.9999999999901
  0
LINE
  5
20C
330
A
100
AcDbEntity
  8
LEVEL001
  6
Continuous
 62
     7
100
AcDbLine
 10
77.6677577741421
 20
641.36216855656
 30
0.0
 11
78.16775777414211
 21
641.3621685565701
 31
0.0
  0
ARC
  5
20D
330
A
100
AcDbEntity
  8
LEVEL001
  6
Continuous
 62
     7
100
AcDbCircle
 10
78.16775777414211
 20
642.86216855657
 30
0.0
 40
1.5
100
AcDbArc
 50
270.00000000001
 51
0.0
  0
LINE
  5
20E
330
A
100
AcDbEntity
  8
LEVEL001
  6
Continuous
 62
     7
100
AcDbLine
 10
79.6677577741421
 20
642.86216855657
 30
0.0
 11
79.6677577741421
 21
643.86216855657
 31
0.0
  0
LINE
  5
20F
330
A
100
AcDbEntity
  8
LEVEL001
  6
Continuous
 62
     7
100
AcDbLine
 10
79.6677577741421
 20
512.86216855657
 30
0.0
 11
78.16775777414211
 21
513.36216855657
 31
0.0
  0
LINE
  5
210
330
A
100
AcDbEntity
  8
LEVEL001
  6
Continuous
 62
     7
100
AcDbLine
 10
78.16775777414211
 20
513.36216855657
 30
0.0
 11
78.16775777414211
 21
508.36216855657
 31
0.0
  0
LINE
  5
211
330
A
100
AcDbEntity
  8
LEVEL001
  6
Continuous
 62
     7
100
AcDbLine
 10
76.1677577741421
 20
508.36216855657
 30
0.0
 11
76.1677577741421
 21
513.86216855657
 31
0.0
  0
ARC
  5
212
330
A
100
AcDbEntity
  8
LEVEL001
  6
Continuous
 62
     7
100
AcDbCircle
 10
77.6677577741421
 20
513.8621685565899
 30
0.0
 40
1.5
100
AcDbArc
 50
90.0
 51
180.00000000075
  0
LINE
  5
213
330
A
100
AcDbEntity
  8
LEVEL001
  6
Continuous
 62
     7
100
AcDbLine
 10
77.6677577741421
 20
515.36216855657
 30
0.0
 11
78.16775777414211
 21
515.36216855657
 31
0.0
  0
ARC
  5
214
330
A
100
AcDbEntity
  8
LEVEL001
  6
Continuous
 62
     7
100
AcDbCircle
 10
78.16775777412209
 20
513.86216855657
 30
0.0
 40
1.5
100
AcDbArc
 50
0.0
 51
89.99999999949201
  0
LINE
  5
215
330
A
100
AcDbEntity
  8
LEVEL001
  6
Continuous
 62
     7
100
AcDbLine
 10
79.6677577741421
 20
513.86216855657
 30
0.0
 11
79.6677577741421
 21
512.86216855657
 31
0.0
  0
LINE
  5
216
330
A
100
AcDbEntity
  8
LEVEL001
  6
Continuous
 62
     7
100
AcDbLine
 10
78.16775777414211
 20
512.3621685565701
 30
0.0
 11
78.16775777414211
 21
508.36216855657
 31
0.0
  0
LINE
  5
217
330
A
100
AcDbEntity
  8
LEVEL001
  6
Continuous
 62
     7
100
AcDbLine
 10
78.16775777414211
 20
644.36216855657
 30
0.0
 11
78.16775777414211
 21
648.36216855657
 31
0.0
  0
LINE
  5
218
330
A
100
AcDbEntity
  8
LEVEL001
  6
Continuous
 62
     3
370
    30
100
AcDbLine
 10
74.1677577741421
 20
687.9049686127999
 30
0.0
 11
74.1677577741421
 21
616.3621685565701
 31
0.0
  0
LINE
  5
219
330
A
100
AcDbEntity
  8
LEVEL001
  6
Continuous
 62
     3
370
    30
100
AcDbLine
 10
74.1677577741421
 20
466.60264934533
 30
0.0
 11
74.1677577741421
 21
616.3621685565701
 31
0.0
  0
LINE
  5
21A
330
A
100
AcDbEntity
  8
LEVEL001
  6
Continuous
 62
     1
100
AcDbLine
 10
80.1677577741421
 20
644.36216855657
 30
0.0
 11
78.16775777414211
 21
644.36216855657
 31
0.0
  0
LINE
  5
21B
330
A
100
AcDbEntity
  8
LEVEL001
  6
Continuous
 62
     1
100
AcDbLine
 10
80.1677577741421
 20
641.3621685565701
 30
0.0
 11
80.1677577741421
 21
644.36216855657
 31
0.0
  0
LINE
  5
21C
330
A
100
AcDbEntity
  8
LEVEL001
  6
Continuous
 62
     1
100
AcDbLine
 10
80.1677577741421
 20
641.3621685565701
 30
0.0
 11
75.1677577741421
 21
636.3621685565799
 31
0.0
  0
LINE
  5
21D
330
A
100
AcDbEntity
  8
LEVEL001
  6
Continuous
 62
     1
100
AcDbLine
 10
78.16775777414211
 20
621.36216855657
 30
0.0
 11
78.16775777414211
 21
635.8266346507799
 31
0.0
  0
LINE
  5
21E
330
A
100
AcDbEntity
  8
LEVEL001
  6
Continuous
 62
     1
100
AcDbLine
 10
78.16775777414211
 20
610.42634632906
 30
0.0
 11
78.16775777414211
 21
619.36216855657
 31
0.0
  0
LINE
  5
21F
330
A
100
AcDbEntity
  8
LEVEL001
  6
Continuous
 62
     1
100
AcDbLine
 10
75.1677577741421
 20
610.36216855657
 30
0.0
 11
75.1677577741421
 21
636.3621685565799
 31
0.0
  0
LINE
  5
220
330
A
100
AcDbEntity
  8
LEVEL001
  6
Continuous
 62
     1
100
AcDbLine
 10
78.16775777414211
 20
593.8621685565799
 30
0.0
 11
78.16775777414211
 21
608.2979907840699
 31
0.0
  0
LINE
  5
221
330
A
100
AcDbEntity
  8
LEVEL001
  6
Continuous
 62
     1
100
AcDbLine
 10
78.16775777414211
 20
578.86216855643
 30
0.0
 11
78.16775777414211
 21
593.8621685565799
 31
0.0
  0
LINE
  5
222
330
A
100
AcDbEntity
  8
LEVEL001
  6
Continuous
 62
     1
100
AcDbLine
 10
75.1677577741421
 20
578.36216855657
 30
0.0
 11
75.1677577741421
 21
609.36216855657
 31
0.0
  0
LINE
  5
223
330
A
100
AcDbEntity
  8
LEVEL001
  6
Continuous
 62
     1
100
AcDbLine
 10
74.1677577741421
 20
609.36216855657
 30
0.0
 11
75.1677577741421
 21
609.36216855657
 31
0.0
  0
LINE
  5
224
330
A
100
AcDbEntity
  8
LEVEL001
  6
Continuous
 62
     1
100
AcDbLine
 10
74.1677577741421
 20
610.36216855657
 30
0.0
 11
75.1677577741421
 21
610.36216855657
 31
0.0
  0
LINE
  5
225
330
A
100
AcDbEntity
  8
LEVEL001
  6
Continuous
 62
     1
100
AcDbLine
 10
78.16775777414211
 20
578.86216855643
 30
0.0
 11
77.6677577741421
 21
578.36216855657
 31
0.0
  0
LINE
  5
226
330
A
100
AcDbEntity
  8
LEVEL001
  6
Continuous
 62
     1
100
AcDbLine
 10
78.16775777414211
 20
577.86216855671
 30
0.0
 11
78.16775777414211
 21
563.86216855656
 31
0.0
  0
LINE
  5
227
330
A
100
AcDbEntity
  8
LEVEL001
  6
Continuous
 62
     1
100
AcDbLine
 10
78.16775777414211
 20
577.86216855671
 30
0.0
 11
77.6677577741421
 21
578.36216855657
 31
0.0
  0
LINE
  5
228
330
A
100
AcDbEntity
  8
LEVEL001
  6
Continuous
 62
     1
100
AcDbLine
 10
75.1677577741421
 20
578.36216855657
 30
0.0
 11
75.1677577741421
 21
547.36216855657
 31
0.0
  0
LINE
  5
229
330
A
100
AcDbEntity
  8
LEVEL001
  6
Continuous
 62
     1
100
AcDbLine
 10
78.16775777414211
 20
563.86216855656
 30
0.0
 11
78.16775777414211
 21
548.42634632906
 31
0.0
  0
LINE
  5
22A
330
A
100
AcDbEntity
  8
LEVEL001
  6
Continuous
 62
     1
100
AcDbLine
 10
78.16775777414211
 20
546.2979907840699
 30
0.0
 11
78.16775777414211
 21
537.3621685565701
 31
0.0
  0
LINE
  5
22B
330
A
100
AcDbEntity
  8
LEVEL001
  6
Continuous
 62
     1
100
AcDbLine
 10
74.1677577741421
 20
547.36216855657
 30
0.0
 11
75.1677577741421
 21
547.36216855657
 31
0.0
  0
LINE
  5
22C
330
A
100
AcDbEntity
  8
LEVEL001
  6
Continuous
 62
     1
100
AcDbLine
 10
74.1677577741421
 20
546.36216855657
 30
0.0
 11
75.1677577741421
 21
546.36216855657
 31
0.0
  0
LINE
  5
22D
330
A
100
AcDbEntity
  8
LEVEL001
  6
Continuous
 62
     1
100
AcDbLine
 10
75.1677577741421
 20
546.36216855657
 30
0.0
 11
75.1677577741421
 21
520.36216855655
 31
0.0
  0
LINE
  5
22E
330
A
100
AcDbEntity
  8
LEVEL001
  6
Continuous
 62
     1
100
AcDbLine
 10
78.16775777414211
 20
535.36216855657
 30
0.0
 11
78.16775777414211
 21
520.89770246236
 31
0.0
  0
LINE
  5
22F
330
A
100
AcDbEntity
  8
LEVEL001
  6
Continuous
 62
     1
100
AcDbLine
 10
80.1677577741421
 20
515.36216855657
 30
0.0
 11
75.1677577741421
 21
520.36216855655
 31
0.0
  0
LINE
  5
230
330
A
100
AcDbEntity
  8
LEVEL001
  6
Continuous
 62
     1
100
AcDbLine
 10
80.1677577741421
 20
515.36216855657
 30
0.0
 11
80.1677577741421
 21
512.3621685565701
 31
0.0
  0
LINE
  5
231
330
A
100
AcDbEntity
  8
LEVEL001
  6
Continuous
 62
     1
100
AcDbLine
 10
80.1677577741421
 20
512.3621685565701
 30
0.0
 11
78.16775777414211
 21
512.3621685565701
 31
0.0
  0
LINE
  5
232
330
A
100
AcDbEntity
  8
LEVEL001
  6
HIDDEN
 62
     7
100
AcDbLine
 10
376.2038144419221
 20
765.74886255542
 30
0.0
 11
388.7316784869221
 21
765.74886255542
 31
0.0
  0
LINE
  5
233
330
A
100
AcDbEntity
  8
LEVEL001
  6
DASHDOT
 62
     6
370
    15
100
AcDbLine
 10
293.7316784869221
 20
647.36216855656
 30
0.0
 11
293.7316784869221
 21
554.41212602347
 31
0.0
  0
LINE
  5
234
330
A
100
AcDbEntity
  8
LEVEL001
  6
DASHDOT
 62
     6
370
    15
100
AcDbLine
 10
293.7316784869221
 20
663.36216855656
 30
0.0
 11
293.7316784869221
 21
770.72176590175
 31
0.0
  0
LINE
  5
235
330
A
100
AcDbEntity
  8
LEVEL001
  6
Continuous
 62
     7
100
AcDbLine
 10
388.7316784869221
 20
763.74886255542
 30
0.0
 11
388.7316784869221
 21
765.74886255542
 31
0.0
  0
ARC
  5
236
330
A
100
AcDbEntity
  8
LEVEL001
  6
HIDDEN
 62
     5
 48
0.5
370
    15
100
AcDbCircle
 10
376.2038144418821
 20
759.24886255542
 30
0.0
 40
2.0
100
AcDbArc
 50
89.99999999897701
 51
116.56505117616
  0
LINE
  5
237
330
A
100
AcDbEntity
  8
LEVEL001
  6
HIDDEN
 62
     5
 48
0.5
370
    15
100
AcDbLine
 10
373.7316784869221
 20
760.24886255542
 30
0.0
 11
375.3093872509221
 21
761.0377169374199
 31
0.0
  0
LINE
  5
238
330
A
100
AcDbEntity
  8
LEVEL001
  6
HIDDEN
 62
     5
 48
0.5
370
    15
100
AcDbLine
 10
373.7316784869221
 20
739.2620150588499
 30
0.0
 11
373.7316784869221
 21
760.24886255542
 31
0.0
  0
LINE
  5
239
330
A
100
AcDbEntity
  8
LEVEL001
  6
HIDDEN
 62
     5
 48
0.5
370
    15
100
AcDbLine
 10
376.2038144419221
 20
761.24886255542
 30
0.0
 11
388.7316784869221
 21
761.24886255542
 31
0.0
  0
LINE
  5
23A
330
A
100
AcDbEntity
  8
LEVEL001
  6
HIDDEN
 62
     5
 48
0.5
370
    15
100
AcDbLine
 10
373.7316784869221
 20
739.2620150588499
 30
0.0
 11
375.3055562286921
 21
738.4647259717699
 31
0.0
  0
ARC
  5
23B
330
A
100
AcDbEntity
  8
LEVEL001
  6
HIDDEN
 62
     5
 48
0.5
370
    15
100
AcDbCircle
 10
376.2093574517221
 20
740.24886255542
 30
0.0
 40
2.0
100
AcDbArc
 50
243.1343092490001
 51
270.00000000191
  0
LINE
  5
23C
330
A
100
AcDbEntity
  8
LEVEL001
  6
HIDDEN
 62
     5
 48
0.5
370
    15
100
AcDbLine
 10
388.7316784869221
 20
738.24886255542
 30
0.0
 11
376.2093574517821
 21
738.24886255542
 31
0.0
  0
LINE
  5
23D
330
A
100
AcDbEntity
  8
LEVEL001
  6
Continuous
 62
     2
100
AcDbLine
 10
393.7316784869222
 20
737.74886255542
 30
0.0
 11
393.7316784869222
 21
761.74886255542
 31
0.0
  0
LWPOLYLINE
  5
23E
330
A
100
AcDbEntity
  8
LEVEL001
  6
Continuous
 62
     2
100
AcDbPolyline
 90
        3
 70
     0
 43
0.0
 10
388.7316784869221
 20
763.74886255542
 10
388.7316784869221
 20
735.74886255542
 10
391.7316784869221
 20
735.74886255542
  0
ARC
  5
243
330
A
100
AcDbEntity
  8
LEVEL001
  6
Continuous
 62
     2
100
AcDbCircle
 10
391.7316784868921
 20
761.74886255542
 30
0.0
 40
2.0
100
AcDbArc
 50
0.0
 51
89.999999999101
  0
LINE
  5
244
330
A
100
AcDbEntity
  8
LEVEL001
  6
Continuous
 62
     2
100
AcDbLine
 10
388.7316784869221
 20
763.74886255542
 30
0.0
 11
391.7316784869221
 21
763.74886255542
 31
0.0
  0
ARC
  5
245
330
A
100
AcDbEntity
  8
LEVEL001
  6
Continuous
 62
     2
100
AcDbCircle
 10
391.7316784869221
 20
737.74886255539
 30
0.0
 40
2.0
100
AcDbArc
 50
270.0
 51
0.0
  0
LINE
  5
246
330
A
100
AcDbEntity
  8
LEVEL001
  6
Continuous
 62
     2
100
AcDbLine
 10
388.7316784869221
 20
653.36216855657
 30
0.0
 11
391.7316784869722
 21
653.36216855657
 31
0.0
  0
LINE
  5
247
330
A
100
AcDbEntity
  8
LEVEL001
  6
Continuous
 62
     2
100
AcDbLine
 10
393.7316784869222
 20
651.36216855657
 30
0.0
 11
393.7316784869222
 21
505.3621685565699
 31
0.0
  0
ARC
  5
248
330
A
100
AcDbEntity
  8
LEVEL001
  6
Continuous
 62
     2
100
AcDbCircle
 10
391.7316784869021
 20
651.36216855657
 30
0.0
 40
2.0
100
AcDbArc
 50
0.0
 51
89.99999999932299
  0
LINE
  5
249
330
A
100
AcDbEntity
  8
LEVEL001
  6
HIDDEN
 62
     5
 48
0.5
370
    15
100
AcDbLine
 10
373.7316784869221
 20
651.36216855657
 30
0.0
 11
373.7316784869221
 21
505.3621685565699
 31
0.0
  0
LINE
  5
24A
330
A
100
AcDbEntity
  8
LEVEL001
  6
Continuous
 62
     2
100
AcDbLine
 10
388.7316784869221
 20
653.36216855657
 30
0.0
 11
388.7316784869221
 21
503.36216855657
 31
0.0
  0
LINE
  5
24B
330
A
100
AcDbEntity
  8
LEVEL001
  6
HIDDEN
 62
     5
 48
0.5
370
    15
100
AcDbLine
 10
388.7316784869221
 20
651.36216855657
 30
0.0
 11
373.7316784869221
 21
651.36216855657
 31
0.0
  0
LINE
  5
24C
330
A
100
AcDbEntity
  8
LEVEL001
  6
HIDDEN
 62
     5
 48
0.5
370
    15
100
AcDbLine
 10
373.7316784869221
 20
618.36216855657
 30
0.0
 11
388.7316784869221
 21
618.36216855657
 31
0.0
  0
LINE
  5
24D
330
A
100
AcDbEntity
  8
LEVEL001
  6
HIDDEN
 62
     5
 48
0.5
370
    15
100
AcDbLine
 10
388.7316784869221
 20
598.36216855657
 30
0.0
 11
373.7316784869221
 21
598.36216855657
 31
0.0
  0
LINE
  5
24E
330
A
100
AcDbEntity
  8
LEVEL001
  6
HIDDEN
 62
     5
 48
0.5
370
    15
100
AcDbLine
 10
373.7316784869221
 20
558.3621685565701
 30
0.0
 11
388.7316784869221
 21
558.3621685565701
 31
0.0
  0
LINE
  5
24F
330
A
100
AcDbEntity
  8
LEVEL001
  6
HIDDEN
 62
     5
 48
0.5
370
    15
100
AcDbLine
 10
388.7316784869221
 20
538.36216855657
 30
0.0
 11
373.7316784869221
 21
538.36216855657
 31
0.0
  0
LINE
  5
250
330
A
100
AcDbEntity
  8
LEVEL001
  6
HIDDEN
 62
     5
 48
0.5
370
    15
100
AcDbLine
 10
373.7316784869221
 20
505.3621685565699
 30
0.0
 11
388.7316784869221
 21
505.3621685565699
 31
0.0
  0
ARC
  5
251
330
A
100
AcDbEntity
  8
LEVEL001
  6
Continuous
 62
     2
100
AcDbCircle
 10
391.7316784869221
 20
505.3621685565399
 30
0.0
 40
2.0
100
AcDbArc
 50
270.0
 51
0.0
  0
LINE
  5
252
330
A
100
AcDbEntity
  8
LEVEL001
  6
Continuous
 62
     2
100
AcDbLine
 10
388.7316784869221
 20
503.36216855657
 30
0.0
 11
391.7316784869422
 21
503.3621685566
 31
0.0
  0
LINE
  5
253
330
A
100
AcDbEntity
  8
LEVEL001
  6
DASHDOT
 62
     6
370
    15
100
AcDbLine
 10
272.8071935005021
 20
578.36216855657
 30
0.0
 11
314.6561634733421
 21
578.36216855657
 31
0.0
  0
LINE
  5
2D1
330
A
100
AcDbEntity
  8
LEVEL001
  6
Continuous
 62
     3
370
    30
100
AcDbLine
 10
155.2056737588721
 20
765.74886255542
 30
0.0
 11
402.166562435032
 21
765.74886255542
 31
0.0
  0
LINE
  5
2D2
330
A
100
AcDbEntity
  8
LEVEL001
  6
Continuous
 62
     7
100
AcDbLine
 10
388.7316784869221
 20
735.74886255542
 30
0.0
 11
170.7605019094421
 21
735.74886255542
 31
0.0
  0
LINE
  5
2D3
330
A
100
AcDbEntity
  8
LEVEL001
  6
Continuous
 62
     7
100
AcDbLine
 10
170.7605019094421
 20
653.36216855657
 30
0.0
 11
388.7316784869221
 21
653.36216855657
 31
0.0
  0
LINE
  5
2D4
330
A
100
AcDbEntity
  8
LEVEL001
  6
Continuous
 62
     7
100
AcDbLine
 10
170.7605019094421
 20
610.85166850655
 30
0.0
 11
388.7316784869221
 21
610.85166850655
 31
0.0
  0
LINE
  5
2D5
330
A
100
AcDbEntity
  8
LEVEL001
  6
Continuous
 62
     7
100
AcDbLine
 10
388.7316784869221
 20
605.86262693988
 30
0.0
 11
170.7605019094421
 21
605.86262693988
 31
0.0
  0
LINE
  5
2D6
330
A
100
AcDbEntity
  8
LEVEL001
  6
Continuous
 62
     7
100
AcDbLine
 10
175.945444626302
 20
550.8617101732499
 30
0.0
 11
388.7316784869221
 21
550.8617101732499
 31
0.0
  0
LINE
  5
2D7
330
A
100
AcDbEntity
  8
LEVEL001
  6
Continuous
 62
     7
100
AcDbLine
 10
388.7316784869221
 20
545.8627102732699
 30
0.0
 11
175.945444626302
 21
545.8627102732699
 31
0.0
  0
LINE
  5
2D8
330
A
100
AcDbEntity
  8
LEVEL001
  6
Continuous
 62
     7
100
AcDbLine
 10
388.7316784869221
 20
503.36216855657
 30
0.0
 11
175.945444626302
 21
503.36216855657
 31
0.0
  0
LINE
  5
2D9
330
A
100
AcDbEntity
  8
LEVEL001
  6
HIDDEN
 62
     5
 48
0.5
370
    15
100
AcDbLine
 10
388.7316784869221
 20
761.74886255542
 30
0.0
 11
170.7605019094421
 21
761.74886255542
 31
0.0
  0
LINE
  5
2DA
330
A
100
AcDbEntity
  8
LEVEL001
  6
Continuous
 62
     7
100
AcDbLine
 10
388.7316784869221
 20
764.74886255542
 30
0.0
 11
170.7605019094421
 21
764.74886255542
 31
0.0
  0
LINE
  5
2DB
330
A
100
AcDbEntity
  8
LEVEL001
  6
Continuous
 62
     7
100
AcDbLine
 10
171.5464225818821
 20
763.74886255542
 30
0.0
 11
388.7316784869221
 21
763.74886255542
 31
0.0
  0
CIRCLE
  5
2DC
330
A
100
AcDbEntity
  8
LEVEL001
  6
HIDDEN
 62
     5
 48
0.5
370
    15
100
AcDbCircle
 10
293.7316784869221
 20
578.36216855657
 30
0.0
 40
4.0
  0
LINE
  5
2DE
330
A
100
AcDbEntity
  8
LEVEL001
  6
Continuous
 62
     1
100
AcDbLine
 10
212.56074700783
 20
179.29482969016
 30
0.0
 11
192.76573646466
 21
179.29482969016
 31
0.0
  0
LINE
  5
2DF
330
A
100
AcDbEntity
  8
LEVEL001
  6
Continuous
 62
     1
100
AcDbLine
 10
192.76573646466
 20
179.29482969016
 30
0.0
 11
192.76573646466
 21
170.29482969016
 31
0.0
  0
ARC
  5
2E0
330
A
100
AcDbEntity
  8
LEVEL001
  6
Continuous
 62
     1
100
AcDbCircle
 10
208.06573646466
 20
170.29482969016
 30
0.0
 40
15.3
100
AcDbArc
 50
180.0
 51
270.0
  0
LINE
  5
2E1
330
A
100
AcDbEntity
  8
LEVEL001
  6
Continuous
 62
     1
100
AcDbLine
 10
208.06573646466
 20
154.99482969016
 30
0.0
 11
217.06573646466
 21
154.99482969016
 31
0.0
  0
LINE
  5
2E2
330
A
100
AcDbEntity
  8
LEVEL001
  6
Continuous
 62
     1
100
AcDbLine
 10
217.06573646466
 20
154.99482969016
 30
0.0
 11
217.06573646466
 21
174.7948296902
 31
0.0
  0
LINE
  5
2E3
330
A
100
AcDbEntity
  8
LEVEL001
  6
Continuous
 62
     1
100
AcDbLine
 10
217.06573646466
 20
174.7948296902
 30
0.0
 11
212.56074700783
 21
174.7948296902
 31
0.0
  0
LINE
  5
2E4
330
A
100
AcDbEntity
  8
LEVEL001
  6
Continuous
 62
     1
100
AcDbLine
 10
212.56074700783
 20
174.7948296902
 30
0.0
 11
212.56074700783
 21
179.29482969016
 31
0.0
  0
LINE
  5
2E5
330
A
100
AcDbEntity
  8
LEVEL001
  6
Continuous
 62
     3
370
    30
100
AcDbLine
 10
459.4899800629099
 20
174.79482968989
 30
0.0
 11
212.56074700814
 21
174.79482968989
 31
0.0
  0
LINE
  5
2E6
330
A
100
AcDbEntity
  8
LEVEL001
  6
Continuous
 62
     7
100
AcDbLine
 10
217.06573646466
 20
173.89482969016
 30
0.0
 11
383.89571781878
 21
173.89482969016
 31
0.0
  0
LINE
  5
2E7
330
A
100
AcDbEntity
  8
LEVEL001
  6
Continuous
 62
     7
100
AcDbLine
 10
217.06573646466
 20
155.89482969016
 30
0.0
 11
383.89571781878
 21
155.89482969016
 31
0.0
  0
LWPOLYLINE
  5
2E8
330
A
100
AcDbEntity
  8
LEVEL001
  6
DASHDOT
 62
     6
370
    15
100
AcDbPolyline
 90
        3
 70
     0
 43
0.0
 10
202.66573646466
 20
364.55007122833
 10
202.66573646466
 20
164.89482969016
 10
408.7358463676699
 20
164.89482969016
  0
LINE
  5
2ED
330
A
100
AcDbEntity
  8
LEVEL001
  6
Continuous
 62
     3
370
    30
100
AcDbLine
 10
212.56074700783
 20
381.27956363387
 30
0.0
 11
212.56074700783
 21
174.7948296902
 31
0.0
  0
LINE
  5
2EE
330
A
100
AcDbEntity
  8
LEVEL001
  6
Continuous
 62
     7
100
AcDbLine
 10
217.06573646466
 20
173.89482969016
 30
0.0
 11
217.06573646466
 21
155.89482969016
 31
0.0
  0
LWPOLYLINE
  5
2EF
330
A
100
AcDbEntity
  8
LEVEL001
  6
HIDDEN
 62
     5
 48
0.25
370
    15
100
AcDbPolyline
 90
        4
 70
     0
 43
0.0
 10
226.0657364647
 20
163.99482969016
 10
250.0657364647
 20
163.99482969016
 10
250.0657364647
 20
165.79482969016
 10
226.0657364647
 20
165.79482969016
  0
LWPOLYLINE
  5
2F5
330
A
100
AcDbEntity
  8
LEVEL001
  6
HIDDEN
 62
     5
 48
0.25
370
    15
100
AcDbPolyline
 90
        3
 70
     0
 43
0.0
 10
226.0657364647
 20
172.72204277595
 10
226.0657364647
 20
173.54355987007
 10
217.06573646466
 20
173.54355987007
  0
LWPOLYLINE
  5
2FA
330
A
100
AcDbEntity
  8
LEVEL001
  6
HIDDEN
 62
     5
 48
0.25
370
    15
100
AcDbPolyline
 90
        3
 70
     0
 43
0.0
 10
226.0657364647
 20
157.06761660438
 10
226.0657364647
 20
156.24609951025
 10
217.06573646466
 20
156.24609951025
  0
LWPOLYLINE
  5
2FF
330
A
100
AcDbEntity
  8
LEVEL001
  6
HIDDEN
 62
     5
 48
0.25
370
    15
100
AcDbPolyline
 90
        4
 70
     0
 43
0.0
 10
217.06573646466
 20
157.06761660438
 10
226.0657364647
 20
157.06761660438
 10
226.0657364647
 20
172.72204277595
 10
217.06573646466
 20
172.72204277595
  0
LINE
  5
305
330
A
100
AcDbEntity
  8
LEVEL001
  6
Continuous
 62
     7
100
AcDbLine
 10
211.6607470081
 20
179.29981914672
 30
0.0
 11
211.6607470081
 21
346.12980050084
 31
0.0
  0
LINE
  5
306
330
A
100
AcDbEntity
  8
LEVEL001
  6
Continuous
 62
     7
100
AcDbLine
 10
193.6607470081
 20
179.29981914672
 30
0.0
 11
193.6607470081
 21
346.12980050084
 31
0.0
  0
LINE
  5
307
330
A
100
AcDbEntity
  8
LEVEL001
  6
Continuous
 62
     7
100
AcDbLine
 10
211.6607470081
 20
179.29981914672
 30
0.0
 11
193.6607470081
 21
179.29981914672
 31
0.0
  0
LWPOLYLINE
  5
308
330
A
100
AcDbEntity
  8
LEVEL001
  6
HIDDEN
 62
     5
 48
0.25
370
    15
100
AcDbPolyline
 90
        4
 70
     0
 43
0.0
 10
201.76573646466
 20
188.2948296902
 10
201.76573646466
 20
212.2948296902
 10
203.56573646466
 20
212.2948296902
 10
203.56573646466
 20
188.2948296902
  0
LWPOLYLINE
  5
30E
330
A
100
AcDbEntity
  8
LEVEL001
  6
HIDDEN
 62
     5
 48
0.25
370
    15
100
AcDbPolyline
 90
        3
 70
     0
 43
0.0
 10
210.49294955045
 20
188.2948296902
 10
211.31446664457
 20
188.2948296902
 10
211.31446664457
 20
179.29482969016
  0
LWPOLYLINE
  5
313
330
A
100
AcDbEntity
  8
LEVEL001
  6
HIDDEN
 62
     5
 48
0.25
370
    15
100
AcDbPolyline
 90
        3
 70
     0
 43
0.0
 10
194.83852337888
 20
188.2948296902
 10
194.01700628475
 20
188.2948296902
 10
194.01700628475
 20
179.29482969016
  0
LWPOLYLINE
  5
318
330
A
100
AcDbEntity
  8
LEVEL001
  6
HIDDEN
 62
     5
 48
0.25
370
    15
100
AcDbPolyline
 90
        4
 70
     0
 43
0.0
 10
194.83852337888
 20
179.29482969016
 10
194.83852337888
 20
188.2948296902
 10
210.49294955045
 20
188.2948296902
 10
210.49294955045
 20
179.29482969016
  0
LINE
  5
31E
330
A
100
AcDbEntity
  8
LEVEL001
  6
Continuous
 62
     8
100
AcDbLine
 10
251.59430670896
 20
96.117556727482
 30
0.0
 11
368.25551783826
 21
96.117556727482
 31
0.0
  0
LINE
  5
31F
330
A
100
AcDbEntity
  8
LEVEL001
  6
Continuous
 62
     8
100
AcDbLine
 10
573.06075515414
 20
96.117556727482
 30
0.0
 11
689.72196628343
 21
96.117556727482
 31
0.0
  0
LINE
  5
320
330
A
100
AcDbEntity
  8
LEVEL001
  6
HIDDEN
 62
     7
100
AcDbLine
 10
679.4311384558
 20
359.85692516498
 30
0.0
 11
686.9478568828
 21
359.85692516498
 31
0.0
  0
LINE
  5
321
330
A
100
AcDbEntity
  8
LEVEL001
  6
Continuous
 62
     7
100
AcDbLine
 10
686.9478568828
 20
358.65692516498
 30
0.0
 11
686.9478568828
 21
359.85692516498
 31
0.0
  0
ARC
  5
322
330
A
100
AcDbEntity
  8
LEVEL001
  6
HIDDEN
 62
     5
 48
0.25
370
    15
100
AcDbCircle
 10
679.43113845579
 20
355.95692516498
 30
0.0
 40
1.199999999999999
100
AcDbArc
 50
89.999999999244
 51
116.56505117641
  0
LINE
  5
323
330
A
100
AcDbEntity
  8
LEVEL001
  6
HIDDEN
 62
     5
 48
0.25
370
    15
100
AcDbLine
 10
677.9478568827999
 20
356.55692516498
 30
0.0
 11
678.8944821412
 21
357.03023779418
 31
0.0
  0
LINE
  5
324
330
A
100
AcDbEntity
  8
LEVEL001
  6
HIDDEN
 62
     5
 48
0.25
370
    15
100
AcDbLine
 10
677.9478568827999
 20
343.96481666704
 30
0.0
 11
677.9478568827999
 21
356.55692516498
 31
0.0
  0
LINE
  5
325
330
A
100
AcDbEntity
  8
LEVEL001
  6
HIDDEN
 62
     5
 48
0.25
370
    15
100
AcDbLine
 10
679.4311384558
 20
357.15692516498
 30
0.0
 11
686.9478568828
 21
357.15692516498
 31
0.0
  0
LINE
  5
326
330
A
100
AcDbEntity
  8
LEVEL001
  6
HIDDEN
 62
     5
 48
0.25
370
    15
100
AcDbLine
 10
677.9478568827999
 20
343.96481666704
 30
0.0
 11
678.89218352786
 21
343.48644321479
 31
0.0
  0
ARC
  5
327
330
A
100
AcDbEntity
  8
LEVEL001
  6
HIDDEN
 62
     5
 48
0.25
370
    15
100
AcDbCircle
 10
679.4344642617
 20
344.55692516498
 30
0.0
 40
1.199999999999999
100
AcDbArc
 50
243.13430924833
 51
270.00000000117
  0
LINE
  5
328
330
A
100
AcDbEntity
  8
LEVEL001
  6
HIDDEN
 62
     5
 48
0.25
370
    15
100
AcDbLine
 10
686.9478568828
 20
343.35692516498
 30
0.0
 11
679.43446426172
 21
343.35692516498
 31
0.0
  0
LINE
  5
329
330
A
100
AcDbEntity
  8
LEVEL001
  6
Continuous
 62
     2
100
AcDbLine
 10
689.9478568828
 20
343.05692516498
 30
0.0
 11
689.9478568828
 21
357.45692516498
 31
0.0
  0
LWPOLYLINE
  5
32A
330
A
100
AcDbEntity
  8
LEVEL001
  6
Continuous
 62
     2
100
AcDbPolyline
 90
        3
 70
     0
 43
0.0
 10
686.9478568828
 20
358.65692516498
 10
686.9478568828
 20
341.85692516498
 10
688.7478568827999
 20
341.85692516498
  0
ARC
  5
32F
330
A
100
AcDbEntity
  8
LEVEL001
  6
Continuous
 62
     2
100
AcDbCircle
 10
688.74785688279
 20
357.45692516498
 30
0.0
 40
1.199999999999999
100
AcDbArc
 50
0.0
 51
89.99999999915301
  0
LINE
  5
330
330
A
100
AcDbEntity
  8
LEVEL001
  6
Continuous
 62
     2
100
AcDbLine
 10
686.9478568828
 20
358.65692516498
 30
0.0
 11
688.7478568827999
 21
358.65692516498
 31
0.0
  0
ARC
  5
331
330
A
100
AcDbEntity
  8
LEVEL001
  6
Continuous
 62
     2
100
AcDbCircle
 10
688.7478568827999
 20
343.05692516496
 30
0.0
 40
1.199999999999999
100
AcDbArc
 50
270.0
 51
0.0
  0
LINE
  5
332
330
A
100
AcDbEntity
  8
LEVEL001
  6
Continuous
 62
     7
100
AcDbLine
 10
686.9478568828
 20
341.85692516498
 30
0.0
 11
556.16515093631
 21
341.85692516498
 31
0.0
  0
LINE
  5
333
330
A
100
AcDbEntity
  8
LEVEL001
  6
HIDDEN
 62
     5
 48
0.25
370
    15
100
AcDbLine
 10
686.9478568828
 20
357.45692516498
 30
0.0
 11
556.16515093631
 21
357.45692516498
 31
0.0
  0
LINE
  5
334
330
A
100
AcDbEntity
  8
LEVEL001
  6
Continuous
 62
     7
100
AcDbLine
 10
686.9478568828
 20
359.25692516498
 30
0.0
 11
556.16515093631
 21
359.25692516498
 31
0.0
  0
LINE
  5
335
330
A
100
AcDbEntity
  8
LEVEL001
  6
Continuous
 62
     7
100
AcDbLine
 10
556.6367033397799
 20
358.65692516498
 30
0.0
 11
686.9478568828
 21
358.65692516498
 31
0.0
  0
LINE
  5
336
330
A
100
AcDbEntity
  8
LEVEL001
  6
HIDDEN
 62
     7
100
AcDbLine
 10
719.94785688285
 20
319.34020673794
 30
0.0
 11
719.94785688285
 21
326.85692516494
 31
0.0
  0
LINE
  5
337
330
A
100
AcDbEntity
  8
LEVEL001
  6
Continuous
 62
     7
100
AcDbLine
 10
718.74785688285
 20
326.85692516494
 30
0.0
 11
719.94785688285
 21
326.85692516494
 31
0.0
  0
ARC
  5
338
330
A
100
AcDbEntity
  8
LEVEL001
  6
HIDDEN
 62
     5
 48
0.25
370
    15
100
AcDbCircle
 10
716.0478568828501
 20
319.3402067379
 30
0.0
 40
1.199999999999999
100
AcDbArc
 50
333.43494882464
 51
0.0
  0
LINE
  5
339
330
A
100
AcDbEntity
  8
LEVEL001
  6
HIDDEN
 62
     5
 48
0.25
370
    15
100
AcDbLine
 10
716.6478568828499
 20
317.85692516494
 30
0.0
 11
717.1211695120499
 21
318.80355042334
 31
0.0
  0
LINE
  5
33A
330
A
100
AcDbEntity
  8
LEVEL001
  6
HIDDEN
 62
     5
 48
0.25
370
    15
100
AcDbLine
 10
704.0557483848999
 20
317.85692516494
 30
0.0
 11
716.6478568828499
 21
317.85692516494
 31
0.0
  0
LINE
  5
33B
330
A
100
AcDbEntity
  8
LEVEL001
  6
HIDDEN
 62
     5
 48
0.25
370
    15
100
AcDbLine
 10
717.2478568828499
 20
319.34020673794
 30
0.0
 11
717.2478568828499
 21
326.85692516494
 31
0.0
  0
LINE
  5
33C
330
A
100
AcDbEntity
  8
LEVEL001
  6
HIDDEN
 62
     5
 48
0.25
370
    15
100
AcDbLine
 10
704.0557483848999
 20
317.85692516494
 30
0.0
 11
703.5773749326499
 21
318.80125181
 31
0.0
  0
ARC
  5
33D
330
A
100
AcDbEntity
  8
LEVEL001
  6
HIDDEN
 62
     5
 48
0.25
370
    15
100
AcDbCircle
 10
704.6478568828499
 20
319.34353254384
 30
0.0
 40
1.199999999999999
100
AcDbArc
 50
179.99999999903
 51
206.86569075184
  0
LINE
  5
33E
330
A
100
AcDbEntity
  8
LEVEL001
  6
HIDDEN
 62
     5
 48
0.25
370
    15
100
AcDbLine
 10
703.44785688285
 20
326.85692516494
 30
0.0
 11
703.44785688285
 21
319.34353254386
 31
0.0
  0
LINE
  5
33F
330
A
100
AcDbEntity
  8
LEVEL001
  6
Continuous
 62
     2
100
AcDbLine
 10
703.1478568828499
 20
329.85692516494
 30
0.0
 11
717.54785688285
 21
329.85692516494
 31
0.0
  0
LWPOLYLINE
  5
340
330
A
100
AcDbEntity
  8
LEVEL001
  6
Continuous
 62
     2
100
AcDbPolyline
 90
        3
 70
     0
 43
0.0
 10
718.74785688285
 20
326.85692516494
 10
701.94785688285
 20
326.85692516494
 10
701.94785688285
 20
328.65692516494
  0
ARC
  5
345
330
A
100
AcDbEntity
  8
LEVEL001
  6
Continuous
 62
     2
100
AcDbCircle
 10
717.54785688285
 20
328.65692516493
 30
0.0
 40
1.199999999999999
100
AcDbArc
 50
0.0
 51
90.000000000026
  0
LINE
  5
346
330
A
100
AcDbEntity
  8
LEVEL001
  6
Continuous
 62
     2
100
AcDbLine
 10
718.74785688285
 20
326.85692516494
 30
0.0
 11
718.74785688285
 21
328.65692516494
 31
0.0
  0
ARC
  5
347
330
A
100
AcDbEntity
  8
LEVEL001
  6
Continuous
 62
     2
100
AcDbCircle
 10
703.1478568828499
 20
328.65692516494
 30
0.0
 40
1.199999999999999
100
AcDbArc
 50
90.000000000098
 51
179.99999999999
  0
LINE
  5
348
330
A
100
AcDbEntity
  8
LEVEL001
  6
Continuous
 62
     7
100
AcDbLine
 10
701.94785688285
 20
326.85692516494
 30
0.0
 11
701.94785688284
 21
196.07421921845
 31
0.0
  0
LINE
  5
349
330
A
100
AcDbEntity
  8
LEVEL001
  6
HIDDEN
 62
     5
 48
0.25
370
    15
100
AcDbLine
 10
717.54785688285
 20
326.85692516494
 30
0.0
 11
717.54785688285
 21
196.07421921845
 31
0.0
  0
LINE
  5
34A
330
A
100
AcDbEntity
  8
LEVEL001
  6
Continuous
 62
     7
100
AcDbLine
 10
719.34785688285
 20
326.85692516494
 30
0.0
 11
719.34785688285
 21
196.07421921845
 31
0.0
  0
LINE
  5
34B
330
A
100
AcDbEntity
  8
LEVEL001
  6
Continuous
 62
     7
100
AcDbLine
 10
718.74785688285
 20
196.54577162192
 30
0.0
 11
718.74785688285
 21
326.85692516494
 31
0.0
  0
LINE
  5
34C
330
A
100
AcDbEntity
  8
LEVEL001
  6
Continuous
 62
     3
370
    30
100
AcDbLine
 10
515.88235908212
 20
359.85692516498
 30
0.0
 11
719.9478568827999
 21
359.85692516498
 31
0.0
  0
LINE
  5
34D
330
A
100
AcDbEntity
  8
LEVEL001
  6
Continuous
 62
     3
370
    30
100
AcDbLine
 10
719.9478568816699
 20
166.25067183932
 30
0.0
 11
719.9478568827999
 21
359.85692516498
 31
0.0
  0
LWPOLYLINE
  5
34E
330
A
100
AcDbEntity
  8
LEVEL001
  6
DASHDOT
 62
     6
370
    15
100
AcDbPolyline
 90
        3
 70
     0
 43
0.0
 10
710.0478568828
 20
138.59764401608
 10
710.0478568828
 20
349.95692516498
 10
502.9200022899799
 20
349.95692516498
  0
TEXT
  5
353
330
A
100
AcDbEntity
  8
LEVEL001
 62
     8
100
AcDbText
 10
1115.5652536825
 20
141.50000000001
 30
0.0
 40
9.0
  1
平成２０年　５月　１日
 41
0.8
 72
     1
 11
1161.6452536825
 21
146.00000000001
 31
0.0
100
AcDbText
 73
     2
  0
TEXT
  5
354
330
A
100
AcDbEntity
  8
LEVEL001
 62
     8
100
AcDbText
 10
1115.5652536825
 20
121.50000000001
 30
0.0
 40
9.0
  1
平成２５年１１月　１日
 41
0.8
 72
     1
 11
1161.6452536825
 21
126.00000000001
 31
0.0
100
AcDbText
 73
     2
  0
TEXT
  5
35D
330
A
100
AcDbEntity
  8
LEVEL001
 62
     8
100
AcDbText
 10
47.40000000008211
 20
843.00000000001
 30
0.0
 40
9.0
  1
 ＪＰ１５０･ＪＰ１５０Ｍ
 41
0.8
 11
47.40000000008211
 21
847.50000000001
 31
0.0
100
AcDbText
 73
     2
  0
TEXT
  5
95D
330
A
100
AcDbEntity
  8
LEVEL001
 62
     8
100
AcDbText
 10
928.4171849427
 20
219.44133781898
 30
0.0
 40
10.0
  1
※本製品は予告無しに変更する事があります。
 41
0.8
 72
     1
 11
1026.0171849427
 21
224.44133781898
 31
0.0
100
AcDbText
 73
     2
  0
TEXT
  5
95E
330
A
100
AcDbEntity
  8
LEVEL001
 62
     8
100
AcDbText
 10
267.92491227361
 20
112.74603463256
 30
0.0
 40
12.0
  1
出隅部納まり図
 41
0.8
100
AcDbText
  0
TEXT
  5
95F
330
A
100
AcDbEntity
  8
LEVEL001
 62
     8
100
AcDbText
 10
267.92491227361
 20
96.746034632556
 30
0.0
 40
12.0
  1
(Ｓ＝１／５)
 41
0.8
100
AcDbText
  0
TEXT
  5
960
330
A
100
AcDbEntity
  8
LEVEL001
 62
     8
100
AcDbText
 10
589.3913607187799
 20
112.74603463256
 30
0.0
 40
12.0
  1
入隅部納まり図
 41
0.8
100
AcDbText
  0
TEXT
  5
961
330
A
100
AcDbEntity
  8
LEVEL001
 62
     8
100
AcDbText
 10
589.3913607187799
 20
96.746034632556
 30
0.0
 40
12.0
  1
(Ｓ＝１／５)
 41
0.8
100
AcDbText
  0
TEXT
  5
962
330
A
100
AcDbEntity
  8
LEVEL001
 62
     8
100
AcDbText
 10
960.37500000008
 20
126.00000000001
 30
0.0
 40
11.25
  1
Ｓ＝１：３
 41
0.8
100
AcDbText
  0
TEXT
  5
963
330
A
100
AcDbEntity
  8
LEVEL001
 62
     8
100
AcDbText
 10
960.37500000008
 20
111.00000000001
 30
0.0
 40
11.25
  1
Ｓ＝１：５
 41
0.8
100
AcDbText
  0
LWPOLYLINE
  5
964
330
A
100
AcDbEntity
  8
LEVEL001
  6
Continuous
 62
     6
370
    15
100
AcDbPolyline
 90
        3
 70
     0
 43
0.0
 10
201.0411152196
 20
166.27467620375
 10
179.00510867295
 20
137.75749126103
 10
123.50510867295
 20
137.75749126103
  0
CIRCLE
  5
969
330
A
100
AcDbEntity
  8
LEVEL001
  6
Continuous
 62
     6
370
    15
100
AcDbCircle
 10
201.0411152196
 20
166.27467620375
 30
0.0
 40
0.6
  0
TEXT
  5
96A
330
A
100
AcDbEntity
  8
LEVEL001
 62
     6
370
    15
100
AcDbText
 10
123.50510867295
 20
139.25749126103
 30
0.0
 40
7.5
  1
コーナージョイント
 41
0.8
100
AcDbText
  0
LINE
  5
96B
330
A
100
AcDbEntity
  8
LEVEL001
  6
Continuous
 62
     6
370
    15
100
AcDbLine
 10
689.9478568828
 20
371.51999353418
 30
0.0
 11
719.9478568827999
 21
371.51999353418
 31
0.0
  0
LINE
  5
96C
330
A
100
AcDbEntity
  8
LEVEL001
  6
Continuous
 62
     6
370
    15
100
AcDbLine
 10
689.9478568828
 20
360.45692516498
 30
0.0
 11
689.9478568828
 21
373.01999353418
 31
0.0
  0
LINE
  5
96D
330
A
100
AcDbEntity
  8
LEVEL001
  6
Continuous
 62
     6
370
    15
100
AcDbLine
 10
719.9478568827999
 20
362.85692516498
 30
0.0
 11
719.9478568827999
 21
373.01999353418
 31
0.0
  0
CIRCLE
  5
96E
330
A
100
AcDbEntity
  8
LEVEL001
  6
Continuous
 62
     6
370
    15
100
AcDbCircle
 10
689.9478568828
 20
371.51999353418
 30
0.0
 40
0.6
  0
CIRCLE
  5
96F
330
A
100
AcDbEntity
  8
LEVEL001
  6
Continuous
 62
     6
370
    15
100
AcDbCircle
 10
719.9478568827999
 20
371.51999353418
 30
0.0
 40
0.6
  0
TEXT
  5
970
330
A
100
AcDbEntity
  8
LEVEL001
 62
     6
370
    15
100
AcDbText
 10
698.1978568828
 20
373.01999353418
 30
0.0
 40
7.5
  1
５０
 41
0.8
100
AcDbText
  0
LINE
  5
971
330
A
100
AcDbEntity
  8
LEVEL001
  6
Continuous
 62
     6
370
    15
100
AcDbLine
 10
731.61092525204
 20
329.85692516494
 30
0.0
 11
731.61092525204
 21
359.85692516494
 31
0.0
  0
LINE
  5
972
330
A
100
AcDbEntity
  8
LEVEL001
  6
Continuous
 62
     6
370
    15
100
AcDbLine
 10
720.5478568828501
 20
329.85692516494
 30
0.0
 11
733.11092525204
 21
329.85692516494
 31
0.0
  0
LINE
  5
973
330
A
100
AcDbEntity
  8
LEVEL001
  6
Continuous
 62
     6
370
    15
100
AcDbLine
 10
722.94785688285
 20
359.85692516494
 30
0.0
 11
733.11092525204
 21
359.85692516494
 31
0.0
  0
CIRCLE
  5
974
330
A
100
AcDbEntity
  8
LEVEL001
  6
Continuous
 62
     6
370
    15
100
AcDbCircle
 10
731.61092525204
 20
329.85692516494
 30
0.0
 40
0.6
  0
CIRCLE
  5
975
330
A
100
AcDbEntity
  8
LEVEL001
  6
Continuous
 62
     6
370
    15
100
AcDbCircle
 10
731.61092525204
 20
359.85692516494
 30
0.0
 40
0.6
  0
TEXT
  5
976
330
A
100
AcDbEntity
  8
LEVEL001
 62
     6
370
    15
100
AcDbText
 10
730.11092525204
 20
338.10692516494
 30
0.0
 40
7.5
  1
５０
 50
90.0
 41
0.8
100
AcDbText
  0
LINE
  5
995
330
A
100
AcDbEntity
  8
LEVEL001
  6
Continuous
 62
     6
370
    15
100
AcDbLine
 10
74.1677577741421
 20
683.3621685565701
 30
0.0
 11
108.043931116242
 21
683.3621685565701
 31
0.0
  0
LINE
  5
996
330
A
100
AcDbEntity
  8
LEVEL001
  6
Continuous
 62
     6
370
    15
100
AcDbLine
 10
108.043931116242
 20
656.36216855657
 30
0.0
 11
108.043931116242
 21
686.36216855657
 31
0.0
  0
CIRCLE
  5
997
330
A
100
AcDbEntity
  8
LEVEL001
  6
Continuous
 62
     6
370
    15
100
AcDbCircle
 10
74.1677577741421
 20
683.3621685565701
 30
0.0
 40
0.6
  0
CIRCLE
  5
998
330
A
100
AcDbEntity
  8
LEVEL001
  6
Continuous
 62
     6
370
    15
100
AcDbCircle
 10
108.043931116242
 20
683.3621685565701
 30
0.0
 40
0.6
  0
TEXT
  5
999
330
A
100
AcDbEntity
  8
LEVEL001
 62
     6
370
    15
100
AcDbText
 10
82.85584444519207
 20
684.86216855657
 30
0.0
 40
9.0
  1
３０
 41
0.8
100
AcDbText
  0
LINE
  5
99A
330
A
100
AcDbEntity
  8
LEVEL001
  6
Continuous
 62
     6
370
    15
100
AcDbLine
 10
130.543931116242
 20
653.36216855657
 30
0.0
 11
130.543931116242
 21
503.36216855657
 31
0.0
  0
LINE
  5
99B
330
A
100
AcDbEntity
  8
LEVEL001
  6
Continuous
 62
     6
370
    15
100
AcDbLine
 10
111.043931116242
 20
653.36216855657
 30
0.0
 11
133.543931116242
 21
653.36216855657
 31
0.0
  0
LINE
  5
99C
330
A
100
AcDbEntity
  8
LEVEL001
  6
Continuous
 62
     6
370
    15
100
AcDbLine
 10
111.043931116242
 20
503.36216855657
 30
0.0
 11
133.543931116242
 21
503.36216855657
 31
0.0
  0
CIRCLE
  5
99D
330
A
100
AcDbEntity
  8
LEVEL001
  6
Continuous
 62
     6
370
    15
100
AcDbCircle
 10
130.543931116242
 20
653.36216855657
 30
0.0
 40
0.6
  0
CIRCLE
  5
99E
330
A
100
AcDbEntity
  8
LEVEL001
  6
Continuous
 62
     6
370
    15
100
AcDbCircle
 10
130.543931116242
 20
503.36216855657
 30
0.0
 40
0.6
  0
TEXT
  5
99F
330
A
100
AcDbEntity
  8
LEVEL001
 62
     6
370
    15
100
AcDbText
 10
129.043931116242
 20
566.36216855657
 30
0.0
 40
9.0
  1
１５０
 50
90.0
 41
0.8
100
AcDbText
  0
LWPOLYLINE
  5
9A0
330
A
100
AcDbEntity
  8
LEVEL001
  6
Continuous
 62
     6
370
    15
100
AcDbPolyline
 90
        3
 70
     0
 43
0.0
 10
104.1640539943921
 20
650.22974141656
 10
118.3239618357821
 20
675.0790617715599
 10
149.8239618357821
 20
675.0790617715599
  0
LWPOLYLINE
  5
9A5
330
A
100
AcDbEntity
  8
LEVEL001
  6
Continuous
 62
     6
370
    15
100
AcDbPolyline
 90
        4
 70
     0
 43
0.0
 10
106.9067009401921
 20
653.84621323701
 10
104.1640539943921
 20
650.22974141656
 10
105.8772357285221
 20
654.43283421155
 10
106.9067009401921
 20
653.84621323701
  0
TEXT
  5
9AB
330
A
100
AcDbEntity
  8
LEVEL001
 62
     6
370
    15
100
AcDbText
 10
118.3239618357821
 20
676.5790617715599
 30
0.0
 40
9.0
  1
特殊樹脂
 41
0.8
100
AcDbText
  0
LWPOLYLINE
  5
9AC
330
A
100
AcDbEntity
  8
LEVEL001
  6
Continuous
 62
     6
370
    15
100
AcDbPolyline
 90
        3
 70
     0
 43
0.0
 10
92.84291698832209
 20
508.3203307594
 10
103.0528627400521
 20
475.00020457477
 10
127.0528627400521
 20
475.00020457477
  0
LWPOLYLINE
  5
9B1
330
A
100
AcDbEntity
  8
LEVEL001
  6
Continuous
 62
     6
370
    15
100
AcDbPolyline
 90
        4
 70
     0
 43
0.0
 10
93.59486048961214
 20
503.8442206548199
 10
92.84291698832209
 20
508.3203307594
 10
94.72774117917214
 20
504.1913577070499
 10
93.59486048961214
 20
503.8442206548199
  0
TEXT
  5
9B7
330
A
100
AcDbEntity
  8
LEVEL001
 62
     6
370
    15
100
AcDbText
 10
103.0528627400521
 20
476.5002045747699
 30
0.0
 40
9.0
  1
笠木受
 41
0.8
100
AcDbText
  0
LWPOLYLINE
  5
9B8
330
A
100
AcDbEntity
  8
LEVEL001
  6
Continuous
 62
     6
370
    15
100
AcDbPolyline
 90
        3
 70
     0
 43
0.0
 10
390.9285324604521
 20
641.0735588288799
 10
409.3638843426121
 20
666.42216766685
 10
463.3638843426121
 20
666.42216766685
  0
LWPOLYLINE
  5
9BD
330
A
100
AcDbEntity
  8
LEVEL001
  6
Continuous
 62
     6
370
    15
100
AcDbPolyline
 90
        4
 70
     0
 43
0.0
 10
394.0544296642321
 20
644.3644169796999
 10
390.9285324604521
 20
641.0735588288799
 10
393.0961805357421
 20
645.0613254367799
 10
394.0544296642321
 20
644.3644169796999
  0
TEXT
  5
9C3
330
A
100
AcDbEntity
  8
LEVEL001
 62
     6
370
    15
100
AcDbText
 10
409.3638843426121
 20
667.9221676668499
 30
0.0
 40
9.0
  1
エンドキャップ
 41
0.8
100
AcDbText
  0
LINE
  5
9C4
330
A
100
AcDbEntity
  8
LEVEL001
  6
Continuous
 62
     6
370
    15
100
AcDbLine
 10
293.7316784869221
 20
683.3621685565701
 30
0.0
 11
393.7316784869222
 21
683.3621685565701
 31
0.0
  0
LINE
  5
9C5
330
A
100
AcDbEntity
  8
LEVEL001
  6
Continuous
 62
     6
370
    15
100
AcDbLine
 10
293.7316784869221
 20
650.36216855656
 30
0.0
 11
293.7316784869221
 21
686.36216855657
 31
0.0
  0
LINE
  5
9C6
330
A
100
AcDbEntity
  8
LEVEL001
  6
Continuous
 62
     6
370
    15
100
AcDbLine
 10
393.7316784869222
 20
656.36216855657
 30
0.0
 11
393.7316784869222
 21
686.36216855657
 31
0.0
  0
CIRCLE
  5
9C7
330
A
100
AcDbEntity
  8
LEVEL001
  6
Continuous
 62
     6
370
    15
100
AcDbCircle
 10
293.7316784869221
 20
683.3621685565701
 30
0.0
 40
0.6
  0
CIRCLE
  5
9C8
330
A
100
AcDbEntity
  8
LEVEL001
  6
Continuous
 62
     6
370
    15
100
AcDbCircle
 10
393.7316784869222
 20
683.3621685565701
 30
0.0
 40
0.6
  0
TEXT
  5
9C9
330
A
100
AcDbEntity
  8
LEVEL001
 62
     6
370
    15
100
AcDbText
 10
331.7316784869221
 20
684.86216855657
 30
0.0
 40
9.0
  1
１００
 41
0.8
100
AcDbText
  0
LWPOLYLINE
  5
9CA
330
A
100
AcDbEntity
  8
LEVEL001
  6
Continuous
 62
     6
370
    15
100
AcDbPolyline
 90
        3
 70
     0
 43
0.0
 10
390.9285324604521
 20
747.4609019821799
 10
407.9236224768221
 20
779.8667939625399
 10
461.9236224768221
 20
779.8667939625399
  0
LWPOLYLINE
  5
9CF
330
A
100
AcDbEntity
  8
LEVEL001
  6
Continuous
 62
     6
370
    15
100
AcDbPolyline
 90
        4
 70
     0
 43
0.0
 10
393.5432109028221
 20
751.17094744557
 10
390.9285324604521
 20
747.4609019821799
 10
392.4938874712621
 20
751.7212592896799
 10
393.5432109028221
 20
751.17094744557
  0
TEXT
  5
9D5
330
A
100
AcDbEntity
  8
LEVEL001
 62
     6
370
    15
100
AcDbText
 10
407.9236224768221
 20
781.36679396254
 30
0.0
 40
9.0
  1
エンドキャップ
 41
0.8
100
AcDbText
  0
LINE
  5
9E2
330
A
100
AcDbEntity
  8
LEVEL001
  6
Continuous
 62
     6
370
    15
100
AcDbLine
 10
388.7316784869221
 20
478.36216855657
 30
0.0
 11
406.968871249632
 21
478.36216855657
 31
0.0
  0
LINE
  5
9E3
330
A
100
AcDbEntity
  8
LEVEL001
  6
Continuous
 62
     6
370
    15
100
AcDbLine
 10
388.7316784869221
 20
500.36216855657
 30
0.0
 11
388.7316784869221
 21
475.36216855657
 31
0.0
  0
LINE
  5
9E4
330
A
100
AcDbEntity
  8
LEVEL001
  6
Continuous
 62
     6
370
    15
100
AcDbLine
 10
393.7316784869222
 20
500.36216855657
 30
0.0
 11
393.7316784869222
 21
475.36216855657
 31
0.0
  0
CIRCLE
  5
9E5
330
A
100
AcDbEntity
  8
LEVEL001
  6
Continuous
 62
     6
370
    15
100
AcDbCircle
 10
388.7316784869221
 20
478.36216855657
 30
0.0
 40
0.6
  0
CIRCLE
  5
9E6
330
A
100
AcDbEntity
  8
LEVEL001
  6
Continuous
 62
     6
370
    15
100
AcDbCircle
 10
393.7316784869222
 20
478.36216855657
 30
0.0
 40
0.6
  0
TEXT
  5
9E7
330
A
100
AcDbEntity
  8
LEVEL001
 62
     6
370
    15
100
AcDbText
 10
397.968871249632
 20
479.86216855657
 30
0.0
 40
9.0
  1
５
 41
0.8
100
AcDbText
  0
LINE
  5
9E8
330
A
100
AcDbEntity
  8
LEVEL001
  6
Continuous
 62
     6
370
    15
100
AcDbLine
 10
373.7316784869221
 20
453.36216855657
 30
0.0
 11
393.7316784869222
 21
453.36216855657
 31
0.0
  0
LINE
  5
9E9
330
A
100
AcDbEntity
  8
LEVEL001
  6
Continuous
 62
     6
370
    15
100
AcDbLine
 10
373.7316784869221
 20
500.36216855657
 30
0.0
 11
373.7316784869221
 21
450.36216855657
 31
0.0
  0
LINE
  5
9EA
330
A
100
AcDbEntity
  8
LEVEL001
  6
Continuous
 62
     6
370
    15
100
AcDbLine
 10
393.7316784869222
 20
475.36216855657
 30
0.0
 11
393.7316784869222
 21
450.36216855657
 31
0.0
  0
CIRCLE
  5
9EB
330
A
100
AcDbEntity
  8
LEVEL001
  6
Continuous
 62
     6
370
    15
100
AcDbCircle
 10
373.7316784869221
 20
453.36216855657
 30
0.0
 40
0.6
  0
CIRCLE
  5
9EC
330
A
100
AcDbEntity
  8
LEVEL001
  6
Continuous
 62
     6
370
    15
100
AcDbCircle
 10
393.7316784869222
 20
453.36216855657
 30
0.0
 40
0.6
  0
TEXT
  5
9ED
330
A
100
AcDbEntity
  8
LEVEL001
 62
     6
370
    15
100
AcDbText
 10
375.4816784869221
 20
454.86216855657
 30
0.0
 40
9.0
  1
２０
 41
0.8
100
AcDbText
  0
LINE
  5
A11
330
A
100
AcDbEntity
  8
LEVEL001
  6
Continuous
 62
     6
370
    15
100
AcDbLine
 10
293.7316784869221
 20
683.3621685565701
 30
0.0
 11
170.7605019094421
 21
683.3621685565701
 31
0.0
  0
CIRCLE
  5
A12
330
A
100
AcDbEntity
  8
LEVEL001
  6
Continuous
 62
     6
370
    15
100
AcDbCircle
 10
293.7316784869221
 20
683.3621685565701
 30
0.0
 40
0.6
  0
LWPOLYLINE
  5
A13
330
A
100
AcDbEntity
  8
LEVEL001
  6
Continuous
 62
     6
370
    15
100
AcDbPolyline
 90
        4
 70
     0
 43
0.0
 10
175.2605019094421
 20
682.7697323174199
 10
170.7605019094421
 20
683.3621685565701
 10
175.2605019094421
 20
683.9546047957099
 10
175.2605019094421
 20
682.7697323174199
  0
TEXT
  5
A19
330
A
100
AcDbEntity
  8
LEVEL001
 62
     6
370
    15
100
AcDbText
 10
212.7460901981821
 20
684.86216855657
 30
0.0
 40
9.0
  1
＠≦８００
 41
0.8
100
AcDbText
  0
HATCH
  5
10C3
330
A
100
AcDbEntity
  8
0
  6
Continuous
100
AcDbHatch
 10
0.0
 20
0.0
 30
0.0
210
0.0
220
0.0
230
1.0
  2
SOLID
 70
     1
 71
     1
 91
        9
 92
        7
 72
     0
 73
     1
 93
        6
 10
973.3500000001299
 20
841.42500000001
 10
957.15000000013
 20
841.42500000001
 10
937.95000000013
 20
812.62500000001
 10
957.15000000013
 20
783.82500000001
 10
973.3500000001299
 20
783.82500000001
 10
954.1500000001301
 20
812.62500000001
 97
        4
330
13A
330
135
330
140
330
13B
 92
        7
 72
     0
 73
     1
 93
        6
 10
997.6500000001299
 20
841.42500000001
 10
981.45000000013
 20
841.42500000001
 10
962.2500000001299
 20
812.62500000001
 10
981.45000000013
 20
783.82500000001
 10
997.6500000001299
 20
783.82500000001
 10
978.4500000001299
 20
812.62500000001
 97
        4
330
146
330
141
330
14C
330
147
 92
        7
 72
     0
 73
     1
 93
        3
 10
1000.0500000001
 20
812.62500000001
 10
986.5500000001301
 20
812.62500000001
 10
1000.0500000001
 20
791.0250000000099
 97
        2
330
120
330
118
 92
        7
 72
     1
 73
     1
 93
        6
 10
1032.4500000001
 20
816.2250000000099
 42
0.0
 10
1010.8500000001
 20
816.2250000000099
 42
0.0
 10
1010.8500000001
 20
783.82500000001
 42
0.0
 10
1021.6500000001
 20
783.82500000001
 42
0.0
 10
1021.6500000001
 20
789.22500000001
 42
0.0
 10
1032.4500000001
 20
789.22500000001
 42
1.0
 97
        3
330
ED
330
B1
330
EC
 92
       22
 72
     1
 73
     1
 93
        4
 10
1032.4500000001
 20
805.42500000001
 42
-1.0
 10
1032.4500000001
 20
800.02500000001
 42
0.0
 10
1021.6500000001
 20
800.02500000001
 42
0.0
 10
1021.6500000001
 20
805.4250000000099
 42
0.0
 97
        4
330
F0
330
EF
330
EE
330
F1
 92
        7
 72
     0
 73
     1
 93
        4
 10
1075.6500000001
 20
816.2250000000099
 10
1059.4500000001
 20
816.2250000000099
 10
1037.8500000001
 20
783.82500000001
 10
1054.0500000001
 20
783.82500000001
 97
        2
330
BE
330
F4
 92
       23
 72
     0
 73
     1
 93
        3
 10
1072.0500000001
 20
804.3350077041701
 10
1058.3766615307
 20
783.82500000001
 10
1072.0500000001
 20
783.82500000001
 97
        2
330
F7
330
DA
 92
        7
 72
     0
 73
     1
 93
       22
 10
1113.4500000001
 20
805.4250000000099
 10
1124.2500000001
 20
805.4250000000099
 10
1124.2500000001
 20
783.82500000001
 10
1156.6500000001
 20
783.82500000001
 10
1156.6500000001
 20
794.62500000001
 10
1135.0500000001
 20
794.62500000001
 10
1135.0500000001
 20
797.32500000001
 10
1153.9500000001
 20
797.32500000001
 10
1153.9500000001
 20
802.7250000000099
 10
1135.0500000001
 20
802.7250000000099
 10
1135.0500000001
 20
805.4250000000099
 10
1156.6500000001
 20
805.4250000000099
 10
1156.6500000001
 20
816.2250000000099
 10
1091.8500000001
 20
816.2250000000099
 10
1091.8500000001
 20
805.4250000000099
 10
1102.6500000001
 20
805.4250000000099
 10
1102.6500000001
 20
794.62500000001
 10
1086.4500000001
 20
794.62500000001
 10
1086.4500000001
 20
816.2250000000099
 10
1075.6500000001
 20
816.2250000000099
 10
1075.6500000001
 20
783.82500000001
 10
1113.4500000001
 20
783.82500000001
 97
        2
330
BE
330
F9
 92
        7
 72
     1
 73
     1
 93
        8
 10
1189.0500000001
 20
794.62500000001
 42
0.0
 10
1172.8500000001
 20
794.62500000001
 42
-1.0
 10
1172.8500000001
 20
805.4250000000099
 42
0.0
 10
1189.0500000001
 20
805.4250000000099
 42
0.0
 10
1189.0500000001
 20
816.2250000000099
 42
0.0
 10
1172.8500000001
 20
816.2250000000099
 42
1.0
 10
1172.8500000001
 20
783.8250000000099
 42
0.0
 10
1189.0500000001
 20
783.82500000001
 42
0.0
 97
        7
330
111
330
112
330
113
330
E2
330
116
330
10F
330
110
 75
     1
 76
     1
 47
0.3153180028147857
 98
        9
 10
957.3677193725707
 20
827.9564372240365
 10
980.7184326402293
 20
826.3798491543584
 10
993.655988631457
 20
809.6679960123438
 10
1030.259811922324
 20
809.3526748341483
 10
1030.259811922324
 20
809.3526748341483
 10
1056.134923904781
 20
797.3705903564924
 10
1066.863626827931
 20
790.4335957213898
 10
1085.481088312715
 20
789.4876410974538
 10
1171.310736853697
 20
791.6948670681977
1001
GradientColor1ACI
1070
     5
1001
GradientColor2ACI
1070
     2
1001
ACAD
1010
0.0
1020
0.0
1030
0.0
  0
ENDSEC
  0
SECTION
  2
OBJECTS
  0
DICTIONARY
  5
40
330
0
100
AcDbDictionary
281
     1
  3
ACAD_CIP_PREVIOUS_PRODUCT_INFO
350
1078
  3
ACAD_COLOR
350
A95
  3
ACAD_GROUP
350
41
  3
ACAD_LAYOUT
350
A98
  3
ACAD_MATERIAL
350
A94
  3
ACAD_MLEADERSTYLE
350
1073
  3
ACAD_MLINESTYLE
350
42
  3
ACAD_PLOTSETTINGS
350
A99
  3
ACAD_PLOTSTYLENAME
350
A92
  3
ACAD_SCALELIST
350
1061
  3
ACAD_TABLESTYLE
350
A96
  3
ACAD_VISUALSTYLE
350
1048
  3
ACDB_RECOMPOSE_DATA
350
1173
  3
AcDbVariableDictionary
350
AAF
  3
DWGPROPS
350
1174
  0
DICTIONARY
  5
ED9
330
6B
100
AcDbDictionary
280
     1
281
     1
  3
ACAD_LAYERSTATES
360
EDA
  0
DICTIONARY
  5
1110
330
38
100
AcDbDictionary
280
     1
281
     1
  3
ADSK_XREC_LAYER_RECONCILED
360
1111
  0
DICTIONARY
  5
1112
330
39
100
AcDbDictionary
280
     1
281
     1
  3
ADSK_XREC_LAYER_RECONCILED
360
1113
  0
DICTIONARY
  5
1025
330
A
100
AcDbDictionary
280
     1
281
     1
  3
ACAD_SORTENTS
360
1026
  0
XRECORD
  5
1078
102
{ACAD_REACTORS
330
40
102
}
330
40
100
AcDbXrecord
280
     1
300
ACDLT
300
2012
300
ACDLT_F_S
  0
DICTIONARY
  5
A95
102
{ACAD_REACTORS
330
40
102
}
330
40
100
AcDbDictionary
281
     1
  0
DICTIONARY
  5
41
102
{ACAD_REACTORS
330
40
102
}
330
0
100
AcDbDictionary
281
     1
  0
DICTIONARY
  5
A98
102
{ACAD_REACTORS
330
40
102
}
330
40
100
AcDbDictionary
281
     1
  3
Model
350
A9A
  3
レイアウト1
350
A9B
  0
DICTIONARY
  5
A94
102
{ACAD_REACTORS
330
40
102
}
330
40
100
AcDbDictionary
281
     1
  3
ByBlock
350
1038
  3
ByLayer
350
1030
  3
Global
350
1040
  0
DICTIONARY
  5
1073
102
{ACAD_REACTORS
330
40
102
}
330
40
100
AcDbDictionary
281
     1
  3
Standard
350
1074
  0
DICTIONARY
  5
42
102
{ACAD_REACTORS
330
40
102
}
330
0
100
AcDbDictionary
281
     1
  3
STANDARD
350
43
  0
DICTIONARY
  5
A99
102
{ACAD_REACTORS
330
40
102
}
330
40
100
AcDbDictionary
281
     1
  0
ACDBDICTIONARYWDFLT
  5
A92
102
{ACAD_REACTORS
330
40
102
}
330
40
100
AcDbDictionary
281
     1
  3
Normal
350
A93
100
AcDbDictionaryWithDefault
340
A93
  0
DICTIONARY
  5
1061
102
{ACAD_REACTORS
330
40
102
}
330
40
100
AcDbDictionary
281
     1
  3
A0
350
1062
  3
A1
350
1063
  3
A2
350
1064
  3
A3
350
1065
  3
A4
350
1066
  3
A5
350
1067
  3
A6
350
1068
  3
A7
350
1069
  3
A8
350
106A
  3
A9
350
106B
  3
B0
350
106C
  3
B1
350
106D
  3
B2
350
106E
  3
B3
350
106F
  3
B4
350
1070
  3
B5
350
1071
  3
B6
350
1072
  0
DICTIONARY
  5
A96
102
{ACAD_REACTORS
330
40
102
}
330
40
100
AcDbDictionary
281
     1
  3
Standard
350
A97
  0
DICTIONARY
  5
1048
102
{ACAD_REACTORS
330
40
102
}
330
40
100
AcDbDictionary
281
     1
  3
2dWireframe
350
104E
  3
Basic
350
104D
  3
Brighten
350
1054
  3
ColorChange
350
1058
  3
Conceptual
350
1051
  3
Dim
350
1053
  3
EdgeColorOff
350
1060
  3
Facepattern
350
1057
  3
Flat
350
1049
  3
FlatWithEdges
350
104A
  3
Gouraud
350
104B
  3
GouraudWithEdges
350
104C
  3
Hidden
350
1050
  3
JitterOff
350
105E
  3
Linepattern
350
1056
  3
OverhangOff
350
105F
  3
Realistic
350
1052
  3
Shaded
350
105D
  3
Shaded with edges
350
105C
  3
Shades of Gray
350
1059
  3
Sketchy
350
105A
  3
Thicken
350
1055
  3
Wireframe
350
104F
  3
X-Ray
350
105B
  0
XRECORD
  5
1173
102
{ACAD_REACTORS
330
40
102
}
330
40
100
AcDbXrecord
280
     1
 90
        1
330
A97
  0
DICTIONARY
  5
AAF
102
{ACAD_REACTORS
330
40
102
}
330
40
100
AcDbDictionary
281
     1
  3
CANNOSCALE
350
116B
  3
CMLEADERSTYLE
350
116A
  3
CTABLESTYLE
350
AB0
  3
DIMASSOC
350
AB1
  3
INDEXCTL
350
116D
  3
PROJECTNAME
350
AB2
  3
SORTENTS
350
116C
  3
XCLIPFRAME
350
116E
  0
XRECORD
  5
1174
102
{ACAD_REACTORS
330
40
102
}
330
40
100
AcDbXrecord
280
     1
  1
DWGPROPS COOKIE
  2

  3

  4

  6

  7

  8
kg-paltec
  9

300
=
301
=
302
=
303
=
304
=
305
=
306
=
307
=
308
=
309
=
 40
0.0819488773148148
 41
2451212.682759178
 42
2458321.593409074
  1

 90
        0
  0
DICTIONARY
  5
EDA
102
{ACAD_REACTORS
330
ED9
102
}
330
ED9
100
AcDbDictionary
281
     1
  0
XRECORD
  5
1111
102
{ACAD_REACTORS
330
1110
102
}
330
1110
100
AcDbXrecord
280
     1
290
     1
  0
XRECORD
  5
1113
102
{ACAD_REACTORS
330
1112
102
}
330
1112
100
AcDbXrecord
280
     1
290
     1
  0
SORTENTSTABLE
  5
1026
102
{ACAD_REACTORS
330
1025
102
}
330
1025
100
AcDbSortentsTable
330
A
331
35D
  5
366
331
970
  5
99A
331
971
  5
99B
331
9C8
  5
9E9
331
972
  5
99C
331
9E8
  5
A3A
331
9C9
  5
9EA
331
973
  5
99D
331
9E9
  5
A3B
331
9CA
  5
9EB
331
9AB
  5
9C9
331
974
  5
99E
331
9EA
  5
A40
331
9AC
  5
9CA
331
975
  5
99F
331
9EB
  5
A46
331
976
  5
9A0
331
9EC
  5
A47
331
9ED
  5
A4C
331
9CF
  5
9EC
331
B0
  5
B0
331
9B1
  5
9CF
331
E0
  5
EB
331
B1
  5
BB
331
100
  5
106
331
E1
  5
EC
331
A11
  5
A52
331
95D
  5
96D
331
120
  5
141
331
101
  5
107
331
E2
  5
ED
331
A12
  5
A53
331
995
  5
9A5
331
95E
  5
96E
331
140
  5
151
331
121
  5
146
331
102
  5
108
331
A13
  5
A58
331
996
  5
9AB
331
95F
  5
96F
331
141
  5
152
331
103
  5
109
331
9D5
  5
9ED
331
997
  5
9AC
331
960
  5
970
331
178
  5
181
331
104
  5
10A
331
9B7
  5
9D5
331
998
  5
9B1
331
961
  5
971
331
1B0
  5
1B9
331
179
  5
182
331
105
  5
10B
331
9B8
  5
9E2
331
999
  5
9B7
331
962
  5
972
331
1D0
  5
1D9
331
1B1
  5
1BA
331
17A
  5
183
331
106
  5
10C
331
99A
  5
9B8
331
963
  5
973
331
1E8
  5
1F1
331
1D1
  5
1DA
331
1B2
  5
1BB
331
17B
  5
184
331
126
  5
147
331
107
  5
10D
331
E8
  5
EE
331
B9
  5
BC
331
99B
  5
9BD
331
964
  5
974
331
208
  5
211
331
1E9
  5
1F2
331
1D2
  5
1DB
331
1B3
  5
1BC
331
17C
  5
185
331
15D
  5
166
331
146
  5
153
331
108
  5
10E
331
E9
  5
EF
331
BA
  5
BD
331
A19
  5
A5E
331
9E2
  5
A11
331
99C
  5
9C3
331
228
  5
231
331
209
  5
212
331
1EA
  5
1F3
331
1D3
  5
1DC
331
1B4
  5
1BD
331
17D
  5
186
331
15E
  5
167
331
147
  5
154
331
109
  5
10F
331
EA
  5
F0
331
BB
  5
BE
331
9E3
  5
A12
331
99D
  5
9C4
331
248
  5
251
331
229
  5
232
331
20A
  5
213
331
1EB
  5
1F4
331
1D4
  5
1DD
331
1B5
  5
1BE
331
17E
  5
187
331
15F
  5
168
331
10A
  5
110
331
EB
  5
F1
331
BC
  5
DA
331
9E4
  5
A13
331
9BD
  5
9E3
331
99E
  5
9C5
331
2D8
  5
2E2
331
249
  5
252
331
22A
  5
233
331
20B
  5
214
331
1EC
  5
1F5
331
1D5
  5
1DE
331
1B6
  5
1BF
331
17F
  5
188
331
160
  5
169
331
10B
  5
111
331
BD
  5
E8
331
EC
  5
F2
331
9E5
  5
A19
331
99F
  5
9C6
331
2D9
  5
2E3
331
24A
  5
253
331
22B
  5
234
331
20C
  5
215
331
1ED
  5
1F6
331
1D6
  5
1DF
331
1B7
  5
1C0
331
180
  5
189
331
161
  5
16A
331
12B
  5
14C
331
10C
  5
112
331
ED
  5
F3
331
BE
  5
E9
331
9E6
  5
A2F
331
9A0
  5
9C7
331
969
  5
975
331
318
  5
326
331
2DA
  5
2E4
331
24B
  5
2D1
331
22C
  5
235
331
20D
  5
216
331
1EE
  5
1F7
331
1D7
  5
1E0
331
1B8
  5
1C1
331
181
  5
18A
331
162
  5
16B
331
10D
  5
113
331
EE
  5
F4
331
9E7
  5
A34
331
96A
  5
976
331
338
  5
345
331
2FA
  5
31E
331
2DB
  5
2E5
331
24C
  5
2D2
331
22D
  5
236
331
20E
  5
217
331
1EF
  5
1F8
331
1D8
  5
1E1
331
1B9
  5
1C2
331
182
  5
18B
331
163
  5
16C
331
10E
  5
114
331
EF
  5
F5
331
14C
  5
155
331
96B
  5
995
331
339
  5
346
331
2DC
  5
2E6
331
24D
  5
2D3
331
22E
  5
237
331
20F
  5
218
331
1F0
  5
1F9
331
1D9
  5
1E2
331
1BA
  5
1C3
331
183
  5
18C
331
164
  5
16E
331
10F
  5
115
331
14D
  5
156
331
F0
  5
F6
331
96C
  5
996
331
33A
  5
347
331
24E
  5
2D4
331
22F
  5
238
331
210
  5
219
331
1F1
  5
1FA
331
1DA
  5
1E3
331
1BB
  5
1C4
331
184
  5
1AD
331
165
  5
16F
331
14E
  5
15D
331
110
  5
116
331
F1
  5
F7
331
DA
  5
EA
331
9C3
  5
9E4
331
96D
  5
997
331
33B
  5
348
331
2DE
  5
2E7
331
24F
  5
2D5
331
230
  5
239
331
211
  5
21A
331
1F2
  5
1FB
331
1DB
  5
1E4
331
1BC
  5
1C5
331
185
  5
1AE
331
166
  5
170
331
130
  5
14D
331
14F
  5
15E
331
F2
  5
F8
331
111
  5
117
331
9C4
  5
9E5
331
9A5
  5
9C8
331
96E
  5
998
331
33C
  5
349
331
2DF
  5
2E8
331
250
  5
2D6
331
231
  5
23A
331
212
  5
21B
331
1F3
  5
1FC
331
1DC
  5
1E5
331
1BD
  5
1C6
331
186
  5
1AF
331
167
  5
173
331
112
  5
11E
331
F3
  5
F9
331
150
  5
15F
331
9C5
  5
9E6
331
96F
  5
999
331
33D
  5
34A
331
31E
  5
327
331
2FF
  5
31F
331
2E0
  5
2ED
331
251
  5
2D7
331
232
  5
23B
331
213
  5
21C
331
1F4
  5
1FD
331
1DD
  5
1E6
331
1BE
  5
1C7
331
187
  5
1B0
331
151
  5
160
331
113
  5
11F
331
F4
  5
FA
331
168
  5
174
331
9C6
  5
9E7
331
10C3
  5
B9
331
33E
  5
34B
331
31F
  5
328
331
2E1
  5
2EE
331
252
  5
2D8
331
233
  5
23C
331
214
  5
21D
331
1F5
  5
1FE
331
1DE
  5
1E7
331
1BF
  5
1C8
331
188
  5
1B1
331
169
  5
175
331
114
  5
120
331
F5
  5
FB
331
152
  5
161
331
9C7
  5
9E8
331
33F
  5
34C
331
320
  5
329
331
2E2
  5
2EF
331
253
  5
2D9
331
234
  5
23D
331
215
  5
21E
331
1F6
  5
1FF
331
1DF
  5
1E8
331
1C0
  5
1C9
331
189
  5
1B2
331
153
  5
162
331
115
  5
126
331
F6
  5
FC
331
16A
  5
176
331
340
  5
34D
331
321
  5
32A
331
2E3
  5
2F5
331
235
  5
23E
331
216
  5
21F
331
1F7
  5
200
331
1E0
  5
1E9
331
1C1
  5
1CA
331
18A
  5
1B3
331
16B
  5
177
331
154
  5
163
331
116
  5
12B
331
F7
  5
FD
331
A9
  5
A9
331
135
  5
14E
331
322
  5
32F
331
2E4
  5
2FA
331
236
  5
243
331
217
  5
220
331
1F8
  5
201
331
1E1
  5
1EA
331
1C2
  5
1CB
331
18B
  5
1B4
331
16C
  5
178
331
155
  5
164
331
117
  5
135
331
F8
  5
FE
331
323
  5
330
331
2E5
  5
2FF
331
237
  5
244
331
218
  5
221
331
1F9
  5
202
331
1E2
  5
1EB
331
1C3
  5
1CC
331
18C
  5
1B5
331
156
  5
165
331
118
  5
13A
331
F9
  5
FF
331
324
  5
331
331
305
  5
320
331
2E6
  5
305
331
238
  5
245
331
219
  5
222
331
1FA
  5
203
331
1E3
  5
1EC
331
1C4
  5
1CD
331
16E
  5
179
331
FA
  5
100
331
325
  5
332
331
306
  5
321
331
2E7
  5
306
331
239
  5
246
331
21A
  5
223
331
1FB
  5
204
331
1E4
  5
1ED
331
1C5
  5
1CE
331
16F
  5
17A
331
FB
  5
101
331
345
  5
34E
331
326
  5
333
331
307
  5
322
331
2E8
  5
307
331
2D1
  5
2DA
331
23A
  5
247
331
21B
  5
224
331
1FC
  5
205
331
1E5
  5
1EE
331
1C6
  5
1CF
331
170
  5
17B
331
13A
  5
14F
331
FC
  5
102
331
346
  5
353
331
327
  5
334
331
308
  5
323
331
2D2
  5
2DB
331
23B
  5
248
331
21C
  5
225
331
1FD
  5
206
331
1E6
  5
1EF
331
1C7
  5
1D0
331
13B
  5
150
331
FD
  5
103
331
347
  5
354
331
328
  5
335
331
2D3
  5
2DC
331
23C
  5
249
331
21D
  5
226
331
1FE
  5
207
331
1E7
  5
1F0
331
1C8
  5
1D1
331
FE
  5
104
331
348
  5
355
331
329
  5
336
331
2D4
  5
2DE
331
23D
  5
24A
331
21E
  5
227
331
1FF
  5
208
331
1C9
  5
1D2
331
173
  5
17C
331
11E
  5
13B
331
FF
  5
105
331
349
  5
35D
331
32A
  5
337
331
2D5
  5
2DF
331
23E
  5
24B
331
21F
  5
228
331
200
  5
209
331
1CA
  5
1D3
331
174
  5
17D
331
11F
  5
140
331
34A
  5
35E
331
2ED
  5
308
331
2D6
  5
2E0
331
220
  5
229
331
201
  5
20A
331
1CB
  5
1D4
331
175
  5
17E
331
34B
  5
35F
331
2EE
  5
30E
331
2D7
  5
2E1
331
221
  5
22A
331
202
  5
20B
331
1CC
  5
1D5
331
1AD
  5
1B6
331
176
  5
17F
331
34C
  5
360
331
30E
  5
324
331
2EF
  5
313
331
222
  5
22B
331
203
  5
20C
331
1CD
  5
1D6
331
1AE
  5
1B7
331
177
  5
180
331
34D
  5
361
331
223
  5
22C
331
204
  5
20D
331
1CE
  5
1D7
331
1AF
  5
1B8
331
34E
  5
362
331
32F
  5
338
331
243
  5
24C
331
224
  5
22D
331
205
  5
20E
331
1CF
  5
1D8
331
330
  5
339
331
244
  5
24D
331
225
  5
22E
331
206
  5
20F
331
331
  5
33A
331
245
  5
24E
331
226
  5
22F
331
207
  5
210
331
332
  5
33B
331
313
  5
325
331
246
  5
24F
331
227
  5
230
331
333
  5
33C
331
2F5
  5
318
331
247
  5
250
331
334
  5
33D
331
353
  5
363
331
335
  5
33E
331
354
  5
364
331
336
  5
33F
331
337
  5
340
  0
LAYOUT
  5
A9A
102
{ACAD_XDICTIONARY
360
111B
102
}
102
{ACAD_REACTORS
330
A98
102
}
330
A98
100
AcDbPlotSettings
  1

  2
クセロPDF2
  4

  6

 40
0.0
 41
0.0
 42
0.0
 43
0.0
 44
0.0
 45
0.0
 46
0.0
 47
0.0
 48
0.0
 49
0.0
140
0.0
141
0.0
142
1.0
143
1.0
 70
  1712
 72
     0
 73
     0
 74
     0
  7

 75
     0
147
1.0
148
0.0
149
0.0
100
AcDbLayout
  1
Model
 70
     1
 71
     0
 10
0.0
 20
0.0
 11
12.0
 21
9.0
 12
0.0
 22
0.0
 32
0.0
 14
0.0
 24
0.0
 34
0.0
 15
0.0
 25
0.0
 35
0.0
146
0.0
 13
0.0
 23
0.0
 33
0.0
 16
1.0
 26
0.0
 36
0.0
 17
0.0
 27
1.0
 37
0.0
 76
     0
330
A
331
1029
  0
LAYOUT
  5
A9B
102
{ACAD_XDICTIONARY
360
1177
102
}
102
{ACAD_REACTORS
330
A98
102
}
330
A98
100
AcDbPlotSettings
  1

  2
クセロPDF2
  4

  6

 40
0.0
 41
0.0
 42
0.0
 43
0.0
 44
0.0
 45
0.0
 46
0.0
 47
0.0
 48
0.0
 49
0.0
140
0.0
141
0.0
142
1.0
143
1.0
 70
   688
 72
     0
 73
     0
 74
     5
  7

 75
    16
147
1.0
148
0.0
149
0.0
100
AcDbLayout
  1
レイアウト1
 70
     1
 71
     1
 10
0.0
 20
0.0
 11
12.0
 21
9.0
 12
0.0
 22
0.0
 32
0.0
 14
1.000000000000000E+20
 24
1.000000000000000E+20
 34
1.000000000000000E+20
 15
-1.000000000000000E+20
 25
-1.000000000000000E+20
 35
-1.000000000000000E+20
146
0.0
 13
0.0
 23
0.0
 33
0.0
 16
1.0
 26
0.0
 36
0.0
 17
0.0
 27
1.0
 37
0.0
 76
     0
330
B
  0
MATERIAL
  5
1038
102
{ACAD_XDICTIONARY
360
1039
102
}
102
{ACAD_REACTORS
330
A94
102
}
330
A94
100
AcDbMaterial
  1
ByBlock
 72
     0
 43
0.0208333333333333
 43
0.0
 43
0.0
 43
0.0
 43
0.0
 43
0.0208333333333333
 43
0.0
 43
0.0
 43
0.0
 43
0.0
 43
1.0
 43
0.0
 43
0.0
 43
0.0
 43
0.0
 43
1.0
 77
     0
 47
0.0208333333333333
 47
0.0
 47
0.0
 47
0.0
 47
0.0
 47
0.0208333333333333
 47
0.0
 47
0.0
 47
0.0
 47
0.0
 47
1.0
 47
0.0
 47
0.0
 47
0.0
 47
0.0
 47
1.0
171
     0
 49
0.0208333333333333
 49
0.0
 49
0.0
 49
0.0
 49
0.0
 49
0.0208333333333333
 49
0.0
 49
0.0
 49
0.0
 49
0.0
 49
1.0
 49
0.0
 49
0.0
 49
0.0
 49
0.0
 49
1.0
175
     0
142
0.0208333333333333
142
0.0
142
0.0
142
0.0
142
0.0
142
0.0208333333333333
142
0.0
142
0.0
142
0.0
142
0.0
142
1.0
142
0.0
142
0.0
142
0.0
142
0.0
142
1.0
179
     0
144
0.0208333333333333
144
0.0
144
0.0
144
0.0
144
0.0
144
0.0208333333333333
144
0.0
144
0.0
144
0.0
144
0.0
144
1.0
144
0.0
144
0.0
144
0.0
144
0.0
144
1.0
147
0.0208333333333333
147
0.0
147
0.0
147
0.0
147
0.0
147
0.0208333333333333
147
0.0
147
0.0
147
0.0
147
0.0
147
1.0
147
0.0
147
0.0
147
0.0
147
0.0
147
1.0
  0
MATERIAL
  5
1030
102
{ACAD_XDICTIONARY
360
1031
102
}
102
{ACAD_REACTORS
330
A94
102
}
330
A94
100
AcDbMaterial
  1
ByLayer
 72
     0
 43
0.0208333333333333
 43
0.0
 43
0.0
 43
0.0
 43
0.0
 43
0.0208333333333333
 43
0.0
 43
0.0
 43
0.0
 43
0.0
 43
1.0
 43
0.0
 43
0.0
 43
0.0
 43
0.0
 43
1.0
 77
     0
 47
0.0208333333333333
 47
0.0
 47
0.0
 47
0.0
 47
0.0
 47
0.0208333333333333
 47
0.0
 47
0.0
 47
0.0
 47
0.0
 47
1.0
 47
0.0
 47
0.0
 47
0.0
 47
0.0
 47
1.0
171
     0
 49
0.0208333333333333
 49
0.0
 49
0.0
 49
0.0
 49
0.0
 49
0.0208333333333333
 49
0.0
 49
0.0
 49
0.0
 49
0.0
 49
1.0
 49
0.0
 49
0.0
 49
0.0
 49
0.0
 49
1.0
175
     0
142
0.0208333333333333
142
0.0
142
0.0
142
0.0
142
0.0
142
0.0208333333333333
142
0.0
142
0.0
142
0.0
142
0.0
142
1.0
142
0.0
142
0.0
142
0.0
142
0.0
142
1.0
179
     0
144
0.0208333333333333
144
0.0
144
0.0
144
0.0
144
0.0
144
0.0208333333333333
144
0.0
144
0.0
144
0.0
144
0.0
144
1.0
144
0.0
144
0.0
144
0.0
144
0.0
144
1.0
147
0.0208333333333333
147
0.0
147
0.0
147
0.0
147
0.0
147
0.0208333333333333
147
0.0
147
0.0
147
0.0
147
0.0
147
1.0
147
0.0
147
0.0
147
0.0
147
0.0
147
1.0
  0
MATERIAL
  5
1040
102
{ACAD_XDICTIONARY
360
1041
102
}
102
{ACAD_REACTORS
330
A94
102
}
330
A94
100
AcDbMaterial
  1
Global
 72
     0
 43
0.0208333333333333
 43
0.0
 43
0.0
 43
0.0
 43
0.0
 43
0.0208333333333333
 43
0.0
 43
0.0
 43
0.0
 43
0.0
 43
1.0
 43
0.0
 43
0.0
 43
0.0
 43
0.0
 43
1.0
 77
     0
 47
0.0208333333333333
 47
0.0
 47
0.0
 47
0.0
 47
0.0
 47
0.0208333333333333
 47
0.0
 47
0.0
 47
0.0
 47
0.0
 47
1.0
 47
0.0
 47
0.0
 47
0.0
 47
0.0
 47
1.0
171
     0
 49
0.0208333333333333
 49
0.0
 49
0.0
 49
0.0
 49
0.0
 49
0.0208333333333333
 49
0.0
 49
0.0
 49
0.0
 49
0.0
 49
1.0
 49
0.0
 49
0.0
 49
0.0
 49
0.0
 49
1.0
175
     0
142
0.0208333333333333
142
0.0
142
0.0
142
0.0
142
0.0
142
0.0208333333333333
142
0.0
142
0.0
142
0.0
142
0.0
142
1.0
142
0.0
142
0.0
142
0.0
142
0.0
142
1.0
179
     0
144
0.0208333333333333
144
0.0
144
0.0
144
0.0
144
0.0
144
0.0208333333333333
144
0.0
144
0.0
144
0.0
144
0.0
144
1.0
144
0.0
144
0.0
144
0.0
144
0.0
144
1.0
147
0.0208333333333333
147
0.0
147
0.0
147
0.0
147
0.0
147
0.0208333333333333
147
0.0
147
0.0
147
0.0
147
0.0
147
1.0
147
0.0
147
0.0
147
0.0
147
0.0
147
1.0
  0
MLEADERSTYLE
  5
1074
102
{ACAD_XDICTIONARY
360
1171
102
}
102
{ACAD_REACTORS
330
1073
102
}
330
1073
100
AcDbMLeaderStyle
170
     2
171
     1
172
     0
 90
        2
 40
0.0
 41
0.0
173
     1
 91
-1056964608
340
1D
 92
       -2
290
     1
 42
0.09
291
     1
 43
0.36
  3
Standard
 44
0.18
300

342
7
174
     1
178
     6
175
     1
176
     0
 93
-1056964608
 45
0.18
292
     0
297
     0
 46
0.18
 94
-1056964608
 47
1.0
 49
1.0
140
1.0
293
     1
141
0.0
294
     1
177
     0
142
1.0
295
     0
296
     0
143
0.125
1001
ACAD_MLEADERVER
1070
     2
  0
MLINESTYLE
  5
43
102
{ACAD_REACTORS
330
42
102
}
330
0
100
AcDbMlineStyle
  2
STANDARD
 70
     0
  3

 62
   256
 51
90.0
 52
90.0
 71
     2
 49
0.5
 62
   256
  6
BYLAYER
 49
-0.5
 62
   256
  6
BYLAYER
  0
ACDBPLACEHOLDER
  5
A93
102
{ACAD_REACTORS
330
A92
102
}
330
A92
  0
SCALE
  5
1062
102
{ACAD_REACTORS
330
1061
102
}
330
1061
100
AcDbScale
 70
     0
300
1:1
140
1.0
141
1.0
290
     1
  0
SCALE
  5
1063
102
{ACAD_REACTORS
330
1061
102
}
330
1061
100
AcDbScale
 70
     0
300
1/128" = 1'-0"
140
0.0078125
141
12.0
290
     0
  0
SCALE
  5
1064
102
{ACAD_REACTORS
330
1061
102
}
330
1061
100
AcDbScale
 70
     0
300
1/64" = 1'-0"
140
0.015625
141
12.0
290
     0
  0
SCALE
  5
1065
102
{ACAD_REACTORS
330
1061
102
}
330
1061
100
AcDbScale
 70
     0
300
1/32" = 1'-0"
140
0.03125
141
12.0
290
     0
  0
SCALE
  5
1066
102
{ACAD_REACTORS
330
1061
102
}
330
1061
100
AcDbScale
 70
     0
300
1/16" = 1'-0"
140
0.0625
141
12.0
290
     0
  0
SCALE
  5
1067
102
{ACAD_REACTORS
330
1061
102
}
330
1061
100
AcDbScale
 70
     0
300
3/32" = 1'-0"
140
0.09375
141
12.0
290
     0
  0
SCALE
  5
1068
102
{ACAD_REACTORS
330
1061
102
}
330
1061
100
AcDbScale
 70
     0
300
1/8" = 1'-0"
140
0.125
141
12.0
290
     0
  0
SCALE
  5
1069
102
{ACAD_REACTORS
330
1061
102
}
330
1061
100
AcDbScale
 70
     0
300
3/16" = 1'-0"
140
0.1875
141
12.0
290
     0
  0
SCALE
  5
106A
102
{ACAD_REACTORS
330
1061
102
}
330
1061
100
AcDbScale
 70
     0
300
1/4" = 1'-0"
140
0.25
141
12.0
290
     0
  0
SCALE
  5
106B
102
{ACAD_REACTORS
330
1061
102
}
330
1061
100
AcDbScale
 70
     0
300
3/8" = 1'-0"
140
0.375
141
12.0
290
     0
  0
SCALE
  5
106C
102
{ACAD_REACTORS
330
1061
102
}
330
1061
100
AcDbScale
 70
     0
300
1/2" = 1'-0"
140
0.5
141
12.0
290
     0
  0
SCALE
  5
106D
102
{ACAD_REACTORS
330
1061
102
}
330
1061
100
AcDbScale
 70
     0
300
3/4" = 1'-0"
140
0.75
141
12.0
290
     0
  0
SCALE
  5
106E
102
{ACAD_REACTORS
330
1061
102
}
330
1061
100
AcDbScale
 70
     0
300
1" = 1'-0"
140
1.0
141
12.0
290
     0
  0
SCALE
  5
106F
102
{ACAD_REACTORS
330
1061
102
}
330
1061
100
AcDbScale
 70
     0
300
1-1/2" = 1'-0"
140
1.5
141
12.0
290
     0
  0
SCALE
  5
1070
102
{ACAD_REACTORS
330
1061
102
}
330
1061
100
AcDbScale
 70
     0
300
3" = 1'-0"
140
3.0
141
12.0
290
     0
  0
SCALE
  5
1071
102
{ACAD_REACTORS
330
1061
102
}
330
1061
100
AcDbScale
 70
     0
300
6" = 1'-0"
140
6.0
141
12.0
290
     0
  0
SCALE
  5
1072
102
{ACAD_REACTORS
330
1061
102
}
330
1061
100
AcDbScale
 70
     0
300
1'-0" = 1'-0"
140
12.0
141
12.0
290
     0
  0
TABLESTYLE
  5
A97
102
{ACAD_XDICTIONARY
360
116F
102
}
102
{ACAD_REACTORS
330
A96
102
}
330
A96
100
AcDbTableStyle
  3
Standard
 70
     0
 71
     0
 40
0.06
 41
0.06
280
     0
281
     0
  7
STANDARD
140
0.18
170
     2
 62
     0
 63
     7
283
     0
274
    -2
284
     1
 64
     0
275
    -2
285
     1
 65
     0
276
    -2
286
     1
 66
     0
277
    -2
287
     1
 67
     0
278
    -2
288
     1
 68
     0
279
    -2
289
     1
 69
     0
  7
STANDARD
140
0.25
170
     5
 62
     0
 63
     7
283
     0
274
    -2
284
     1
 64
     0
275
    -2
285
     1
 65
     0
276
    -2
286
     1
 66
     0
277
    -2
287
     1
 67
     0
278
    -2
288
     1
 68
     0
279
    -2
289
     1
 69
     0
  7
STANDARD
140
0.18
170
     5
 62
     0
 63
     7
283
     0
274
    -2
284
     1
 64
     0
275
    -2
285
     1
 65
     0
276
    -2
286
     1
 66
     0
277
    -2
287
     1
 67
     0
278
    -2
288
     1
 68
     0
279
    -2
289
     1
 69
     0
  0
VISUALSTYLE
  5
104E
102
{ACAD_XDICTIONARY
360
1186
102
}
102
{ACAD_REACTORS
330
1048
102
}
330
1048
100
AcDbVisualStyle
  2
2dWireframe
 70
     4
 71
     0
 72
     2
 73
     0
 90
        0
 40
-0.6
 41
-30.0
 62
     5
 63
     7
 74
     1
 91
        4
 64
     7
 65
   257
 75
     1
175
     1
 42
1.0
 92
        0
 66
   257
 43
1.0
 76
     1
 77
     6
 78
     2
 67
     7
 79
     5
170
     0
171
     0
290
     0
174
     0
 93
        1
 44
0.0
173
     0
291
     0
 45
0.0
1001
ACAD
1000
AcDbSavedByObjectVersion
1070
     0
  0
VISUALSTYLE
  5
104D
102
{ACAD_XDICTIONARY
360
1184
102
}
102
{ACAD_REACTORS
330
1048
102
}
330
1048
100
AcDbVisualStyle
  2
Basic
 70
     7
 71
     1
 72
     0
 73
     1
 90
        0
 40
-0.6
 41
-30.0
 62
     5
 63
     7
 74
     0
 91
        4
 64
     7
 65
   257
 75
     1
175
     1
 42
1.0
 92
        8
 66
     7
 43
1.0
 76
     1
 77
     6
 78
     2
 67
     7
 79
     5
170
     0
171
     0
290
     0
174
     0
 93
        1
 44
0.0
173
     0
291
     1
 45
0.0
1001
ACAD
1000
AcDbSavedByObjectVersion
1070
     0
  0
VISUALSTYLE
  5
1054
102
{ACAD_XDICTIONARY
360
1192
102
}
102
{ACAD_REACTORS
330
1048
102
}
330
1048
100
AcDbVisualStyle
  2
Brighten
 70
    12
 71
     2
 72
     2
 73
     0
 90
        0
 40
-0.6
 41
-30.0
 62
     5
 63
     7
 74
     1
 91
        4
 64
     7
 65
   257
 75
     1
175
     1
 42
1.0
 92
        8
 66
     7
 43
1.0
 76
     1
 77
     6
 78
     2
 67
     7
 79
     5
170
     0
171
     0
290
     0
174
     0
 93
        1
 44
50.0
173
     0
291
     1
 45
0.0
1001
ACAD
1000
AcDbSavedByObjectVersion
1070
     0
  0
VISUALSTYLE
  5
1058
102
{ACAD_XDICTIONARY
360
119A
102
}
102
{ACAD_REACTORS
330
1048
102
}
330
1048
100
AcDbVisualStyle
  2
ColorChange
 70
    16
 71
     2
 72
     2
 73
     3
 90
        0
 40
-0.6
 41
-30.0
 62
     5
 63
     8
 74
     1
 91
        4
 64
     7
 65
   257
 75
     1
175
     1
 42
1.0
 92
        8
 66
     8
 43
1.0
 76
     1
 77
     6
 78
     2
 67
     7
 79
     5
170
     0
171
     0
290
     0
174
     0
 93
        1
 44
0.0
173
     0
291
     1
 45
0.0
1001
ACAD
1000
AcDbSavedByObjectVersion
1070
     0
  0
VISUALSTYLE
  5
1051
102
{ACAD_XDICTIONARY
360
118C
102
}
102
{ACAD_REACTORS
330
1048
102
}
330
1048
100
AcDbVisualStyle
  2
Conceptual
 70
     9
 71
     3
 72
     2
 73
     0
 90
        0
 40
-0.6
 41
-30.0
 62
     5
 63
     7
 74
     2
 91
        2
 64
     7
 65
   257
 75
     1
175
     1
 42
179.0
 92
        8
 66
     7
 43
1.0
 76
     1
 77
     6
 78
     2
 67
     7
 79
     3
170
     0
171
     0
290
     0
174
     0
 93
        1
 44
0.0
173
     0
291
     0
 45
0.0
1001
ACAD
1000
AcDbSavedByObjectVersion
1070
     0
  0
VISUALSTYLE
  5
1053
102
{ACAD_XDICTIONARY
360
1190
102
}
102
{ACAD_REACTORS
330
1048
102
}
330
1048
100
AcDbVisualStyle
  2
Dim
 70
    11
 71
     2
 72
     2
 73
     0
 90
        0
 40
-0.6
 41
-30.0
 62
     5
 63
     7
 74
     1
 91
        4
 64
     7
 65
   257
 75
     1
175
     1
 42
1.0
 92
        8
 66
     7
 43
1.0
 76
     1
 77
     6
 78
     2
 67
     7
 79
     5
170
     0
171
     0
290
     0
174
     0
 93
        1
 44
-50.0
173
     0
291
     1
 45
0.0
1001
ACAD
1000
AcDbSavedByObjectVersion
1070
     0
  0
VISUALSTYLE
  5
1060
102
{ACAD_XDICTIONARY
360
11AA
102
}
102
{ACAD_REACTORS
330
1048
102
}
330
1048
100
AcDbVisualStyle
  2
EdgeColorOff
 70
    22
 71
     2
 72
     2
 73
     0
 90
        0
 40
-0.6
 41
-30.0
 62
     5
 63
     7
 74
     1
 91
        4
 64
     7
 65
   257
 75
     1
175
     1
 42
1.0
 92
        8
 66
     7
 43
1.0
 76
     1
 77
     6
 78
     2
 67
     7
 79
     5
170
     0
171
     0
290
     0
174
     0
 93
        1
 44
0.0
173
     0
291
     1
 45
0.0
1001
ACAD
1000
AcDbSavedByObjectVersion
1070
     0
  0
VISUALSTYLE
  5
1057
102
{ACAD_XDICTIONARY
360
1198
102
}
102
{ACAD_REACTORS
330
1048
102
}
330
1048
100
AcDbVisualStyle
  2
Facepattern
 70
    15
 71
     2
 72
     2
 73
     0
 90
        0
 40
-0.6
 41
-30.0
 62
     5
 63
     7
 74
     1
 91
        4
 64
     7
 65
   257
 75
     1
175
     1
 42
1.0
 92
        8
 66
     7
 43
1.0
 76
     1
 77
     6
 78
     2
 67
     7
 79
     5
170
     0
171
     0
290
     0
174
     0
 93
        1
 44
0.0
173
     0
291
     1
 45
0.0
1001
ACAD
1000
AcDbSavedByObjectVersion
1070
     0
  0
VISUALSTYLE
  5
1049
102
{ACAD_XDICTIONARY
360
117C
102
}
102
{ACAD_REACTORS
330
1048
102
}
330
1048
100
AcDbVisualStyle
  2
Flat
 70
     0
 71
     2
 72
     1
 73
     1
 90
        2
 40
-0.6
 41
30.0
 62
     5
 63
     7
 74
     0
 91
        0
 64
     7
 65
   257
 75
     1
175
     1
 42
1.0
 92
        8
 66
     7
 43
1.0
 76
     1
 77
     6
 78
     2
 67
     7
 79
     5
170
     0
171
     0
290
     0
174
     0
 93
       13
 44
0.0
173
     0
291
     1
 45
0.0
1001
ACAD
1000
AcDbSavedByObjectVersion
1070
     0
  0
VISUALSTYLE
  5
104A
102
{ACAD_XDICTIONARY
360
117E
102
}
102
{ACAD_REACTORS
330
1048
102
}
330
1048
100
AcDbVisualStyle
  2
FlatWithEdges
 70
     1
 71
     2
 72
     1
 73
     1
 90
        2
 40
-0.6
 41
30.0
 62
     5
 63
     7
 74
     1
 91
        0
 64
     7
 65
   257
 75
     1
175
     1
 42
1.0
 92
        0
 66
   257
 43
1.0
 76
     1
 77
     6
 78
     2
 67
     7
 79
     5
170
     0
171
     0
290
     0
174
     0
 93
       13
 44
0.0
173
     0
291
     1
 45
0.0
1001
ACAD
1000
AcDbSavedByObjectVersion
1070
     0
  0
VISUALSTYLE
  5
104B
102
{ACAD_XDICTIONARY
360
1180
102
}
102
{ACAD_REACTORS
330
1048
102
}
330
1048
100
AcDbVisualStyle
  2
Gouraud
 70
     2
 71
     2
 72
     2
 73
     1
 90
        2
 40
-0.6
 41
30.0
 62
     5
 63
     7
 74
     0
 91
        0
 64
     7
 65
   257
 75
     1
175
     1
 42
1.0
 92
        0
 66
     7
 43
1.0
 76
     1
 77
     6
 78
     2
 67
     7
 79
     5
170
     0
171
     0
290
     0
174
     0
 93
       13
 44
0.0
173
     0
291
     1
 45
0.0
1001
ACAD
1000
AcDbSavedByObjectVersion
1070
     0
  0
VISUALSTYLE
  5
104C
102
{ACAD_XDICTIONARY
360
1182
102
}
102
{ACAD_REACTORS
330
1048
102
}
330
1048
100
AcDbVisualStyle
  2
GouraudWithEdges
 70
     3
 71
     2
 72
     2
 73
     1
 90
        2
 40
-0.6
 41
30.0
 62
     5
 63
     7
 74
     1
 91
        0
 64
     7
 65
   257
 75
     1
175
     1
 42
1.0
 92
        0
 66
   257
 43
1.0
 76
     1
 77
     6
 78
     2
 67
     7
 79
     5
170
     0
171
     0
290
     0
174
     0
 93
       13
 44
0.0
173
     0
291
     1
 45
0.0
1001
ACAD
1000
AcDbSavedByObjectVersion
1070
     0
  0
VISUALSTYLE
  5
1050
102
{ACAD_XDICTIONARY
360
118A
102
}
102
{ACAD_REACTORS
330
1048
102
}
330
1048
100
AcDbVisualStyle
  2
Hidden
 70
     6
 71
     1
 72
     2
 73
     2
 90
        0
 40
-0.6
 41
-30.0
 62
     5
 63
     7
 74
     2
 91
        2
 64
     7
 65
   257
 75
     2
175
     1
 42
40.0
 92
        0
 66
   257
 43
1.0
 76
     1
 77
     6
 78
     2
 67
     7
 79
     3
170
     0
171
     0
290
     0
174
     0
 93
        1
 44
0.0
173
     0
291
     0
 45
0.0
1001
ACAD
1000
AcDbSavedByObjectVersion
1070
     0
  0
VISUALSTYLE
  5
105E
102
{ACAD_XDICTIONARY
360
11A6
102
}
102
{ACAD_REACTORS
330
1048
102
}
330
1048
100
AcDbVisualStyle
  2
JitterOff
 70
    20
 71
     2
 72
     2
 73
     0
 90
        0
 40
-0.6
 41
-30.0
 62
     5
 63
     7
 74
     1
 91
        4
 64
     7
 65
   257
 75
     1
175
     1
 42
1.0
 92
       10
 66
     7
 43
1.0
 76
     1
 77
     6
 78
     2
 67
     7
 79
     5
170
     0
171
     0
290
     0
174
     0
 93
        1
 44
0.0
173
     0
291
     1
 45
0.0
1001
ACAD
1000
AcDbSavedByObjectVersion
1070
     0
  0
VISUALSTYLE
  5
1056
102
{ACAD_XDICTIONARY
360
1196
102
}
102
{ACAD_REACTORS
330
1048
102
}
330
1048
100
AcDbVisualStyle
  2
Linepattern
 70
    14
 71
     2
 72
     2
 73
     0
 90
        0
 40
-0.6
 41
-30.0
 62
     5
 63
     7
 74
     1
 91
        4
 64
     7
 65
   257
 75
     7
175
     7
 42
1.0
 92
        8
 66
     7
 43
1.0
 76
     1
 77
     6
 78
     2
 67
     7
 79
     5
170
     0
171
     0
290
     0
174
     0
 93
        1
 44
0.0
173
     0
291
     1
 45
0.0
1001
ACAD
1000
AcDbSavedByObjectVersion
1070
     0
  0
VISUALSTYLE
  5
105F
102
{ACAD_XDICTIONARY
360
11A8
102
}
102
{ACAD_REACTORS
330
1048
102
}
330
1048
100
AcDbVisualStyle
  2
OverhangOff
 70
    21
 71
     2
 72
     2
 73
     0
 90
        0
 40
-0.6
 41
-30.0
 62
     5
 63
     7
 74
     1
 91
        4
 64
     7
 65
   257
 75
     1
175
     1
 42
1.0
 92
        9
 66
     7
 43
1.0
 76
     1
 77
     6
 78
     2
 67
     7
 79
     5
170
     0
171
     0
290
     0
174
     0
 93
        1
 44
0.0
173
     0
291
     1
 45
0.0
1001
ACAD
1000
AcDbSavedByObjectVersion
1070
     0
  0
VISUALSTYLE
  5
1052
102
{ACAD_XDICTIONARY
360
118E
102
}
102
{ACAD_REACTORS
330
1048
102
}
330
1048
100
AcDbVisualStyle
  2
Realistic
 70
     8
 71
     2
 72
     3
 73
     0
 90
        2
 40
-0.6
 41
30.0
 62
     5
 63
     7
 74
     0
 91
        0
 64
     7
 65
   257
 75
     1
175
     1
 42
1.0
 92
        8
 66
   257
 43
1.0
 76
     1
 77
     6
 78
     2
 67
     7
 79
     3
170
     0
171
     0
290
     0
174
     0
 93
       13
 44
0.0
173
     0
291
     0
 45
0.0
1001
ACAD
1000
AcDbSavedByObjectVersion
1070
     0
  0
VISUALSTYLE
  5
105D
102
{ACAD_XDICTIONARY
360
11A4
102
}
102
{ACAD_REACTORS
330
1048
102
}
330
1048
100
AcDbVisualStyle
  2
Shaded
 70
    27
 71
     2
 72
     2
 73
     1
 90
        2
 40
-0.6
 41
30.0
 62
     5
 63
     7
 74
     0
 91
        4
 64
     7
 65
   257
 75
     1
175
     1
 42
1.0
 92
        8
 66
   257
 43
1.0
 76
     1
 77
     6
 78
     2
 67
     8
 79
     3
170
     0
171
     0
290
     0
174
     0
 93
        5
 44
0.0
173
     0
291
     0
 45
0.0
1001
ACAD
1000
AcDbSavedByObjectVersion
1070
     0
  0
VISUALSTYLE
  5
105C
102
{ACAD_XDICTIONARY
360
11A2
102
}
102
{ACAD_REACTORS
330
1048
102
}
330
1048
100
AcDbVisualStyle
  2
Shaded with edges
 70
    26
 71
     2
 72
     2
 73
     1
 90
        2
 40
-0.6
 41
30.0
 62
     5
 63
     7
 74
     1
 91
       10
 64
     7
 65
   257
 75
     2
175
     1
 42
1.0
 92
        8
 66
   257
 43
1.0
 76
     1
 77
     6
 78
     2
 67
     7
 79
     3
170
     0
171
     0
290
     0
174
     0
 93
        5
 44
0.0
173
     0
291
     0
 45
0.0
1001
ACAD
1000
AcDbSavedByObjectVersion
1070
     0
  0
VISUALSTYLE
  5
1059
102
{ACAD_XDICTIONARY
360
119C
102
}
102
{ACAD_REACTORS
330
1048
102
}
330
1048
100
AcDbVisualStyle
  2
Shades of Gray
 70
    23
 71
     2
 72
     2
 73
     3
 90
        0
 40
-0.6
 41
-30.0
 62
     5
 63
     7
 74
     2
 91
        2
 64
     7
 65
     7
 75
     1
175
     1
 42
40.0
 92
        8
 66
     7
 43
1.0
 76
     1
 77
     6
 78
     2
 67
     7
 79
     3
170
     0
171
     0
290
     0
174
     0
 93
        1
 44
0.0
173
     0
291
     0
 45
0.0
1001
ACAD
1000
AcDbSavedByObjectVersion
1070
     0
  0
VISUALSTYLE
  5
105A
102
{ACAD_XDICTIONARY
360
119E
102
}
102
{ACAD_REACTORS
330
1048
102
}
330
1048
100
AcDbVisualStyle
  2
Sketchy
 70
    24
 71
     1
 72
     2
 73
     2
 90
        0
 40
-0.6
 41
-30.0
 62
     5
 63
     7
 74
     2
 91
        2
 64
     7
 65
     7
 75
     1
175
     1
 42
40.0
 92
       11
 66
     7
 43
1.0
 76
     1
 77
     6
 78
     2
 67
     7
 79
     6
170
     0
171
     0
290
     0
174
     0
 93
        1
 44
0.0
173
     0
291
     0
 45
0.0
1001
ACAD
1000
AcDbSavedByObjectVersion
1070
     0
  0
VISUALSTYLE
  5
1055
102
{ACAD_XDICTIONARY
360
1194
102
}
102
{ACAD_REACTORS
330
1048
102
}
330
1048
100
AcDbVisualStyle
  2
Thicken
 70
    13
 71
     2
 72
     2
 73
     0
 90
        0
 40
-0.6
 41
-30.0
 62
     5
 63
     7
 74
     1
 91
        4
 64
     7
 65
   257
 75
     1
175
     1
 42
1.0
 92
       12
 66
     7
 43
1.0
 76
     1
 77
     6
 78
     2
 67
     7
 79
     5
170
     0
171
     0
290
     0
174
     0
 93
        1
 44
0.0
173
     0
291
     1
 45
0.0
1001
ACAD
1000
AcDbSavedByObjectVersion
1070
     0
  0
VISUALSTYLE
  5
104F
102
{ACAD_XDICTIONARY
360
1188
102
}
102
{ACAD_REACTORS
330
1048
102
}
330
1048
100
AcDbVisualStyle
  2
Wireframe
 70
     5
 71
     0
 72
     2
 73
     0
 90
        0
 40
-0.6
 41
-30.0
 62
     5
 63
     7
 74
     1
 91
        4
 64
     7
 65
   257
 75
     1
175
     1
 42
1.0
 92
        0
 66
   257
 43
1.0
 76
     1
 77
     6
 78
     2
 67
     7
 79
     3
170
     0
171
     0
290
     0
174
     0
 93
        1
 44
0.0
173
     0
291
     0
 45
0.0
1001
ACAD
1000
AcDbSavedByObjectVersion
1070
     0
  0
VISUALSTYLE
  5
105B
102
{ACAD_XDICTIONARY
360
11A0
102
}
102
{ACAD_REACTORS
330
1048
102
}
330
1048
100
AcDbVisualStyle
  2
X-Ray
 70
    25
 71
     2
 72
     2
 73
     1
 90
        1
 40
0.5
 41
-30.0
 62
     5
 63
     7
 74
     1
 91
        0
 64
     7
 65
   257
 75
     1
175
     1
 42
1.0
 92
        8
 66
     7
 43
1.0
 76
     1
 77
     6
 78
     2
 67
     7
 79
     3
170
     0
171
     0
290
     0
174
     0
 93
       13
 44
0.0
173
     0
291
     0
 45
0.0
1001
ACAD
1000
AcDbSavedByObjectVersion
1070
     0
  0
DICTIONARYVAR
  5
116B
102
{ACAD_REACTORS
330
AAF
102
}
330
AAF
100
DictionaryVariables
280
     0
  1
1:1
  0
DICTIONARYVAR
  5
116A
102
{ACAD_REACTORS
330
AAF
102
}
330
AAF
100
DictionaryVariables
280
     0
  1
STANDARD
  0
DICTIONARYVAR
  5
AB0
102
{ACAD_REACTORS
330
AAF
102
}
330
AAF
100
DictionaryVariables
280
     0
  1
STANDARD
  0
DICTIONARYVAR
  5
AB1
102
{ACAD_REACTORS
330
AAF
102
}
330
AAF
100
DictionaryVariables
280
     0
  1
1
  0
DICTIONARYVAR
  5
116D
102
{ACAD_REACTORS
330
AAF
102
}
330
AAF
100
DictionaryVariables
280
     0
  1
0
  0
DICTIONARYVAR
  5
AB2
102
{ACAD_REACTORS
330
AAF
102
}
330
AAF
100
DictionaryVariables
280
     0
  1

  0
DICTIONARYVAR
  5
116C
102
{ACAD_REACTORS
330
AAF
102
}
330
AAF
100
DictionaryVariables
280
     0
  1
127
  0
DICTIONARYVAR
  5
116E
102
{ACAD_REACTORS
330
AAF
102
}
330
AAF
100
DictionaryVariables
280
     0
  1
2
  0
DICTIONARY
  5
111B
330
A9A
100
AcDbDictionary
280
     1
281
     1
  3
ACAD_XREC_ROUNDTRIP
360
1176
  3
ADSK_XREC_LAYOUTTHUMBNAIL
360
111C
  0
DICTIONARY
  5
1177
330
A9B
100
AcDbDictionary
280
     1
281
     1
  3
ACAD_XREC_ROUNDTRIP
360
1178
  0
DICTIONARY
  5
1039
330
1038
100
AcDbDictionary
280
     1
281
     1
  3
ACAD_XREC_ROUNDTRIP
360
117A
  3
BUMPTILE
360
103B
  3
DIFFUSETILE
360
103A
  3
OPACITYTILE
360
103E
  3
REFLECTIONTILE
360
103D
  3
REFRACTIONTILE
360
103F
  3
SPECULARTILE
360
103C
  0
DICTIONARY
  5
1031
330
1030
100
AcDbDictionary
280
     1
281
     1
  3
ACAD_XREC_ROUNDTRIP
360
1179
  3
BUMPTILE
360
1033
  3
DIFFUSETILE
360
1032
  3
OPACITYTILE
360
1036
  3
REFLECTIONTILE
360
1035
  3
REFRACTIONTILE
360
1037
  3
SPECULARTILE
360
1034
  0
DICTIONARY
  5
1041
330
1040
100
AcDbDictionary
280
     1
281
     1
  3
ACAD_XREC_ROUNDTRIP
360
117B
  3
BUMPTILE
360
1043
  3
DIFFUSETILE
360
1042
  3
OPACITYTILE
360
1046
  3
REFLECTIONTILE
360
1045
  3
REFRACTIONTILE
360
1047
  3
SPECULARTILE
360
1044
  0
DICTIONARY
  5
1171
330
1074
100
AcDbDictionary
280
     1
281
     1
  3
ACAD_XREC_ROUNDTRIP
360
1172
  0
DICTIONARY
  5
116F
330
A97
100
AcDbDictionary
280
     1
281
     1
  3
ACAD_ROUNDTRIP_2008_TABLESTYLE_CELLSTYLEMAP
360
1170
  3
ACAD_XREC_ROUNDTRIP
360
1175
  0
DICTIONARY
  5
1186
330
104E
100
AcDbDictionary
280
     1
281
     1
  3
ACAD_XREC_ROUNDTRIP
360
1187
  0
DICTIONARY
  5
1184
330
104D
100
AcDbDictionary
280
     1
281
     1
  3
ACAD_XREC_ROUNDTRIP
360
1185
  0
DICTIONARY
  5
1192
330
1054
100
AcDbDictionary
280
     1
281
     1
  3
ACAD_XREC_ROUNDTRIP
360
1193
  0
DICTIONARY
  5
119A
330
1058
100
AcDbDictionary
280
     1
281
     1
  3
ACAD_XREC_ROUNDTRIP
360
119B
  0
DICTIONARY
  5
118C
330
1051
100
AcDbDictionary
280
     1
281
     1
  3
ACAD_XREC_ROUNDTRIP
360
118D
  0
DICTIONARY
  5
1190
330
1053
100
AcDbDictionary
280
     1
281
     1
  3
ACAD_XREC_ROUNDTRIP
360
1191
  0
DICTIONARY
  5
11AA
330
1060
100
AcDbDictionary
280
     1
281
     1
  3
ACAD_XREC_ROUNDTRIP
360
11AB
  0
DICTIONARY
  5
1198
330
1057
100
AcDbDictionary
280
     1
281
     1
  3
ACAD_XREC_ROUNDTRIP
360
1199
  0
DICTIONARY
  5
117C
330
1049
100
AcDbDictionary
280
     1
281
     1
  3
ACAD_XREC_ROUNDTRIP
360
117D
  0
DICTIONARY
  5
117E
330
104A
100
AcDbDictionary
280
     1
281
     1
  3
ACAD_XREC_ROUNDTRIP
360
117F
  0
DICTIONARY
  5
1180
330
104B
100
AcDbDictionary
280
     1
281
     1
  3
ACAD_XREC_ROUNDTRIP
360
1181
  0
DICTIONARY
  5
1182
330
104C
100
AcDbDictionary
280
     1
281
     1
  3
ACAD_XREC_ROUNDTRIP
360
1183
  0
DICTIONARY
  5
118A
330
1050
100
AcDbDictionary
280
     1
281
     1
  3
ACAD_XREC_ROUNDTRIP
360
118B
  0
DICTIONARY
  5
11A6
330
105E
100
AcDbDictionary
280
     1
281
     1
  3
ACAD_XREC_ROUNDTRIP
360
11A7
  0
DICTIONARY
  5
1196
330
1056
100
AcDbDictionary
280
     1
281
     1
  3
ACAD_XREC_ROUNDTRIP
360
1197
  0
DICTIONARY
  5
11A8
330
105F
100
AcDbDictionary
280
     1
281
     1
  3
ACAD_XREC_ROUNDTRIP
360
11A9
  0
DICTIONARY
  5
118E
330
1052
100
AcDbDictionary
280
     1
281
     1
  3
ACAD_XREC_ROUNDTRIP
360
118F
  0
DICTIONARY
  5
11A4
330
105D
100
AcDbDictionary
280
     1
281
     1
  3
ACAD_XREC_ROUNDTRIP
360
11A5
  0
DICTIONARY
  5
11A2
330
105C
100
AcDbDictionary
280
     1
281
     1
  3
ACAD_XREC_ROUNDTRIP
360
11A3
  0
DICTIONARY
  5
119C
330
1059
100
AcDbDictionary
280
     1
281
     1
  3
ACAD_XREC_ROUNDTRIP
360
119D
  0
DICTIONARY
  5
119E
330
105A
100
AcDbDictionary
280
     1
281
     1
  3
ACAD_XREC_ROUNDTRIP
360
119F
  0
DICTIONARY
  5
1194
330
1055
100
AcDbDictionary
280
     1
281
     1
  3
ACAD_XREC_ROUNDTRIP
360
1195
  0
DICTIONARY
  5
1188
330
104F
100
AcDbDictionary
280
     1
281
     1
  3
ACAD_XREC_ROUNDTRIP
360
1189
  0
DICTIONARY
  5
11A0
330
105B
100
AcDbDictionary
280
     1
281
     1
  3
ACAD_XREC_ROUNDTRIP
360
11A1
  0
XRECORD
  5
1176
102
{ACAD_REACTORS
330
111B
102
}
330
111B
100
AcDbXrecord
280
     1
102
SHADEPLOT
 70
     0
102
SHADEPLOTRESLEVEL
 70
     2
102
SHADEPLOTCUSTOMDPI
 70
   300
  0
XRECORD
  5
111C
102
{ACAD_REACTORS
330
111B
102
}
330
111B
100
AcDbXrecord
280
     1
310
280000000001000088000000010008000000000000880000000000000000000000010000000000000000000000000000C8C8C8000000000000000000000000000000000000000000000000000000000000000000330000006600000099000000CC000000FF00000000330000333300006633000099330000CC330000FF3300
310
0000660000336600006666000099660000CC660000FF66000000990000339900006699000099990000CC990000FF99000000CC000033CC000066CC000099CC0000CCCC0000FFCC000000FF000033FF000066FF000099FF0000CCFF0000FFFF000000003300330033006600330099003300CC003300FF003300003333003333
310
33006633330099333300CC333300FF33330000663300336633006666330099663300CC663300FF66330000993300339933006699330099993300CC993300FF99330000CC330033CC330066CC330099CC3300CCCC3300FFCC330000FF330033FF330066FF330099FF3300CCFF3300FFFF330000006600330066006600660099
310
006600CC006600FF00660000336600333366006633660099336600CC336600FF33660000666600336666006666660099666600CC666600FF66660000996600339966006699660099996600CC996600FF99660000CC660033CC660066CC660099CC6600CCCC6600FFCC660000FF660033FF660066FF660099FF6600CCFF6600
310
FFFF660000009900330099006600990099009900CC009900FF00990000339900333399006633990099339900CC339900FF33990000669900336699006666990099669900CC669900FF66990000999900339999006699990099999900CC999900FF99990000CC990033CC990066CC990099CC9900CCCC9900FFCC990000FF99
310
0033FF990066FF990099FF9900CCFF9900FFFF99000000CC003300CC006600CC009900CC00CC00CC00FF00CC000033CC003333CC006633CC009933CC00CC33CC00FF33CC000066CC003366CC006666CC009966CC00CC66CC00FF66CC000099CC003399CC006699CC009999CC00CC99CC00FF99CC0000CCCC0033CCCC0066CC
310
CC0099CCCC00CCCCCC00FFCCCC0000FFCC0033FFCC0066FFCC0099FFCC00CCFFCC00FFFFCC000000FF003300FF006600FF009900FF00CC00FF00FF00FF000033FF003333FF006633FF009933FF00CC33FF00FF33FF000066FF003366FF006666FF009966FF00CC66FF00FF66FF000099FF003399FF006699FF009999FF00CC
310
99FF00FF99FF0000CCFF0033CCFF0066CCFF0099CCFF00CCCCFF00FFCCFF0000FFFF0033FFFF0066FFFF0099FFFF00CCFFFF00FFFFFF00000000000D0D0D001A1A1A00282828003535350043434300505050005D5D5D006B6B6B00787878008686860093939300A1A1A100AEAEAE00BBBBBB00C9C9C900D6D6D600E4E4E400
310
F1F1F100FFFFFF000000000000000000000000000000000000000000000000000000000000000000000000000000000000000000000000000000000000000000000000000000000000000000000000000000000000000000000000000000000000000000000000000000000000000000000000000000000000000000000000
310
00000000000000000000000000000000000000000000000000000000000000000000000000000000000000000000000000000000000000000000000000000000000000000000000000000000000000000000000000000000000000000000000000000000000000000000000000000000000000000000000000000000000000
310
00000000000000000000000000000000000000000000000000000000000000000000000000000000000000000000000000000000000000000000000000000000000000000000000000000000000000000000000000000000000000000000000000000000000000000000000000000000000000000000000000000000000000
310
000000F5F5F5F5F5F5F5F5F5F5F5F5F5F5F5F5F5F5F5F5F5F5F5F5F5F5F5F5F5F5F5F5F5F5F5F5F5F5F5F5F5F5F5F5F5F5F5F5F5F5F5F5F5F5F5F5F5F5F5F5F5F5F5F5F5F5F5F5F5F5F5F5F5F5F5F5F5F5F5F5F5F5F5F5F5F5F5F5F5F5F5F5F5F5F5F500000000000000000000000000000000000000000000000000000000
310
00000000000000000000000000000000000000000000000000000000000000000000000000000000000000000000000000000000000000000000000000000000000000000000000000000000000000000000000000000000000000000000000000000000000000000000000000000000000000000000000000000000000000
310
0000000000F500000000000000000000000000000000000000000000000000000000000000000000000000000000000000000000000000000000000000000000000000000000000000000000000000000000000000000000000000000000000000000000F50000000000000000000000000000000000000000000000000000
310
00000000000000000000000000000000000000000000000000000000000000000000000000000000000000000000000000000000000000000000000000000000000000000000000000000000000000000000000000000000000000000000000000000000000000000000000000000000000000000000000000000000000000
310
00000000000000F500000028282828282828282828282828282828282828282828282828282828282828282828282828282828282828282828282828282828282828282828282828282828282828282828282828282828282828282828282828282828000000F5000000000000000000000000000000000000000000000000
310
00000000000000000000000000000000000000000000000000000000000000000000000000000000000000000000000000000000000000000000000000000000000000000000000000000000000000000000000000000000000000000000000000000000000000000000000000000000000000000000000000000000000000
310
000000000000000000F500000028000000000000000000000000000000000000000000000000000000000000000000000000000000000000000000000000000000000000000000000000000000002800000000ECEC000000002800000000EC00EC00000028000000F500000000000000000000000000000000000000000000
310
00000000000000000000000000000000000000000000000000000000000000000000000000000000000000000000000000000000000000000000000000000000000000000000000000000000000000000000000000000000000000000000000000000000000000000000000000000000000000000000000000000000000000
310
0000000000000000000000F500000028000000000000000000000000000000000000000000000000000000000000000000000000000000000000000000000000000000000000000000000000000000002800000000ECEC0000000028000000ECECECEC00000028000000F50000000000000000000000000000000000000000
310
00000000000000000000000000000000000000000000000000000000000000000000000000000000000000000000000000000000000000000000000000000000000000000000000000000000000000000000000000000000000000000000000000000000000000000000000000000000000000000000000000000000000000
310
00000000000000000000000000F500000028000000000000000000000000000000000000000000000000000000000000000000000000000000000000000000000000000000000000000000000000000000002800000000000000000000280000000000000000000028000000F5000000000000000000000000000000000000
310
00000000000000000000000000000000000000000000000000000000000000000000000000000000000000000000000000000000000000000000000000000000000000000000000000000000000000000000000000000000000000000000000000000000000000000000000000000000000000000000000000000000000000
310
000000000000000000000000000000F50000002800000000000000000000000000000000000000000000000000000000000000000000000000000000000000000000000000000000000000000000000000000000ECECECECEC00000000000028ECECECEC00000000000028000000F500000000000000000000000000000000
310
00000000000000000000000000000000000000000000000000000000000000000000000000000000000000000000000000000000000000000000000000000000000000000000000000000000000000000000000000000000000000000000000000000000000000000000000000000000000000000000000000000000000000
310
0000000000000000000000000000000000F5000000280000000000000000000000000000ECECECECECECECECECEC0000000000000000000000000000ECECECECECECECECECEC00000000000000000000000000000000282828282828282828282828282828ECEC28EC28EC28EC000000F50000000000000000000000000000
310
00000000000000000000000000000000000000000000000000000000000000000000000000000000000000000000000000000000000000000000000000000000000000000000000000000000000000000000000000000000000000000000000000000000000000000000000000000000000000000000000000000000000000
310
00000000000000000000000000000000000000F500000028000000000000000000000000000000ECECECECECECEC0000000000000000000000000000000000ECECECECECECEC000000000000000000000000000000000000280000ECECECECEC00000028282828ECEC28EC28EC28EC000000F5000000000000000000000000
310
00000000000000000000000000000000000000000000000000000000000000000000000000000000000000000000000000000000000000000000000000000000000000000000000000000000000000000000000000000000000000000000000000000000000000000000000000000000000000000000000000000000000000
310
000000000000000000000000000000000000000000F500000028000000000000000000000000000000ECECECECECECEC000000000000000000000000000000000000ECECECECECEC000000000000000000000000000000000000280000ECECECECEC00000028ECECECECECECECECECECEC000000F500000000000000000000
310
00000000000000000000000000000000000000000000000000000000000000000000000000000000000000000000000000000000000000000000000000000000000000000000000000000000000000000000000000000000000000000000000000000000000000000000000000000000000000000000000000000000000000
310
0000000000000000000000000000000000000000000000F50000002800000000C3C3C3C3C3C3000000000000000000000000000000000000000000000000000000000000000000000000000000C30000000000000000000000000000ECECECECECECECEC00000028ECECECECECECECECECECEC000000F50000000000000000
310
00000000000000000000000000000000000000000000000000000000000000000000000000000000000000000000000000000000000000000000000000000000000000000000000000000000000000000000000000000000000000000000000000000000000000000000000000000000000000000000000000000000000000
310
00000000000000000000000000000000000000000000000000F50000002800000000C3C3C3C3C3C3C30F0FF5F5F5F5F5F5F5F5F5F5F5F5000000000000000000000000000000000000000000000000C30000000000000000000000000000ECECEC282828282828282828ECECECECECECECECECECEC000000F5000000000000
310
00000000000000000000000000000000000000000000000000000000000000000000000000000000000000000000000000000000000000000000000000000000000000000000000000000000000000000000000000000000000000000000000000000000000000000000000000000000000000000000000000000000000000
310
000000000000000000000000000000000000000000000000000000F50000002800000000000000000000C3F50F0F0FC3C3C3C3C3C3C3C3C3C3C3C300000000000000000000000000000000000000000000C30000000000000000000000000000280000000000000000ECECECECEC000000000000000028000000F500000000
310
00000000000000000000000000000000000000000000000000000000000000000000000000000000000000000000000000000000000000000000000000000000000000000000000000000000000000000000000000000000000000000000000000000000000000000000000000000000000000000000000000000000000000
310
0000000000000000000000000000000000000000000000000000000000F500000028000000000000000000000F0F0FF5F5F5F5F5F5F5F5F5F5F5F5282828282828000000000000000000000000000000000000C30000000000000000000000000000280000000000000000ECECECECEC000000000000000028000000F50000
310
00000000000000000000000000000000000000000000000000000000000000000000000000000000000000000000000000000000000000000000000000000000000000000000000000000000000000000000000000000000000000000000000000000000000000000000000000000000000000000000000000000000000000
310
00000000000000000000000000000000000000000000000000000000000000F500000028000000000000000000000F0F000000000000000000000000000000000000000000000000000000000000000000000000F5C300000000000000000000000000002800000000000000000000000000000000000000000028000000F5
310
00000000000000000000000000000000000000000000000000000000000000000000000000000000000000000000000000000000000000000000000000000000000000000000000000000000000000000000000000000000000000000000000000000000000000000000000000000000000000000000000000000000000000
310
000000000000000000000000000000000000000000000000000000000000000000F500000028000000000000000000000FF5000000000000000000000000000000000000000000000000000000000000000000000000F5C30000000000000000000000000000ECECECEC000000000000000000000000000000000000280000
310
00F50000000000000000000000000000000000000000000000000000000000000000000000000000000000000000000000000000000000000000000000000000000000000000000000000000000000000000000000000000000000000000000000000000000000000000000000000000000000000000000000000000000000
310
0000000000000000000000000000000000000000000000000000000000000000000000F500000028000000000000000000000FF5000000000000000000000000000000000000000000000000000000000000000000000000F5C3000000000000000000000000000028ECECECECECECECECECECECECECECECEC282828282828
310
000000F5000000000000000000000000000000000000000000000000000000000000000000000000000000000000000000000000000000000000000000000000000000000000000000000000000000000000000000000000000000000000000000000000000000000000000000000000000000000000000000000000000000
310
00000000000000000000000000000000000000000000000000000000000000000000000000F50000002800000000000000000000F5F5000000000000000000000000000000000000000000000000000000000000000000000000F5C3000000000000000000000000000028ECECECECECECECECECECECECECECEC0000000000
310
0028000000F500000000000000000000000000000000000000000000000000000000000000000000000000000000000000000000000000000000000000000000000000000000000000000000000000000000000000000000000000000000000000000000000000000000000000000000000000000000000000000000000000
310
000000000000000000000000000000000000000000000000000000000000000000000000000000F50000002800000000000000000000F5F5000000000000000000000000000000000000000000000000000000000000000000000000F5C3000000000000000000000000000028000000000000000000000000000000000000
310
00000028000000F50000000000000000000000000000000000000000000000000000000000000000000000000000000000000000000000000000000000000000000000000000000000000000000000000000000000000000000000000000000000000000000000000000000000000000000000000000000000000000000000
310
0000000000000000000000000000000000000000000000000000000000000000000000000000000000F50000002800000000000000000000F5F5000000000000000000000000000000000000000000000000000000000000000000000000F5C300000000000000000000000000002800000000000000000000000000000000
310
000000000028000000F5000000000000000000000000000000000000000000000000000000000000000000000000000000000000000000000000000000000000000000000000000000000000000000000000000000000000000000000000000000000000000000000000000000000000000000000000000000000000000000
310
00000000000000000000000000000000000000000000000000000000000000000000000000000000000000F50000002800000000000000000000F5F5000000000000000000000000000000000000000000000000000000000000000000000000F5C30000000000000000000000000000280000000000000000000000000000
310
0000000000000028000000F500000000000000000000000000000000000000000000000000000000000000000000000000000000000000000000000000000000000000000000000000000000000000000000000000000000000000000000000000000000000000000000000000000000000000000000000000000000000000
310
000000000000000000000000000000000000000000000000000000000000000000000000000000000000000000F50000002800000000000000000000F5F5000000000000000000000000000000000000000000000000000000000000000000000000F5C3000000000000000000000000000028000000000000000000000000
310
00000000000000000028000000F50000000000000000000000000000000000000000000000000000000000000000000000000000000000000000000000000000000000000000000000000000000000000000000000000000000000000000000000000000000000000000000000000000000000000000000000000000000000
310
0000000000000000000000000000000000000000000000000000000000000000000000000000000000000000000000F50000002800000000000000000000F5F5000000000000000000000000000000000000000000000000000000000000000000000000F5C300000000000000000000000000002800000000000000000000
310
000000000000000000000028000000F5000000000000000000000000000000000000000000000000000000000000000000000000000000000000000000000000000000000000000000000000000000000000000000000000000000000000000000000000000000000000000000000000000000000000000000000000000000
310
00000000000000000000000000000000000000000000000000000000000000000000000000000000000000000000000000F50000002800000000000000000000F5F5000000000000000000000000000000000000000000000000000000000000000000000000F5C30000000000000000000000000000280000000000000000
310
0000000000000000000000000028000000F500000000000000000000000000000000000000000000000000000000000000000000000000000000000000000000000000000000000000000000000000000000000000000000000000000000000000000000000000000000000000000000000000000000000000000000000000
310
000000000000000000000000000000000000000000000000000000000000000000000000000000000000000000000000000000F50000002800000000000000000000F5F5000000000000000000000000000000000000000000000000000000000000000000000000F5C3C30000000000000000000000000028000000000000
310
00000000000000000000000000000028000000F50000000000000000000000000000000000000000000000000000000000000000000000000000000000000000000000000000000000000000000000000000000000000000000000000000000000000000000000000000000000000000000000000000000000000000000000
310
0000000000000000000000000000000000000000000000000000000000000000000000000000000000000000000000000000000000F50000002800000000000000000000F5F500000000000000000000000000000000000000000000000000F5F5F5F5F5F5F5F5F5F5F500C3C30000000000000000000000000028000000EC
310
ECECECECECECECECECEC0000000000000028000000F5000000000000000000000000000000000000000000000000000000000000000000000000000000000000000000000000000000000000000000000000000000000000000000000000000000000000000000000000000000000000000000000000000000000000000000
310
00000000000000000000000000000000000000000000000000000000000000000000000000000000000000000000000000000000000000F50000002800000000000000000000F5F5000000000000000000000000000000000000000000C3C3C3C3C3C3C3C3C3C3C3C3C3C3C3C3C3C300000000000000000000000000280000
310
00ECECECECECECECECECECEC0000000000000028000000F500000000000000000000000000000000000000000000000000000000000000000000000000000000000000000000000000000000000000000000000000000000000000000000000000000000000000000000000000000000000000000000000000000000000000
310
000000000000000000000000000000000000000000000000000000000000000000000000000000000000000000000000000000000000000000F50000002800000000000000000000C3280000000000000000000000000000000000000000000028282828282828282828282828C328C3C30000000000000000000000000028
310
000000ECECECECECECECECECEC000000000000000028000000F50000000000000000000000000000000000000000000000000000000000000000000000000000000000000000000000000000000000000000000000000000000000000000000000000000000000000000000000000000000000000000000000000000000000
310
0000000000000000000000000000000000000000000000000000000000000000000000000000000000000000000000000000000000000000000000F5000000280000000000000000000000280000000000000000000000000000000000000000000000000000000000000000000000C3C3C300000000000000000000000000
310
0028000000ECECECECECECECECECEC000000000000000028000000F5000000000000000000000000000000000000000000000000000000000000000000000000000000000000000000000000000000000000000000000000000000000000000000000000000000000000000000000000000000000000000000000000000000
310
00000000000000000000000000000000000000000000000000000000000000000000000000000000000000000000000000000000000000000000000000F50000002800000000000000000000000000000000000000000000000000000000000000000000000000000000000000000000000000000000000000000000000000
310
00000028000000ECECECECECECECECECEC000000000000000028000000F500000000000000000000000000000000000000000000000000000000000000000000000000000000000000000000000000000000000000000000000000000000000000000000000000000000000000000000000000000000000000000000000000
310
000000000000000000000000000000000000000000000000000000000000000000000000000000000000000000000000000000000000000000000000000000F5000000280000000000000000000000000000000000000000000000000000000000000000000000000000000000000000000000000000000000000000000000
310
000000000028000000ECECECECECECECECECEC000000000000000028000000F50000000000000000000000000000000000000000000000000000000000000000000000000000000000000000000000000000000000000000000000000000000000000000000000000000000000000000000000000000000000000000000000
310
0000000000000000000000000000000000000000000000000000000000000000000000000000000000000000000000000000000000000000000000000000000000F500000028000000000000000000000000000000000000000000000000000000000000000000000000000000000000000000000000000000000000000000
310
0000000000000028000000ECECECECECECECECECEC000000000000000028000000F5000000000000000000000000000000000000000000000000000000000000000000000000000000000000000000000000000000000000000000000000000000000000000000000000000000000000000000000000000000000000000000
310
00000000000000000000000000000000000000000000000000000000000000000000000000000000000000000000000000000000000000000000000000000000000000F50000002828282828282828282828282828282828282828282828282828282828282828282828282828282828282828282828282828282828282828
310
2828282828282828282800ECECECECECEC00ECECECECEC000000000000000028000000F500000000000000000000000000000000000000000000000000000000000000000000000000000000000000000000000000000000000000000000000000000000000000000000000000000000000000000000000000000000000000
310
000000000000000000000000000000000000000000000000000000000000000000000000000000000000000000000000000000000000000000000000000000000000000000F5000000282828282828282828282828282828282828282828282828C328C3282828282828282828282828282828282828282828282828282828
310
28282828282828282828282800000000000000000000000000000000000000000028000000F50000000000000000000000000000000000000000000000000000000000000000000000000000000000000000000000000000000000000000000000000000000000000000000000000000000000000000000000000000000000
310
0000000000000000000000000000000000000000000000000000000000000000000000000000000000000000000000000000000000000000000000000000000000000000000000F5000000280000000000000000000000000000000000000000000000C3C3C300000000002800000000000000000000000000000000000000
310
00000000000000000000000000280000ECECECECECECECECEC0000000000000000000028000000F5000000000000000000000000000000000000000000000000000000000000000000000000000000000000000000000000000000000000000000000000000000000000000000000000000000000000000000000000000000
310
00000000000000000000000000000000000000000000000000000000000000000000000000000000000000000000000000000000000000000000000000000000000000000000000000F500000028002800C3C3C30000000000000000000000000000000000C3C3C30000000000280000000000000000000000000000000000
310
000000000000000000000000000000280000ECECECECECECECECEC0000000000000000000028000000F500000000000000000000000000000000000000000000000000000000000000000000000000000000000000000000000000000000000000000000000000000000000000000000000000000000000000000000000000
310
000000000000000000000000000000000000000000000000000000000000000000000000000000000000000000000000000000000000000000000000000000000000000000000000000000F500000028002800C3C3C30000000000000000000000000000000000C3C3C3C30000000028000000000000000000000000000000
310
0000000000000000000000000000000000280000ECECECECECECECECEC0000000000000000000028000000F50000000000000000000000000000000000000000000000000000000000000000000000000000000000000000000000000000000000000000000000000000000000000000000000000000000000000000000000
310
0000000000000000000000000000000000000000000000000000000000000000000000000000000000000000000000000000000000000000000000000000000000000000000000000000000000F5000000280028C3C3C3C30000F5F5F5F5F5F5F5F5F5F5F5F5F5F5F5C3C3C300000000002800000000000000000000000000
310
000000000000000000000000000000000000002800ECECECECECECECEC00000000000000000000000028000000F5000000000000000000000000000000000000000000000000000000000000000000000000000000000000000000000000000000000000000000000000000000000000000000000000000000000000000000
310
00000000000000000000000000000000000000000000000000000000000000000000000000000000000000000000000000000000000000000000000000000000000000000000000000000000000000F50000002800BEC3F500C300000000000000000000000000000000000F0FDC0000000000280000000000000000000000
310
0000000000000000000000000000000000000000002800ECECECECECECECEC00000000000000000000000028000000F500000000000000000000000000000000000000000000000000000000000000000000000000000000000000000000000000000000000000000000000000000000000000000000000000000000000000
310
000000000000000000000000000000000000000000000000000000000000000000000000000000000000000000000000000000000000000000000000000000000000000000000000000000000000000000F50000002800BE00F500C300000000000000000000000000000000000FDCDC000000000028000000000000000000
310
0000000000000000000000000000000000000000000000280000ECECECECECECECECEC0000000000000000000028000000F50000000000000000000000000000000000000000000000000000000000000000000000000000000000000000000000000000000000000000000000000000000000000000000000000000000000
310
0000000000000000000000000000000000000000000000000000000000000000000000000000000000000000000000000000000000000000000000000000000000000000000000000000000000000000000000F50000002800BEBEF500C300000000000000000000000000000000000F0FDC00000000002800000000000000
310
00000000000000000000000000000000000000000000000000280000ECECECECECECECECEC0000000000000000000028000000F5000000000000000000000000000000000000000000000000000000000000000000000000000000000000000000000000000000000000000000000000000000000000000000000000000000
310
00000000000000000000000000000000000000000000000000000000000000000000000000000000000000000000000000000000000000000000000000000000000000000000000000000000000000000000000000F50000002800BEF5F500C30000F5F5F5F5F5F5F5F5F5F5F5F5F5F5F5F5F5DC0000000000280000000000
310
000000000000000000000000000000000000000000000000000000280000ECECECECECECECEC000000000000000000000028000000F500000000000000000000000000000000000000000000000000000000000000000000000000000000000000000000000000000000000000000000000000000000000000000000000000
310
000000000000000000000000000000000000000000000000000000000000000000000000000000000000000000000000000000000000000000000000000000000000000000000000000000000000000000000000000000F50000002800BE00F5C3C30000000000000000000000C300000000000F0FDC000000000028000000
310
0000000000000000000000000000000000000000000000000000000000280000ECECECECEC000000000000000000000000000028000000F50000000000000000000000000000000000000000000000000000000000000000000000000000000000000000000000000000000000000000000000000000000000000000000000
310
0000000000000000000000000000000000000000000000000000000000000000000000000000000000000000000000000000000000000000000000000000000000000000000000000000000000000000000000000000000000F5000000C3C3BEC3F5C3C300000000000000000000C30FC3C30000000FDCDC00000000002800
310
000000000000000000000000000000000000000000000000000000000000002800ECECECEC0000000000000000000000000000000028000000F5000000000000000000000000000000000000000000000000000000000000000000000000000000000000000000000000000000000000000000000000000000000000000000
310
00000000000000000000000000000000000000000000000000000000000000000000000000000000000000000000000000000000000000000000000000000000000000000000000000000000000000000000000000000000000000F50000002800BE00F5C3C30000000000000000000000C300000000000FDCDC0000000000
310
280000000000000000000000000000000000000000000000000000000000000000280000ECECECECEC000000000000000000000000000028000000F500000000000000000000000000000000000000000000000000000000000000000000000000000000000000000000000000000000000000000000000000000000000000
310
000000000000000000000000000000000000000000000000000000000000000000000000000000000000000000000000000000000000000000000000000000000000000000000000000000000000000000000000000000000000000000F50000002800BEF5F500C30000F5F5F5F5F5F5F5F5F5F5F5F5F5F5F5F5F5DC000000
310
0000280000000000000000000000000000000000000000000000000000000000000000280000ECECECECECECECECEC0000000000000000000028000000F50000000000000000000000000000000000000000000000000000000000000000000000000000000000000000000000000000000000000000000000000000000000
310
0000000000000000000000000000000000000000000000000000000000000000000000000000000000000000000000000000000000000000000000000000000000000000000000000000000000000000000000000000000000000000000000F50000002800BEBEBE00C30000000000000000000000C300000000000F0FDC00
310
000000002800000000000000000000000000000000000000000000000000000000000000002800ECECECECECECEC0000000000000000000000000028000000F5000000000000000000000000000000000000000000000000000000000000000000000000000000000000000000000000000000000000000000000000000000
310
00000000000000000000000000000000000000000000000000000000000000000000000000000000000000000000000000000000000000000000000000000000000000000000000000000000000000000000000000000000000000000000000000F50000002800BE00BE00C30000000000000000000000C300000000000FDC
310
DC0000000000280000000000000000000000000000000000000000000000000000000000000000ECECEC0000000000000000000000000000000000000028000000F500000000000000000000000000000000000000000000000000000000000000000000000000000000000000000000000000000000000000000000000000
310
000000000000000000000000000000000000000000000000000000000000000000000000000000000000000000000000000000000000000000000000000000000000000000000000000000000000000000000000000000000000000000000000000000F50000002800BEBEC300C30000000000000000000000C30000000000
310
0FC3C30000000000280000000000000000000000000000000000000000000000000000000000000000ECECEC2828282828282828282828282828282828282828000000F50000000000000000000000000000000000000000000000000000000000000000000000000000000000000000000000000000000000000000000000
310
0000000000000000000000000000000000000000000000000000000000000000000000000000000000000000000000000000000000000000000000000000000000000000000000000000000000000000000000000000000000000000000000000000000000F5000000280028F5C3C3C30000F5F5F5F5F5F5F5F5F5C3F5F5F5
310
F5F5F5F5C300000000002800000000000000000000000000000000000000000000000000000000000000002800000000000000000000000000000000000000000028000000F5000000000000000000000000000000000000000000000000000000000000000000000000000000000000000000000000000000000000000000
310
00000000000000000000000000000000000000000000000000000000000000000000000000000000000000000000000000000000000000000000000000000000000000000000000000000000000000000000000000000000000000000000000000000000000000F500000028002800C3C3C3C300000000000000000000C300
310
000000000000C3C3C3C3C3C3280000000000000000000000000000000000000000000000000000000000000000280000000000000000ECECECECEC000000000000000028000000F500000000000000000000000000000000000000000000000000000000000000000000000000000000000000000000000000000000000000
310
000000000000000000000000000000000000000000000000000000000000000000000000000000000000000000000000000000000000000000000000000000000000000000000000000000000000000000000000000000000000000000000000000000000000000000F50000002800C3C3C3C3C3C300C3C3C3C3C3C3C3C3C3
310
C3C3C3C3C3C3C3C3C3000000000028000000000000000000000000000000000000000000000000000000000000000028000000000000000000ECECECEC000000000000000028000000F50000000000000000000000000000000000000000000000000000000000000000000000000000000000000000000000000000000000
310
0000000000000000000000000000000000000000000000000000000000000000000000000000000000000000000000000000000000000000000000000000000000000000000000000000000000000000000000000000000000000000000000000000000000000000000000F50000002800C3C30000000000000000C3C3C3C3
310
0000C30000C3C3C30000000000000000280000000000000000000000000000000000000000000000000000000000000000ECECEC0000000000000000000000000000000000000028000000F5000000000000000000000000000000000000000000000000000000000000000000000000000000000000000000000000000000
310
00000000000000000000000000000000000000000000000000000000000000000000000000000000000000000000000000000000000000000000000000000000000000000000000000000000000000000000000000000000000000000000000000000000000000000000000000F50000002800000000000000000000000000
310
00000000C3000000000000000000000000002800000000000000000000000000000000000000000000000000000000000000002828282828282828282828282828282828282828282828000000F500000000000000000000000000000000000000000000000000000000000000000000000000000000000000000000000000
310
000000000000000000000000000000000000000000000000000000000000000000000000000000000000000000000000000000000000000000000000000000000000000000000000000000000000000000000000000000000000000000000000000000000000000000000000000000F5000000280000000000000000000000
310
000000000000C3000000000000000000000000002800000000000000000000000000000000000000000000000000000000000000002800000000ECECECECECECECECECECECECEC0000000028000000F50000000000000000000000000000000000000000000000000000000000000000000000000000000000000000000000
310
0000000000000000000000000000000000000000000000000000000000000000000000000000000000000000000000000000000000000000000000000000000000000000000000000000000000000000000000000000000000000000000000000000000000000000000000000000000000F5000000280000000000000000F5
310
F5F5F5F5F5F5F5F5F5F5F5F5F5F5F5F5DC00000000002800000000000000000000000000000000000000000000000000000000000000002800000000ECECECECECECECECECECECECEC0000000028000000F5000000000000000000000000000000000000000000000000000000000000000000000000000000000000000000
310
00000000000000000000000000000000000000000000000000000000000000000000000000000000000000000000000000000000000000000000000000000000000000000000000000000000000000000000000000000000000000000000000000000000000000000000000000000000000000F50000002800000000000000
310
00000000000000000000C300000000000FC3C30000000000280000000000000000000000000000000000000000000000000000000000000000ECECEC0000000000000000000000000000000000000028000000F500000000000000000000000000000000000000000000000000000000000000000000000000000000000000
310
000000000000000000000000000000000000000000000000000000000000000000000000000000000000000000000000000000000000000000000000000000000000000000000000000000000000000000000000000000000000000000000000000000000000000000000000000000000000000000F5000000280000000000
310
000028F5F5F5F5F5F5F5F5F5F5F5F5F5F5F5F5F5C30000000000280000000000000000000000000000000000000000000000000000000000000000ECECEC2828282828282828282828282828282828282828000000F50000000000000000000000000000000000000000000000000000000000000000000000000000000000
310
0000000000000000000000000000000000000000000000000000000000000000000000000000000000000000000000000000000000000000000000000000000000000000000000000000000000000000000000000000000000000000000000000000000000000000000000000000000000000000000000F500000028000000
310
0000000000000000000000000000000000000000000000C3C3C3C3C32800000000000000000000000000000000000000000000000000000000000000002800002828282828282828282828282828282828282828000000F5000000000000000000000000000000000000000000000000000000000000000000000000000000
310
00000000000000000000000000000000000000000000000000000000000000000000000000000000000000000000000000000000000000000000000000000000000000000000000000000000000000000000000000000000000000000000000000000000000000000000000000000000000000000000000000F50000002800
310
00000000000000000000000000000000000000000000000000C3C3C3C3C32800000000000000000000000000000000000000000000000000000000000000002800002828282828282828282828282828282828282828000000F500000000000000000000000000000000000000000000000000000000000000000000000000
310
000000000000000000000000000000000000000000000000000000000000000000000000000000000000000000000000000000000000000000000000000000000000000000000000000000000000000000000000000000000000000000000000000000000000000000000000000000000000000000000000000000F5000000
310
28000000000000000000000000000000000000000000000000000000000000002800000000000000000000000000000000000000000000000000000000000000002800282828282828282828282828282828282828282828000000F50000000000000000000000000000000000000000000000000000000000000000000000
310
0000000000000000000000000000000000000000000000000000000000000000000000000000000000000000000000000000000000000000000000000000000000000000000000000000000000000000000000000000000000000000000000000000000000000000000000000000000000000000000000000000000000F500
310
000028000000000000000000000000000000000000000000000000000000000000002800000000000000000000000000000000000000000000000000000000000000002800282828282828282828282828282828282828282828000000F5000000000000000000000000000000000000000000000000000000000000000000
310
00000000000000000000000000000000000000000000000000000000000000000000000000000000000000000000000000000000000000000000000000000000000000000000000000000000000000000000000000000000000000000000000000000000000000000000000000000000000000000000000000000000000000
310
F500000028000000000000000000000000000000000000000000000000000000000000002800000000000000000000000000000000000000000000000000000000000000002800002828282828282828282828282828282800000028000000F500000000000000000000000000000000000000000000000000000000000000
310
00000000000000000000000000000000000000000000000000000000000000000000000000000000000000000000000000000000000000000000000000000000000000000000000000000000000000000000000000000000000000000000000000000000000000000000000000000000000000000000000000000000000000
310
0000F5000000ECECECECECECECEC2828282828282828282828282828282828282828282828282828282828282828282828282828282828282828282828282828282828282828282800002828282800000000000000000000000000000028000000F50000000000000000000000000000000000000000000000000000000000
310
00000000000000000000000000000000000000000000000000000000000000000000000000000000000000000000000000000000000000000000000000000000000000000000000000000000000000000000000000000000000000000000000000000000000000000000000000000000000000000000000000000000000000
310
00000000F5000000ECECECECECECECEC2828282828282828282828282828282828282828282828282828282828282828282828282828282828282828282828282828282828282828282828282828282828282828282828282828282828282828000000F5000000000000000000000000000000000000000000000000000000
310
00000000000000000000000000000000000000000000000000000000000000000000000000000000000000000000000000000000000000000000000000000000000000000000000000000000000000000000000000000000000000000000000000000000000000000000000000000000000000000000000000000000000000
310
000000000000F500000000000000000000000000000000000000000000000000000000000000000000000000000000000000000000000000000000000000000000000000000000000000000000000000000000000000000000000000000000000000000000F500000000000000000000000000000000000000000000000000
310
00000000000000000000000000000000000000000000000000000000000000000000000000000000000000000000000000000000000000000000000000000000000000000000000000000000000000000000000000000000000000000000000000000000000000000000000000000000000000000000000000000000000000
310
0000000000000000F500000000000000000000000000000000000000000000000000000000000000000000000000000000000000000000000000000000000000000000000000000000000000000000000000000000000000000000000000000000000000000000F50000000000000000000000000000000000000000000000
310
00000000000000000000000000000000000000000000000000000000000000000000000000000000000000000000000000000000000000000000000000000000000000000000000000000000000000000000000000000000000000000000000000000000000000000000000000000000000000000000000000000000000000
310
00000000000000000000F5F5F5F5F5F5F5F5F5F5F5F5F5F5F5F5F5F5F5F5F5F5F5F5F5F5F5F5F5F5F5F5F5F5F5F5F5F5F5F5F5F5F5F5F5F5F5F5F5F5F5F5F5F5F5F5F5F5F5F5F5F5F5F5F5F5F5F5F5F5F5F5F5F5F5F5F5F5F5F5F5F5F5F5F5F5F5F5F5F5F5F5F5F5F5F5000000000000000000000000000000000000000000
310
00000000000000000000000000000000000000000000000000000000000000000000000000000000000000000000000000000000000000000000000000000000000000000000000000000000000000000000000000000000000000000000000000000000000000000000000000000000000000000000000000000000000000
310
000000000000000000000000F500000000000000000000000000000000000000000000000000000000000000000000000000000000000000000000000000000000000000000000000000000000000000000000000000000000000000000000000000000000000000000000F500000000000000000000000000000000000000
310
00000000000000000000000000000000000000000000000000000000000000000000000000000000000000000000000000000000000000000000000000000000000000000000000000000000000000000000000000000000000000000000000000000000000000000000000000000000000000000000000000000000000000
310
0000000000000000000000000000F500000028282828282828282828282828282828282828282828282828282828282828282828282828282828282828282828282828282828282828282828282828282828282828282828282828282828282828282828282828282828000000F50000000000000000000000000000000000
310
00000000000000000000000000000000000000000000000000000000000000000000000000000000000000000000000000000000000000000000000000000000000000000000000000000000000000000000000000000000000000000000000000000000000000000000000000000000000000000000000000000000000000
310
00000000000000000000000000000000F500000028000000000000000000000000000000280000000000000000000000000000002800000000000000000000000000000000280000000000000000000000000000002800000000ECEC00000000280000ECECECECECEC000028000000F5000000000000000000000000000000
310
00000000000000000000000000000000000000000000000000000000000000000000000000000000000000000000000000000000000000000000000000000000000000000000000000000000000000000000000000000000000000000000000000000000000000000000000000000000000000000000000000000000000000
310
000000000000000000000000000000000000F500000028000000000000000000000000000000280000000000000000000000000000002800000000000000000000000000000000280000000000000000000000000000002800000000ECEC00000000280000ECECECECECEC000028000000F500000000000000000000000000
310
00000000000000000000000000000000000000000000000000000000000000000000000000000000000000000000000000000000000000000000000000000000000000000000000000000000000000000000000000000000000000000000000000000000000000000000000000000000000000000000000000000000000000
310
0000000000000000000000000000000000000000F500000028000000000000000000000000000000280000000000000000000000000000002800000000000000000000000000000000280000000000000000000000000000002800000000000000000000280000000000000000000028000000F50000000000000000000000
310
00000000000000000000000000000000000000000000000000000000000000000000000000000000000000000000000000000000000000000000000000000000000000000000000000000000000000000000000000000000000000000000000000000000000000000000000000000000000000000000000000000000000000
310
00000000000000000000000000000000000000000000F5000000280000000000000000000000000000002800000000000000000000000000000028000000000000000000000000000000002800000000000000000000000000000028ECEC000000000000000028ECECECEC00000000000028000000F5000000000000000000
310
00000000000000000000000000000000000000000000000000000000000000000000000000000000000000000000000000000000000000000000000000000000000000000000000000000000000000000000000000000000000000000000000000000000000000000000000000000000000000000000000000000000000000
310
000000000000000000000000000000000000000000000000F500000028000000000000000000000000000000280000000000000000000000000000002800000000000000000000000000000000280000000000000000000000000000002828282828282828282828282828282828282828282828000000F500000000000000
310
00000000000000000000000000000000000000000000000000000000000000000000000000000000000000000000000000000000000000000000000000000000000000000000000000000000000000000000000000000000000000000000000000000000000000000000000000000000000000000000000000000000000000
310
0000000000000000000000000000000000000000000000000000F5000000280000000000000000000000000000002800000000000000000000000000000028000000000000000000000000000000002800000000000000000000000000000028000000ECECECEC00000028282828ECEC28EC28EC28EC000000F50000000000
310
00000000000000000000000000000000000000000000000000000000000000000000000000000000000000000000000000000000000000000000000000000000000000000000000000000000000000000000000000000000000000000000000000000000000000000000000000000000000000000000000000000000000000
310
00000000000000000000000000000000000000000000000000000000F50000002800000000000000000000000000000028000000000000000000000000000000280000000000000000000000000000000028000000000000000000000000000000280000000000000000000028ECECECECECECECECECECEC000000F5000000
310
00000000000000000000000000000000000000000000000000000000000000000000000000000000000000000000000000000000000000000000000000000000000000000000000000000000000000000000000000000000000000000000000000000000000000000000000000000000000000000000000000000000000000
310
000000000000000000000000000000000000000000000000000000000000F5000000280000000000000000000000000000002800000000000000000000000000000028000000000000000000000000000000002800000000000000000000000000000028ECEC000000000000000028ECECECECECECECECECECEC000000F500
310
00000000000000000000000000000000000000000000000000000000000000000000000000000000000000000000000000000000000000000000000000000000000000000000000000000000000000000000000000000000000000000000000000000000000000000000000000000000000000000000000000000000000000
310
0000000000000000000000000000000000000000000000000000000000000000F50000002800000000000000000000000000000028000000000000000000000000000000280000000000000000000000000000000028000000000000000000000000000000282828282828282828282828282828ECECECECECECECEC000000
310
F5000000000000000000000000000000000000000000000000000000000000000000000000000000000000000000000000000000000000000000000000000000000000000000000000000000000000000000000000000000000000000000000000000000000000000000000000000000000000000000000000000000000000
310
00000000000000000000000000000000000000000000000000000000000000000000F500000028000000000000000000000000000000280000000000000000000000000000002800000000000000000000000000000000280000000000000000000000000000002800000000000000ECECECECECECEC000000000000002800
310
0000F500000000000000000000000000000000000000000000000000000000000000000000000000000000000000000000000000000000000000000000000000000000000000000000000000000000000000000000000000000000000000000000000000000000000000000000000000000000000000000000000000000000
310
000000000000000000000000000000000000000000000000000000000000000000000000F500000028000000000000000000000000000000280000000000000000000000000000002800000000000000000000000000000000280000000000000000000000000000002800000000000000ECECECECECECEC00000000000000
310
28000000F50000000000000000000000000000000000000000000000000000000000000000000000000000000000000000000000000000000000000000000000000000000000000000000000000000000000000000000000000000000000000000000000000000000000000000000000000000000000000000000000000000
310
0000000000000000000000000000000000000000000000000000000000000000000000000000F500000028000000000000000000000000000000280000000000000000000000000000002800000000000000000000000000000000280000000000000000000000000000002800000000000000000000000000000000000000
310
000028000000F5000000000000000000000000000000000000000000000000000000000000000000000000000000000000000000000000000000000000000000000000000000000000000000000000000000000000000000000000000000000000000000000000000000000000000000000000000000000000000000000000
310
00000000000000000000000000000000000000000000000000000000000000000000000000000000F5000000280000000000000000000000000000002800000000000000000000000000000028000000000000000000000000000000002800000000000000000000000000000028ECECEC0000000000000000000000000000
310
0000000028000000F500000000000000000000000000000000000000000000000000000000000000000000000000000000000000000000000000000000000000000000000000000000000000000000000000000000000000000000000000000000000000000000000000000000000000000000000000000000000000000000
310
000000000000000000000000000000000000000000000000000000000000000000000000000000000000F5000000280000000000000000000000000000002800000000000000000000000000000028000000000000000000000000000000002800000000000000000000000000000028282828282828282828282828282828
310
28282828282828000000F50000000000000000000000000000000000000000000000000000000000000000000000000000000000000000000000000000000000000000000000000000000000000000000000000000000000000000000000000000000000000000000000000000000000000000000000000000000000000000
310
0000000000000000000000000000000000000000000000000000000000000000000000000000000000000000F500000028000000000000000000000000000000280000000000000000000000000000002800000000000000000000000000000000280000000000000000000000000000002800000000000000000000000000
310
000000000000000028000000F5000000000000000000000000000000000000000000000000000000000000000000000000000000000000000000000000000000000000000000000000000000000000000000000000000000000000000000000000000000000000000000000000000000000000000000000000000000000000
310
00000000000000000000000000000000000000000000000000000000000000000000000000000000000000000000F50000002800000000000000000000000000000028000000000000000000000000000000280000000000000000000000000000000028000000000000000000000000000000280000000000000000000000
310
0000000000000000000028000000F500000000000000000000000000000000000000000000000000000000000000000000000000000000000000000000000000000000000000000000000000000000000000000000000000000000000000000000000000000000000000000000000000000000000000000000000000000000
310
000000000000000000000000000000000000000000000000000000000000000000000000000000000000000000000000F5000000280000000000000000000000000000002800000000000000000000000000000028000000000000000000000000000000002800000000000000000000000000000028000000000000000000
310
00000000000000000000000028000000F50000000000000000000000000000000000000000000000000000000000000000000000000000000000000000000000000000000000000000000000000000000000000000000000000000000000000000000000000000000000000000000000000000000000000000000000000000
310
0000000000000000000000000000000000000000000000000000000000000000000000000000000000000000000000000000F500000028000000000000000000000000000000280000000000000000000000000000002800000000000000000000000000000000280000000000000000000000000000002800000000000000
310
000000000000000000000000000028000000F5000000000000000000000000000000000000000000000000000000000000000000000000000000000000000000000000000000000000000000000000000000000000000000000000000000000000000000000000000000000000000000000000000000000000000000000000
310
00000000000000000000000000000000000000000000000000000000000000000000000000000000000000000000000000000000F50000002800000000000000000000000000000028000000000000000000000000000000280000000000000000000000000000000028000000000000000000000000000000280000000000
310
0000000000000000000000000000000028000000F500000000000000000000000000000000000000000000000000000000000000000000000000000000000000000000000000000000000000000000000000000000000000000000000000000000000000000000000000000000000000000000000000000000000000000000
310
000000000000000000000000000000000000000000000000000000000000000000000000000000000000000000000000000000000000F5000000280000000000000000000000000000002800000000000000000000000000000028000000000000000000000000000000002800000000000000000000000000000028000000
310
00000000000000000000000000000000000028000000F50000000000000000000000000000000000000000000000000000000000000000000000000000000000000000000000000000000000000000000000000000000000000000000000000000000000000000000000000000000000000000000000000000000000000000
310
0000000000000000000000000000000000000000000000000000000000000000000000000000000000000000000000000000000000000000F500000028000000000000000000000000000000280000000000000000000000000000002800000000000000000000000000000000280000000000000000000000000000002800
310
000000000000000000000000000000000000000028000000F5000000000000000000000000000000000000000000000000000000000000000000000000000000000000000000000000000000000000000000000000000000000000000000000000000000000000000000000000000000000000000000000000000000000000
310
00000000000000000000000000000000000000000000000000000000000000000000000000000000000000000000000000000000000000000000F50000002800000000000000000000000000000028000000000000000000000000000000280000000000000000000000000000000028000000000000000000000000000000
310
2800000000000000000000000000000000000000000028000000F500000000000000000000000000000000000000000000000000000000000000000000000000000000000000000000000000000000000000000000000000000000000000000000000000000000000000000000000000000000000000000000000000000000
310
000000000000000000000000000000000000000000000000000000000000000000000000000000000000000000000000000000000000000000000000F5000000280000000000000000000000000000002800000000000000000000000000000028000000000000000000000000000000002800000000000000000000000000
310
00002800000000000000000000000000000000000000000028000000F50000000000000000000000000000000000000000000000000000000000000000000000000000000000000000000000000000000000000000000000000000000000000000000000000000000000000000000000000000000000000000000000000000
310
0000000000000000000000000000000000000000000000000000000000000000000000000000000000000000000000000000000000000000000000000000F500000028000000000000000000000000000000280000000000000000000000000000002800000000000000000000000000000000280000000000000000000000
310
000000002800000000000000000000000000000000000000000028000000F5000000000000000000000000000000000000000000000000000000000000000000000000000000000000000000000000000000000000000000000000000000000000000000000000000000000000000000000000000000000000000000000000
310
00000000000000000000000000000000000000000000000000000000000000000000000000000000000000000000000000000000000000000000000000000000F50000002800000000000000000000000000000028000000000000000000000000000000280000000000000000000000000000000028000000000000000000
310
0000000000002800000000000000000000000000000000000000000028000000F500000000000000000000000000000000000000000000000000000000000000000000000000000000000000000000000000000000000000000000000000000000000000000000000000000000000000000000000000000000000000000000
310
000000000000000000000000000000000000000000000000000000000000000000000000000000000000000000000000000000000000000000000000000000000000F5000000280000000000000000000000000000002800000000000000000000000000000028000000000000000000000000000000002800000000000000
310
00000000000000002800000000000000000000000000000000000000000028000000F50000000000000000000000000000000000000000000000000000000000000000000000000000000000000000000000000000000000000000000000000000000000000000000000000000000000000000000000000000000000000000
310
0000000000000000000000000000000000000000000000000000000000000000000000000000000000000000000000000000000000000000000000000000000000000000F500000028000000000000000000000000000000280000000000000000000000000000002800000000000000000000000000000000280000000000
310
000000000000000000002800000000000000000000000000000000000000000028000000F5000000000000000000000000000000000000000000000000000000000000000000000000000000000000000000000000000000000000000000000000000000000000000000000000000000000000000000000000000000000000
310
00000000000000000000000000000000000000000000000000000000000000000000000000000000000000000000000000000000000000000000000000000000000000000000F50000002800000000000000000000000000000028000000000000000000000000000000280000000000000000000000000000000028000000
310
0000000000000000000000002800000000000000000000000000000000000000000028000000F500000000000000000000000000000000000000000000000000000000000000000000000000000000000000000000000000000000000000000000000000000000000000000000000000000000000000000000000000000000
310
000000000000000000000000000000000000000000000000000000000000000000000000000000000000000000000000000000000000000000000000000000000000000000000000F5000000282828282828282828282828282828282828282828282828282828282828282828282828282828282828282828282828282828
310
28282828282828282828282828282800000000000000000000000000000000000000000028000000F50000000000000000000000000000000000000000000000000000000000000000000000000000000000000000000000000000000000000000000000000000000000000000000000000000000000000000000000000000
310
0000000000000000000000000000000000000000000000000000000000000000000000000000000000000000000000000000000000000000000000000000000000000000000000000000F500000028000000000000000000000000000000280000000000000000000000000000002800000000000000000000000000000000
310
280000000000000000000000000000002800000000000000000000000000000000000000000028000000F5000000000000000000000000000000000000000000000000000000000000000000000000000000000000000000000000000000000000000000000000000000000000000000000000000000000000000000000000
310
00000000000000000000000000000000000000000000000000000000000000000000000000000000000000000000000000000000000000000000000000000000000000000000000000000000F50000002828282828282828282828282828282828282828282828282828282828282828282828282828282828282828282828
310
2828282828282828282828282828282828282800000000000000000000000000000000000000000028000000F500000000000000000000000000000000000000000000000000000000000000000000000000000000000000000000000000000000000000000000000000000000000000000000000000000000000000000000
310
000000000000000000000000000000000000000000000000000000000000000000000000000000000000000000000000000000000000000000000000000000000000000000000000000000000000F5000000280000000000000000000000000000002800000000000000000000000000000028000000000000000000000000
310
00000000280000000000000000000000000000002800000000000000000000000000000000000000000028000000F50000000000000000000000000000000000000000000000000000000000000000000000000000000000000000000000000000000000000000000000000000000000000000000000000000000000000000
310
0000000000000000000000000000000000000000000000000000000000000000000000000000000000000000000000000000000000000000000000000000000000000000000000000000000000000000F500000028000000000000000000000000000000280000000000000000000000000000002800000000000000000000
310
00000000000028F5F5F5F5F5F50000000000000000002800000000000000000000000000000000000000000028000000F5000000000000000000000000000000000000000000000000000000000000000000000000000000000000000000000000000000000000000000000000000000000000000000000000000000000000
310
00000000000000000000000000000000000000000000000000000000000000000000000000000000000000000000000000000000000000000000000000000000000000000000000000000000000000000000F5000000280000000000000000C3C3C3C3C3C3C3C3000000000000000000000000000000280000000000000000
310
000000000000000028F500000000F500C3C3C3C3C3C3C3C32800000000000000000000000000000000000000000028000000F500000000000000000000000000000000000000000000000000000000000000000000000000000000000000000000000000000000000000000000000000000000000000000000000000000000
310
000000000000000000000000000000000000000000000000000000000000000000000000000000000000000000000000000000000000000000000000000000000000000000000000000000000000000000000000F500000028000000F5F5280028C3C3C3C3C3C3C3280000F500000000280000000000000028000000000000
310
0028280000000000000028F500000000F500C3C3C3C3C3C3C3C3C300000000000000000000000000000000000000000028000000F50000000000000000000000000000000000000000000000000000000000000000000000000000000000000000000000000000000000000000000000000000000000000000000000000000
310
0000000000000000000000000000000000000000000000000000000000000000000000000000000000000000000000000000000000000000000000000000000000000000000000000000000000000000000000000000F500000028000000F5F5F500C328C3C3C3C3C3C328000000F500000028000000000000002800000000
310
F5F50028C3C3C3C3C3C3C30028F5F50000F5F5C3C3C3C3C3C3C3C3C3C300000000000000000000000000000000000000000028000000F5000000000000000000000000000000000000000000000000000000000000000000000000000000000000000000000000000000000000000000000000000000000000000000000000
310
00000000000000000000000000000000000000000000000000000000000000000000000000000000000000000000000000000000000000000000000000000000000000000000000000000000000000000000000000000000F500000028000000F5F5F500C3F5F5F5000000002800000000F5000028F5F50000000000280000
310
0000F5F5F528F5F5F50000000000280F000000000FC3F5F50000000000002800000000000000000000000000000000000000000028000000F500000000000000000000000000000000000000000000000000000000000000000000000000000000000000000000000000000000000000000000000000000000000000000000
310
000000000000000000000000000000000000000000000000000000000000000000000000000000000000000000000000000000000000000000000000000000000000000000000000000000000000000000000000000000000000F500000028000000000028C3F5BEBEF5000000002800000000F50000BEBEF5F50000000028
310
00F5000000F500C3BEBEF50000000000280F00000000C3BEBEF50000000000002800000000000000000000000000000000000000000028000000F50000000000000000000000000000000000000000000000000000000000000000000000000000000000000000000000000000000000000000000000000000000000000000
310
0000000000000000000000000000000000000000000000000000000000000000000000000000000000000000000000000000000000000000000000000000000000000000000000000000000000000000000000000000000000000000F500000028000000000028C3C3BE00F500000000280000000000F500BE00BEF5000000
310
0028000000F5000000C3BE00F50000000000280F000000000FBE00F50000000000002800000000000000000000000000000000000000000028000000F5000000000000000000000000000000000000000000000000000000000000000000000000000000000000000000000000000000000000000000000000000000000000
310
00000000000000000000000000000000000000000000000000000000000000000000000000000000000000000000000000000000000000000000000000000000000000000000000000000000000000000000000000000000000000000000F5000000280000000000C3F5C3BEBEF5000000002800C3C3C3C3C3F5BEBEBEF500
310
00000028F5000000000000C3BEBEF50000000000280F000000000FBEBEF5F500000000002800000000000000000000000000000000000000000028000000F500000000000000000000000000000000000000000000000000000000000000000000000000000000000000000000000000000000000000000000000000000000
310
000000000000000000000000000000000000000000000000000000000000000000000000000000000000000000000000000000000000000000000000000000000000000000000000000000000000000000000000000000000000000000000000F5000000F5000000000028C3F5BEBEF5000000002800C3C3C3C3C3C3BEBEF5
310
F50000000028F5F50000000000C3BEBEF50000000000280F000000000FBEBEF5F500000000002800000000000000000000000000000000000000000028000000F50000000000000000000000000000000000000000000000000000000000000000000000000000000000000000000000000000000000000000000000000000
310
0000000000000000000000000000000000000000000000000000000000000000000000000000000000000000000000000000000000000000000000000000000000000000000000000000000000000000000000000000000000000000000000000000F500000028F50000000028C3F5BEDCF500000000280000F5F5F5F500C3
310
F500F5000000002800F5F5000000C328BEDCF50000000000280F00000000F5BE00F5F500000000002800000000000000000000000000000000000000000028000000F5000000000000000000000000000000000000000000000000000000000000000000000000000000000000000000000000000000000000000000000000
310
00000000000000000000000000000000000000000000000000000000000000000000000000000000000000000000000000000000000000000000000000000000000000000000000000000000000000000000000000000000000000000000000000000000F50000002800F5C3C3C3C3C3C3BEC3F5C300000028000000F5F5F5
310
DCC3DCC3F500000000280000F5C3C3C3C3C3BEC3F5C300000000280F000000C3C3BEC3F5F500000000002800000000000000000000000000000000000000000028000000F500000000000000000000000000000000000000000000000000000000000000000000000000000000000000000000000000000000000000000000
310
000000000000000000000000000000000000000000000000000000000000000000000000000000000000000000000000000000000000000000000000000000000000000000000000000000000000000000000000000000000000000000000000000000000000F500000028F5F5F500DC28F5F5BEDCF500000000280000C3C3
310
C3C3C3C32D00F50000000028F5F500F5DC000028BEDCF50000000000280F000000000FBEC3F5F500000000002800000000000000000000000000000000000000000028000000F50000000000000000000000000000000000000000000000000000000000000000000000000000000000000000000000000000000000000000
310
0000000000000000000000000000000000000000000000000000000000000000000000000000000000000000000000000000000000000000000000000000000000000000000000000000000000000000000000000000000000000000000000000000000000000000F500000028F5F5F5F50028F5F5BEF5F500000000280000
310
C3C3C3C3C3BEF5F5F50000000028F5F5F500F5000028BEF5F50000000000280F000000000FBEF5F5F5C3C3C3C3C328ECEC0000000000000000000000000000000000000028000000F5000000000000000000000000000000000000000000000000000000000000000000000000000000000000000000000000000000000000
310
00000000000000000000000000000000000000000000000000000000000000000000000000000000000000000000000000000000000000000000000000000000000000000000000000000000000000000000000000000000000000000000000000000000000000000000F500000028F5F5F5F5F5F5F5F5BEBEBE0000000028
310
0000000000F5F5BEBEBEF50000000028F5F5F500F5F50028BEBEBE0000000000280F000000000FBEBEBEF500000000002828282828282828282828282828282828282828282828000000F500000000000000000000000000000000000000000000000000000000000000000000000000000000000000000000000000000000
310
000000000000000000000000000000000000000000000000000000000000000000000000000000000000000000000000000000000000000000000000000000000000000000000000000000000000000000000000000000000000000000000000000000000000000000000000F50000002800F50000F5F500F5BE00BE000000
310
002800F500000000F5BE00BEF5000000002800F5F500F5F5F528BE00BE0000000000280F000000000FBE00BE0000000000002800000000000000000000000000000000000000000028000000F50000000000000000000000000000000000000000000000000000000000000000000000000000000000000000000000000000
310
0000000000000000000000000000000000000000000000000000000000000000000000000000000000000000000000000000000000000000000000000000000000000000000000000000000000000000000000000000000000000000000000000000000000000000000000000000F500000028F5F50000F5F500F5BEBEBE00
310
000000280000F500000000BEBEBEF500000000280000F500F500F528BEBEBE0000000000280F000000000FBEBEBE0000000000002800000000000000000000000000000000000000000028000000F5000000000000000000000000000000000000000000000000000000000000000000000000000000000000000000000000
310
00000000000000000000000000000000000000000000000000000000000000000000000000000000000000000000000000000000000000000000000000000000000000000000000000000000000000000000000000000000000000000000000000000000000000000000000000000000F500000028F500F5F5F5F50028F5F5
310
F50000000028000000F5000000F5F5F5000000000028000000F5F5F50028F5F5F50000000000280F000000000FF5F5F50000000000002800000000000000000000000000000000000000000028000000F500000000000000000000000000000000000000000000000000000000000000000000000000000000000000000000
310
000000000000000000000000000000000000000000000000000000000000000000000000000000000000000000000000000000000000000000000000000000000000000000000000000000000000000000000000000000000000000000000000000000000000000000000000000000000000F5000000280000F5F5F5F500F5
310
280000000000002800000000F50000280000000000000028000000F5F5F500282800000000000000280F000000000F28000000000000000028ECEC0000000000000000000000000000000000000028000000F50000000000000000000000000000000000000000000000000000000000000000000000000000000000000000
310
0000000000000000000000000000000000000000000000000000000000000000000000000000000000000000000000000000000000000000000000000000000000000000000000000000000000000000000000000000000000000000000000000000000000000000000000000000000000000000F5000000280000F5F50028
310
00F5F5000000000000280000000000F500280000000000000028000000F5F5F500282800000000000000280F000000000F2800000000000000002828282828282828282828282828282828282828282828000000F5000000000000000000000000000000000000000000000000000000000000000000000000000000000000
310
00000000000000000000000000000000000000000000000000000000000000000000000000000000000000000000000000000000000000000000000000000000000000000000000000000000000000000000000000000000000000000000000000000000000000000000000000000000000000000000F5000000280000F500
310
00280028F500000000000028000000000000F528000000000000002800F5F500F5F500282800000000000000280F000000000F2800000000000000002800000000000000ECECECECECECEC0000000000000028000000F500000000000000000000000000000000000000000000000000000000000000000000000000000000
310
000000000000000000000000000000000000000000000000000000000000000000000000000000000000000000000000000000000000000000000000000000000000000000000000000000000000000000000000000000000000000000000000000000000000000000000000000000000000000000000000F5000000280000
310
00F5F52800F5280000000000002800F5000000000028000000000000002800F5F5F5F5F5F5282800000000000000280F000000000FC30000000000000000280000000000ECECECECECECECECECEC00000000000028000000F50000000000000000000000000000000000000000000000000000000000000000000000000000
310
0000000000000000000000000000000000000000000000000000000000000000000000000000000000000000000000000000000000000000000000000000000000000000000000000000000000000000000000000000000000000000000000000000000000000000000000000000000000000000000000000000F500000028
310
000000F5F5F500F5F5000000000000280000F50000000028000000000000002800F5F5F5F5F5F5282800000000000000280F000000C30FC3C30000000000000028ECEC000000ECECECECECECECECECEC00000000000028000000F5000000000000000000000000000000000000000000000000000000000000000000000000
310
00000000000000000000000000000000000000000000000000000000000000000000000000000000000000000000000000000000000000000000000000000000000000000000000000000000000000000000000000000000000000000000000000000000000000000000000000000000000000000000000000000000F50000
310
0028000000F5F5F500C3F500000000000028000000F50000002800000000000000280000000000F500282800000000000000280F00000000C32800C3C300000000002828282828282828282828282828282828282828282828000000F500000000000000000000000000000000000000000000000000000000000000000000
310
000000000000000000000000000000000000000000000000000000000000000000000000000000000000000000000000000000000000000000000000000000000000000000000000000000000000000000000000000000000000000000000000000000000000000000000000000000000000000000000000000000000000F5
310
0000002800000000002800F5C30000000000002800000000F5000028000000000000002800000000000000282800000000000000280F000000000FC300C3C300000000002800002828282828282828282828282828282828282828000000F50000000000000000000000000000000000000000000000000000000000000000
310
00000000000000000000000000000000000000000000000000000000000000000000000000000000000000000000000000000000000000000000000000000000000000000000000000000000000000000000000000000000000000000000000000000000000000000000000000000000000000000000000000000000000000
310
00F50000002800000000002800F5C3C3C300000000280000000000F500280000000000000028000000000000002828000000000000002800000000000000C3C3C300000000002800002828282828282828282828282828282828282828000000F5000000000000000000000000000000000000000000000000000000000000
310
00000000000000000000000000000000000000000000000000000000000000000000000000000000000000000000000000000000000000000000000000000000000000000000000000000000000000000000000000000000000000000000000000000000000000000000000000000000000000000000000000000000000000
310
000000F500000028000000000000000000C3C300000000280000000000000000000000000000002800000000000000000000000000000000280000000000000000000000000000002800282828282828282828282828282828282828282828000000F500000000000000000000000000000000000000000000000000000000
310
00000000000000000000000000000000000000000000000000000000000000000000000000000000000000000000000000000000000000000000000000000000000000000000000000000000000000000000000000000000000000000000000000000000000000000000000000000000000000000000000000000000000000
310
0000000000F500000028282828282828282828282828282828282828282828282828282828282828282828282828282828282828282828282828282828282828282828282828282828282800282828280028282828282828282828282828282828000000F50000000000000000000000000000000000000000000000000000
310
00000000000000000000000000000000000000000000000000000000000000000000000000000000000000000000000000000000000000000000000000000000000000000000000000000000000000000000000000000000000000000000000000000000000000000000000000000000000000000000000000000000000000
310
00000000000000F5000000280000000000ECECECEC000000000000280000000000ECECECECEC00000000002800000000ECECECECECECEC000000000028000000ECECECECECECECEC000000002800002828282828282828282828282828282800000028000000F5000000000000000000000000000000000000000000000000
310
00000000000000000000000000000000000000000000000000000000000000000000000000000000000000000000000000000000000000000000000000000000000000000000000000000000000000000000000000000000000000000000000000000000000000000000000000000000000000000000000000000000000000
310
000000000000000000F5000000280000000000ECECECEC000000000000280000000000ECECECECEC00000000002800000000ECECECECECECEC000000000028000000ECECECECECECECEC000000002800002828282800000000000000000000000000000028000000F500000000000000000000000000000000000000000000
310
00000000000000000000000000000000000000000000000000000000000000000000000000000000000000000000000000000000000000000000000000000000000000000000000000000000000000000000000000000000000000000000000000000000000000000000000000000000000000000000000000000000000000
310
0000000000000000000000F500000028282828282828282828282828282828282828282828282828282828282828282828282828282828282828282828282828282828282828282828282828282828282828282828282828282828282828282828282828282828000000F50000000000000000000000000000000000000000
310
00000000000000000000000000000000000000000000000000000000000000000000000000000000000000000000000000000000000000000000000000000000000000000000000000000000000000000000000000000000000000000000000000000000000000000000000000000000000000000000000000000000000000
310
00000000000000000000000000F500000000000000000000000000000000000000000000000000000000000000000000000000000000000000000000000000000000000000000000000000000000000000000000000000000000000000000000000000000000000000000000F5000000000000000000000000000000000000
310
00000000000000000000000000000000000000000000000000000000000000000000000000000000000000000000000000000000000000000000000000000000000000000000000000000000000000000000000000000000000000000000000000000000000000000000000000000000000000000000000000000000000000
310
000000000000000000000000000000F5F5F5F5F5F5F5F5F5F5F5F5F5F5F5F5F5F5F5F5F5F5F5F5F5F5F5F5F5F5F5F5F5F5F5F5F5F5F5F5F5F5F5F5F5F5F5F5F5F5F5F5F5F5F5F5F5F5F5F5F5F5F5F5F5F5F5F5F5F5F5F5F5F5F5F5F5F5F5F5F5F5F5F5F5F5F5F5F5F5F5F5F5F5F5F500000000000000000000000000000000
310
00000000000000000000000000000000000000000000000000000000000000000000000000000000000000000000000000000000000000000000000000000000000000000000000000000000000000000000000000000000000000000000000000000000000000000000000000000000000000000000000000000000000000
310
00000000000000000000000000000000000000000000000000000000000000000000000000000000000000000000000000000000000000000000000000000000000000000000000000000000000000000000000000000000000000000000000000000000000000000000000000000000000000000000000000000000000000
310
000000000000000000000000000000000000000000000000000000000000000000000000000000000000000000000000000000000000000000000000000000000000
  0
XRECORD
  5
1178
102
{ACAD_REACTORS
330
1177
102
}
330
1177
100
AcDbXrecord
280
     1
102
SHADEPLOT
 70
     0
102
SHADEPLOTRESLEVEL
 70
     2
102
SHADEPLOTCUSTOMDPI
 70
   300
  0
XRECORD
  5
117A
102
{ACAD_REACTORS
330
1039
102
}
330
1039
100
AcDbXrecord
280
     1
102
MATERIAL
148
0.0
149
0.0
149
0.0
 93
        0
 94
      127
282
     0
 72
     0
 77
     0
171
     0
175
     0
179
     0
273
     0
  0
XRECORD
  5
103B
102
{ACAD_REACTORS
330
1039
102
}
330
1039
100
AcDbXrecord
280
     1
270
     1
271
     1
  0
XRECORD
  5
103A
102
{ACAD_REACTORS
330
1039
102
}
330
1039
100
AcDbXrecord
280
     1
270
     1
271
     1
  0
XRECORD
  5
103E
102
{ACAD_REACTORS
330
1039
102
}
330
1039
100
AcDbXrecord
280
     1
270
     1
271
     1
  0
XRECORD
  5
103D
102
{ACAD_REACTORS
330
1039
102
}
330
1039
100
AcDbXrecord
280
     1
270
     1
271
     1
  0
XRECORD
  5
103F
102
{ACAD_REACTORS
330
1039
102
}
330
1039
100
AcDbXrecord
280
     1
270
     1
271
     1
  0
XRECORD
  5
103C
102
{ACAD_REACTORS
330
1039
102
}
330
1039
100
AcDbXrecord
280
     1
270
     1
271
     1
  0
XRECORD
  5
1179
102
{ACAD_REACTORS
330
1031
102
}
330
1031
100
AcDbXrecord
280
     1
102
MATERIAL
148
0.0
149
0.0
149
0.0
 93
        0
 94
      127
282
     0
 72
     0
 77
     0
171
     0
175
     0
179
     0
273
     0
  0
XRECORD
  5
1033
102
{ACAD_REACTORS
330
1031
102
}
330
1031
100
AcDbXrecord
280
     1
270
     1
271
     1
  0
XRECORD
  5
1032
102
{ACAD_REACTORS
330
1031
102
}
330
1031
100
AcDbXrecord
280
     1
270
     1
271
     1
  0
XRECORD
  5
1036
102
{ACAD_REACTORS
330
1031
102
}
330
1031
100
AcDbXrecord
280
     1
270
     1
271
     1
  0
XRECORD
  5
1035
102
{ACAD_REACTORS
330
1031
102
}
330
1031
100
AcDbXrecord
280
     1
270
     1
271
     1
  0
XRECORD
  5
1037
102
{ACAD_REACTORS
330
1031
102
}
330
1031
100
AcDbXrecord
280
     1
270
     1
271
     1
  0
XRECORD
  5
1034
102
{ACAD_REACTORS
330
1031
102
}
330
1031
100
AcDbXrecord
280
     1
270
     1
271
     1
  0
XRECORD
  5
117B
102
{ACAD_REACTORS
330
1041
102
}
330
1041
100
AcDbXrecord
280
     1
102
MATERIAL
148
0.0
149
0.0
149
0.0
 93
        0
 94
      127
282
     0
 72
     0
 77
     0
171
     0
175
     0
179
     0
273
     0
  0
XRECORD
  5
1043
102
{ACAD_REACTORS
330
1041
102
}
330
1041
100
AcDbXrecord
280
     1
270
     1
271
     1
  0
XRECORD
  5
1042
102
{ACAD_REACTORS
330
1041
102
}
330
1041
100
AcDbXrecord
280
     1
270
     1
271
     1
  0
XRECORD
  5
1046
102
{ACAD_REACTORS
330
1041
102
}
330
1041
100
AcDbXrecord
280
     1
270
     1
271
     1
  0
XRECORD
  5
1045
102
{ACAD_REACTORS
330
1041
102
}
330
1041
100
AcDbXrecord
280
     1
270
     1
271
     1
  0
XRECORD
  5
1047
102
{ACAD_REACTORS
330
1041
102
}
330
1041
100
AcDbXrecord
280
     1
270
     1
271
     1
  0
XRECORD
  5
1044
102
{ACAD_REACTORS
330
1041
102
}
330
1041
100
AcDbXrecord
280
     1
270
     1
271
     1
  0
XRECORD
  5
1172
102
{ACAD_REACTORS
330
1171
102
}
330
1171
100
AcDbXrecord
280
     1
102
ACAD_ROUNDTRIP_2012_MLEADER_STYLE
298
     1
  0
CELLSTYLEMAP
  5
1170
102
{ACAD_REACTORS
330
116F
102
}
330
116F
100
AcDbCellStyleMap
 90
        3
300
CELLSTYLE
  1
TABLEFORMAT_BEGIN
 90
        5
170
     1
 91
        0
 92
    32768
 62
   257
 93
        1
300
CONTENTFORMAT
  1
CONTENTFORMAT_BEGIN
 90
        0
 91
        0
 92
        4
 93
        0
300

 40
0.0
140
1.0
 94
        5
 62
     0
340
7
144
0.25
309
CONTENTFORMAT_END
171
     0
 94
        6
 95
        1
302
GRIDFORMAT
  1
GRIDFORMAT_BEGIN
 90
        0
 91
        1
 62
     0
 92
       -2
340
0
 93
        0
 40
0.045
309
GRIDFORMAT_END
 95
        2
302
GRIDFORMAT
  1
GRIDFORMAT_BEGIN
 90
        0
 91
        1
 62
     0
 92
       -2
340
0
 93
        0
 40
0.045
309
GRIDFORMAT_END
 95
        4
302
GRIDFORMAT
  1
GRIDFORMAT_BEGIN
 90
        0
 91
        1
 62
     0
 92
       -2
340
0
 93
        0
 40
0.045
309
GRIDFORMAT_END
 95
        8
302
GRIDFORMAT
  1
GRIDFORMAT_BEGIN
 90
        0
 91
        1
 62
     0
 92
       -2
340
0
 93
        0
 40
0.045
309
GRIDFORMAT_END
 95
       16
302
GRIDFORMAT
  1
GRIDFORMAT_BEGIN
 90
        0
 91
        1
 62
     0
 92
       -2
340
0
 93
        0
 40
0.045
309
GRIDFORMAT_END
 95
       32
302
GRIDFORMAT
  1
GRIDFORMAT_BEGIN
 90
        0
 91
        1
 62
     0
 92
       -2
340
0
 93
        0
 40
0.045
309
GRIDFORMAT_END
309
TABLEFORMAT_END
  1
CELLSTYLE_BEGIN
 90
        1
 91
        1
300
_TITLE
309
CELLSTYLE_END
300
CELLSTYLE
  1
TABLEFORMAT_BEGIN
 90
        5
170
     1
 91
        0
 92
        0
 62
   257
 93
        1
300
CONTENTFORMAT
  1
CONTENTFORMAT_BEGIN
 90
        0
 91
        0
 92
        4
 93
        0
300

 40
0.0
140
1.0
 94
        5
 62
     0
340
7
144
0.18
309
CONTENTFORMAT_END
171
     0
 94
        6
 95
        1
302
GRIDFORMAT
  1
GRIDFORMAT_BEGIN
 90
        0
 91
        1
 62
     0
 92
       -2
340
0
 93
        0
 40
0.045
309
GRIDFORMAT_END
 95
        2
302
GRIDFORMAT
  1
GRIDFORMAT_BEGIN
 90
        0
 91
        1
 62
     0
 92
       -2
340
0
 93
        0
 40
0.045
309
GRIDFORMAT_END
 95
        4
302
GRIDFORMAT
  1
GRIDFORMAT_BEGIN
 90
        0
 91
        1
 62
     0
 92
       -2
340
0
 93
        0
 40
0.045
309
GRIDFORMAT_END
 95
        8
302
GRIDFORMAT
  1
GRIDFORMAT_BEGIN
 90
        0
 91
        1
 62
     0
 92
       -2
340
0
 93
        0
 40
0.045
309
GRIDFORMAT_END
 95
       16
302
GRIDFORMAT
  1
GRIDFORMAT_BEGIN
 90
        0
 91
        1
 62
     0
 92
       -2
340
0
 93
        0
 40
0.045
309
GRIDFORMAT_END
 95
       32
302
GRIDFORMAT
  1
GRIDFORMAT_BEGIN
 90
        0
 91
        1
 62
     0
 92
       -2
340
0
 93
        0
 40
0.045
309
GRIDFORMAT_END
309
TABLEFORMAT_END
  1
CELLSTYLE_BEGIN
 90
        2
 91
        1
300
_HEADER
309
CELLSTYLE_END
300
CELLSTYLE
  1
TABLEFORMAT_BEGIN
 90
        5
170
     1
 91
        0
 92
        0
 62
   257
 93
        1
300
CONTENTFORMAT
  1
CONTENTFORMAT_BEGIN
 90
        0
 91
        0
 92
        4
 93
        0
300

 40
0.0
140
1.0
 94
        2
 62
     0
340
7
144
0.18
309
CONTENTFORMAT_END
171
     0
 94
        6
 95
        1
302
GRIDFORMAT
  1
GRIDFORMAT_BEGIN
 90
        0
 91
        1
 62
     0
 92
       -2
340
0
 93
        0
 40
0.045
309
GRIDFORMAT_END
 95
        2
302
GRIDFORMAT
  1
GRIDFORMAT_BEGIN
 90
        0
 91
        1
 62
     0
 92
       -2
340
0
 93
        0
 40
0.045
309
GRIDFORMAT_END
 95
        4
302
GRIDFORMAT
  1
GRIDFORMAT_BEGIN
 90
        0
 91
        1
 62
     0
 92
       -2
340
0
 93
        0
 40
0.045
309
GRIDFORMAT_END
 95
        8
302
GRIDFORMAT
  1
GRIDFORMAT_BEGIN
 90
        0
 91
        1
 62
     0
 92
       -2
340
0
 93
        0
 40
0.045
309
GRIDFORMAT_END
 95
       16
302
GRIDFORMAT
  1
GRIDFORMAT_BEGIN
 90
        0
 91
        1
 62
     0
 92
       -2
340
0
 93
        0
 40
0.045
309
GRIDFORMAT_END
 95
       32
302
GRIDFORMAT
  1
GRIDFORMAT_BEGIN
 90
        0
 91
        1
 62
     0
 92
       -2
340
0
 93
        0
 40
0.045
309
GRIDFORMAT_END
309
TABLEFORMAT_END
  1
CELLSTYLE_BEGIN
 90
        3
 91
        2
300
_DATA
309
CELLSTYLE_END
  0
XRECORD
  5
1175
102
{ACAD_REACTORS
330
116F
102
}
330
116F
100
AcDbXrecord
280
     1
102
ACAD_ROUNDTRIP_PRE2007_TABLESTYLE
 90
        4
 91
        0
  1

 92
        4
 93
        0
  2

 94
        4
 95
        0
  3

  0
XRECORD
  5
1187
102
{ACAD_REACTORS
330
1186
102
}
330
1186
100
AcDbXrecord
280
     1
102
RTVSPropertyOp0
 70
     1
102
RTVSPropertyOp1
 70
     1
102
RTVSPropertyOp2
 70
     1
102
RTVSPropertyOp3
 70
     1
102
RTVSPropertyOp4
 70
     1
102
RTVSPropertyOp5
 70
     1
102
RTVSPropertyOp6
 70
     1
102
RTVSPropertyOp7
 70
     1
102
RTVSPropertyOp8
 70
     1
102
RTVSPropertyOp9
 70
     1
102
RTVSPropertyOp10
 70
     1
102
RTVSPropertyOp11
 70
     1
102
RTVSPropertyOp12
 70
     1
102
RTVSPropertyOp13
 70
     1
102
RTVSPropertyOp14
 70
     1
102
RTVSPropertyOp15
 70
     1
102
RTVSPropertyOp16
 70
     1
102
RTVSPropertyOp17
 70
     1
102
RTVSPropertyOp18
 70
     1
102
RTVSPropertyOp19
 70
     1
102
RTVSPropertyOp20
 70
     1
102
RTVSPropertyOp21
 70
     1
102
RTVSPropertyOp22
 70
     1
102
RTVSPropertyOp23
 70
     1
102
RTVSPropertyOp24
 70
     1
102
RTVSPropertyOp25
 70
     1
102
RTVSPropertyOp26
 70
     1
102
RTVSPropertyOp27
 70
     1
102
RTVSPropertyOp28
 70
     1
102
RTVSPropertyOp29
 70
     1
102
RTVSPropertyOp30
 70
     1
102
RTVSPropertyOp31
 70
     1
102
RTVSPropertyOp32
 70
     1
  0
XRECORD
  5
1185
102
{ACAD_REACTORS
330
1184
102
}
330
1184
100
AcDbXrecord
280
     1
102
RTVSPropertyOp0
 70
     1
102
RTVSPropertyOp1
 70
     1
102
RTVSPropertyOp2
 70
     1
102
RTVSPropertyOp3
 70
     1
102
RTVSPropertyOp4
 70
     1
102
RTVSPropertyOp5
 70
     1
102
RTVSPropertyOp6
 70
     1
102
RTVSPropertyOp7
 70
     1
102
RTVSPropertyOp8
 70
     1
102
RTVSPropertyOp9
 70
     1
102
RTVSPropertyOp10
 70
     1
102
RTVSPropertyOp11
 70
     1
102
RTVSPropertyOp12
 70
     1
102
RTVSPropertyOp13
 70
     1
102
RTVSPropertyOp14
 70
     1
102
RTVSPropertyOp15
 70
     1
102
RTVSPropertyOp16
 70
     1
102
RTVSPropertyOp17
 70
     1
102
RTVSPropertyOp18
 70
     1
102
RTVSPropertyOp19
 70
     1
102
RTVSPropertyOp20
 70
     1
102
RTVSPropertyOp21
 70
     1
102
RTVSPropertyOp22
 70
     1
102
RTVSPropertyOp23
 70
     1
102
RTVSPropertyOp24
 70
     1
102
RTVSPropertyOp25
 70
     1
102
RTVSPropertyOp26
 70
     1
102
RTVSPropertyOp27
 70
     1
102
RTVSPropertyOp28
 70
     1
102
RTVSPropertyOp29
 70
     1
102
RTVSPropertyOp30
 70
     1
102
RTVSPropertyOp31
 70
     1
102
RTVSPropertyOp32
 70
     1
  0
XRECORD
  5
1193
102
{ACAD_REACTORS
330
1192
102
}
330
1192
100
AcDbXrecord
280
     1
102
RTVSPropertyOp0
 70
     1
102
RTVSPropertyOp1
 70
     1
102
RTVSPropertyOp2
 70
     1
102
RTVSPropertyOp3
 70
     1
102
RTVSPropertyOp4
 70
     1
102
RTVSPropertyOp5
 70
     1
102
RTVSPropertyOp6
 70
     1
102
RTVSPropertyOp7
 70
     1
102
RTVSPropertyOp8
 70
     1
102
RTVSPropertyOp9
 70
     1
102
RTVSPropertyOp10
 70
     1
102
RTVSPropertyOp11
 70
     1
102
RTVSPropertyOp12
 70
     1
102
RTVSPropertyOp13
 70
     1
102
RTVSPropertyOp14
 70
     1
102
RTVSPropertyOp15
 70
     1
102
RTVSPropertyOp16
 70
     1
102
RTVSPropertyOp17
 70
     1
102
RTVSPropertyOp18
 70
     1
102
RTVSPropertyOp19
 70
     1
102
RTVSPropertyOp20
 70
     1
102
RTVSPropertyOp21
 70
     1
102
RTVSPropertyOp22
 70
     1
102
RTVSPropertyOp23
 70
     1
102
RTVSPropertyOp24
 70
     1
102
RTVSPropertyOp25
 70
     1
102
RTVSPropertyOp26
 70
     1
102
RTVSPropertyOp27
 70
     1
102
RTVSPropertyOp28
 70
     1
102
RTVSPropertyOp29
 70
     1
102
RTVSPropertyOp30
 70
     1
102
RTVSPropertyOp31
 70
     1
102
RTVSPropertyOp32
 70
     1
  0
XRECORD
  5
119B
102
{ACAD_REACTORS
330
119A
102
}
330
119A
100
AcDbXrecord
280
     1
102
RTVSPropertyOp0
 70
     1
102
RTVSPropertyOp1
 70
     1
102
RTVSPropertyOp2
 70
     1
102
RTVSPropertyOp3
 70
     1
102
RTVSPropertyOp4
 70
     1
102
RTVSPropertyOp5
 70
     1
102
RTVSPropertyOp6
 70
     1
102
RTVSPropertyOp7
 70
     1
102
RTVSPropertyOp8
 70
     1
102
RTVSPropertyOp9
 70
     1
102
RTVSPropertyOp10
 70
     1
102
RTVSPropertyOp11
 70
     1
102
RTVSPropertyOp12
 70
     1
102
RTVSPropertyOp13
 70
     1
102
RTVSPropertyOp14
 70
     1
102
RTVSPropertyOp15
 70
     1
102
RTVSPropertyOp16
 70
     1
102
RTVSPropertyOp17
 70
     1
102
RTVSPropertyOp18
 70
     1
102
RTVSPropertyOp19
 70
     1
102
RTVSPropertyOp20
 70
     1
102
RTVSPropertyOp21
 70
     1
102
RTVSPropertyOp22
 70
     1
102
RTVSPropertyOp23
 70
     1
102
RTVSPropertyOp24
 70
     1
102
RTVSPropertyOp25
 70
     1
102
RTVSPropertyOp26
 70
     1
102
RTVSPropertyOp27
 70
     1
102
RTVSPropertyOp28
 70
     1
102
RTVSPropertyOp29
 70
     1
102
RTVSPropertyOp30
 70
     1
102
RTVSPropertyOp31
 70
     1
102
RTVSPropertyOp32
 70
     1
  0
XRECORD
  5
118D
102
{ACAD_REACTORS
330
118C
102
}
330
118C
100
AcDbXrecord
280
     1
102
RTVSPropertyOp0
 70
     1
102
RTVSPropertyOp1
 70
     1
102
RTVSPropertyOp2
 70
     1
102
RTVSPropertyOp3
 70
     1
102
RTVSPropertyOp4
 70
     1
102
RTVSPropertyOp5
 70
     1
102
RTVSPropertyOp6
 70
     1
102
RTVSPropertyOp7
 70
     1
102
RTVSPropertyOp8
 70
     1
102
RTVSPropertyOp9
 70
     1
102
RTVSPropertyOp10
 70
     1
102
RTVSPropertyOp11
 70
     1
102
RTVSPropertyOp12
 70
     1
102
RTVSPropertyOp13
 70
     1
102
RTVSPropertyOp14
 70
     1
102
RTVSPropertyOp15
 70
     1
102
RTVSPropertyOp16
 70
     1
102
RTVSPropertyOp17
 70
     1
102
RTVSPropertyOp18
 70
     1
102
RTVSPropertyOp19
 70
     1
102
RTVSPropertyOp20
 70
     1
102
RTVSPropertyOp21
 70
     1
102
RTVSPropertyOp22
 70
     1
102
RTVSPropertyOp23
 70
     1
102
RTVSPropertyOp24
 70
     1
102
RTVSPropertyOp25
 70
     1
102
RTVSPropertyOp26
 70
     1
102
RTVSPropertyOp27
 70
     1
102
RTVSPropertyOp28
 70
     1
102
RTVSPropertyOp29
 70
     1
102
RTVSPropertyOp30
 70
     1
102
RTVSPropertyOp31
 70
     1
102
RTVSPropertyOp32
 70
     1
  0
XRECORD
  5
1191
102
{ACAD_REACTORS
330
1190
102
}
330
1190
100
AcDbXrecord
280
     1
102
RTVSPropertyOp0
 70
     1
102
RTVSPropertyOp1
 70
     1
102
RTVSPropertyOp2
 70
     1
102
RTVSPropertyOp3
 70
     1
102
RTVSPropertyOp4
 70
     1
102
RTVSPropertyOp5
 70
     1
102
RTVSPropertyOp6
 70
     1
102
RTVSPropertyOp7
 70
     1
102
RTVSPropertyOp8
 70
     1
102
RTVSPropertyOp9
 70
     1
102
RTVSPropertyOp10
 70
     1
102
RTVSPropertyOp11
 70
     1
102
RTVSPropertyOp12
 70
     1
102
RTVSPropertyOp13
 70
     1
102
RTVSPropertyOp14
 70
     1
102
RTVSPropertyOp15
 70
     1
102
RTVSPropertyOp16
 70
     1
102
RTVSPropertyOp17
 70
     1
102
RTVSPropertyOp18
 70
     1
102
RTVSPropertyOp19
 70
     1
102
RTVSPropertyOp20
 70
     1
102
RTVSPropertyOp21
 70
     1
102
RTVSPropertyOp22
 70
     1
102
RTVSPropertyOp23
 70
     1
102
RTVSPropertyOp24
 70
     1
102
RTVSPropertyOp25
 70
     1
102
RTVSPropertyOp26
 70
     1
102
RTVSPropertyOp27
 70
     1
102
RTVSPropertyOp28
 70
     1
102
RTVSPropertyOp29
 70
     1
102
RTVSPropertyOp30
 70
     1
102
RTVSPropertyOp31
 70
     1
102
RTVSPropertyOp32
 70
     1
  0
XRECORD
  5
11AB
102
{ACAD_REACTORS
330
11AA
102
}
330
11AA
100
AcDbXrecord
280
     1
102
RTVSPropertyOp0
 70
     0
102
RTVSPropertyOp1
 70
     0
102
RTVSPropertyOp2
 70
     0
102
RTVSPropertyOp3
 70
     0
102
RTVSPropertyOp4
 70
     0
102
RTVSPropertyOp5
 70
     0
102
RTVSPropertyOp6
 70
     0
102
RTVSPropertyOp7
 70
     0
102
RTVSPropertyOp8
 70
     0
102
RTVSPropertyOp9
 70
     0
102
RTVSPropertyOp10
 70
     0
102
RTVSPropertyOp11
 70
     0
102
RTVSPropertyOp12
 70
     0
102
RTVSPropertyOp13
 70
     0
102
RTVSPropertyOp14
 70
     2
102
RTVSPropertyOp15
 70
     0
102
RTVSPropertyOp16
 70
     0
102
RTVSPropertyOp17
 70
     0
102
RTVSPropertyOp18
 70
     0
102
RTVSPropertyOp19
 70
     0
102
RTVSPropertyOp20
 70
     0
102
RTVSPropertyOp21
 70
     0
102
RTVSPropertyOp22
 70
     0
102
RTVSPropertyOp23
 70
     0
102
RTVSPropertyOp24
 70
     0
102
RTVSPropertyOp25
 70
     0
102
RTVSPropertyOp26
 70
     0
102
RTVSPropertyOp27
 70
     0
102
RTVSPropertyOp28
 70
     0
102
RTVSPropertyOp29
 70
     0
102
RTVSPropertyOp30
 70
     0
102
RTVSPropertyOp31
 70
     0
102
RTVSPropertyOp32
 70
     0
  0
XRECORD
  5
1199
102
{ACAD_REACTORS
330
1198
102
}
330
1198
100
AcDbXrecord
280
     1
102
RTVSPropertyOp0
 70
     1
102
RTVSPropertyOp1
 70
     1
102
RTVSPropertyOp2
 70
     1
102
RTVSPropertyOp3
 70
     1
102
RTVSPropertyOp4
 70
     1
102
RTVSPropertyOp5
 70
     1
102
RTVSPropertyOp6
 70
     1
102
RTVSPropertyOp7
 70
     1
102
RTVSPropertyOp8
 70
     1
102
RTVSPropertyOp9
 70
     1
102
RTVSPropertyOp10
 70
     1
102
RTVSPropertyOp11
 70
     1
102
RTVSPropertyOp12
 70
     1
102
RTVSPropertyOp13
 70
     1
102
RTVSPropertyOp14
 70
     1
102
RTVSPropertyOp15
 70
     1
102
RTVSPropertyOp16
 70
     1
102
RTVSPropertyOp17
 70
     1
102
RTVSPropertyOp18
 70
     1
102
RTVSPropertyOp19
 70
     1
102
RTVSPropertyOp20
 70
     1
102
RTVSPropertyOp21
 70
     1
102
RTVSPropertyOp22
 70
     1
102
RTVSPropertyOp23
 70
     1
102
RTVSPropertyOp24
 70
     1
102
RTVSPropertyOp25
 70
     1
102
RTVSPropertyOp26
 70
     1
102
RTVSPropertyOp27
 70
     1
102
RTVSPropertyOp28
 70
     1
102
RTVSPropertyOp29
 70
     1
102
RTVSPropertyOp30
 70
     1
102
RTVSPropertyOp31
 70
     1
102
RTVSPropertyOp32
 70
     1
  0
XRECORD
  5
117D
102
{ACAD_REACTORS
330
117C
102
}
330
117C
100
AcDbXrecord
280
     1
102
RTVSPropertyOp0
 70
     1
102
RTVSPropertyOp1
 70
     1
102
RTVSPropertyOp2
 70
     1
102
RTVSPropertyOp3
 70
     1
102
RTVSPropertyOp4
 70
     1
102
RTVSPropertyOp5
 70
     1
102
RTVSPropertyOp6
 70
     1
102
RTVSPropertyOp7
 70
     1
102
RTVSPropertyOp8
 70
     1
102
RTVSPropertyOp9
 70
     1
102
RTVSPropertyOp10
 70
     1
102
RTVSPropertyOp11
 70
     1
102
RTVSPropertyOp12
 70
     1
102
RTVSPropertyOp13
 70
     1
102
RTVSPropertyOp14
 70
     1
102
RTVSPropertyOp15
 70
     1
102
RTVSPropertyOp16
 70
     1
102
RTVSPropertyOp17
 70
     1
102
RTVSPropertyOp18
 70
     1
102
RTVSPropertyOp19
 70
     1
102
RTVSPropertyOp20
 70
     1
102
RTVSPropertyOp21
 70
     1
102
RTVSPropertyOp22
 70
     1
102
RTVSPropertyOp23
 70
     1
102
RTVSPropertyOp24
 70
     1
102
RTVSPropertyOp25
 70
     1
102
RTVSPropertyOp26
 70
     1
102
RTVSPropertyOp27
 70
     1
102
RTVSPropertyOp28
 70
     1
102
RTVSPropertyOp29
 70
     1
102
RTVSPropertyOp30
 70
     1
102
RTVSPropertyOp31
 70
     1
102
RTVSPropertyOp32
 70
     1
  0
XRECORD
  5
117F
102
{ACAD_REACTORS
330
117E
102
}
330
117E
100
AcDbXrecord
280
     1
102
RTVSPropertyOp0
 70
     1
102
RTVSPropertyOp1
 70
     1
102
RTVSPropertyOp2
 70
     1
102
RTVSPropertyOp3
 70
     1
102
RTVSPropertyOp4
 70
     1
102
RTVSPropertyOp5
 70
     1
102
RTVSPropertyOp6
 70
     1
102
RTVSPropertyOp7
 70
     1
102
RTVSPropertyOp8
 70
     1
102
RTVSPropertyOp9
 70
     1
102
RTVSPropertyOp10
 70
     1
102
RTVSPropertyOp11
 70
     1
102
RTVSPropertyOp12
 70
     1
102
RTVSPropertyOp13
 70
     1
102
RTVSPropertyOp14
 70
     1
102
RTVSPropertyOp15
 70
     1
102
RTVSPropertyOp16
 70
     1
102
RTVSPropertyOp17
 70
     1
102
RTVSPropertyOp18
 70
     1
102
RTVSPropertyOp19
 70
     1
102
RTVSPropertyOp20
 70
     1
102
RTVSPropertyOp21
 70
     1
102
RTVSPropertyOp22
 70
     1
102
RTVSPropertyOp23
 70
     1
102
RTVSPropertyOp24
 70
     1
102
RTVSPropertyOp25
 70
     1
102
RTVSPropertyOp26
 70
     1
102
RTVSPropertyOp27
 70
     1
102
RTVSPropertyOp28
 70
     1
102
RTVSPropertyOp29
 70
     1
102
RTVSPropertyOp30
 70
     1
102
RTVSPropertyOp31
 70
     1
102
RTVSPropertyOp32
 70
     1
  0
XRECORD
  5
1181
102
{ACAD_REACTORS
330
1180
102
}
330
1180
100
AcDbXrecord
280
     1
102
RTVSPropertyOp0
 70
     1
102
RTVSPropertyOp1
 70
     1
102
RTVSPropertyOp2
 70
     1
102
RTVSPropertyOp3
 70
     1
102
RTVSPropertyOp4
 70
     1
102
RTVSPropertyOp5
 70
     1
102
RTVSPropertyOp6
 70
     1
102
RTVSPropertyOp7
 70
     1
102
RTVSPropertyOp8
 70
     1
102
RTVSPropertyOp9
 70
     1
102
RTVSPropertyOp10
 70
     1
102
RTVSPropertyOp11
 70
     1
102
RTVSPropertyOp12
 70
     1
102
RTVSPropertyOp13
 70
     1
102
RTVSPropertyOp14
 70
     1
102
RTVSPropertyOp15
 70
     1
102
RTVSPropertyOp16
 70
     1
102
RTVSPropertyOp17
 70
     1
102
RTVSPropertyOp18
 70
     1
102
RTVSPropertyOp19
 70
     1
102
RTVSPropertyOp20
 70
     1
102
RTVSPropertyOp21
 70
     1
102
RTVSPropertyOp22
 70
     1
102
RTVSPropertyOp23
 70
     1
102
RTVSPropertyOp24
 70
     1
102
RTVSPropertyOp25
 70
     1
102
RTVSPropertyOp26
 70
     1
102
RTVSPropertyOp27
 70
     1
102
RTVSPropertyOp28
 70
     1
102
RTVSPropertyOp29
 70
     1
102
RTVSPropertyOp30
 70
     1
102
RTVSPropertyOp31
 70
     1
102
RTVSPropertyOp32
 70
     1
  0
XRECORD
  5
1183
102
{ACAD_REACTORS
330
1182
102
}
330
1182
100
AcDbXrecord
280
     1
102
RTVSPropertyOp0
 70
     1
102
RTVSPropertyOp1
 70
     1
102
RTVSPropertyOp2
 70
     1
102
RTVSPropertyOp3
 70
     1
102
RTVSPropertyOp4
 70
     1
102
RTVSPropertyOp5
 70
     1
102
RTVSPropertyOp6
 70
     1
102
RTVSPropertyOp7
 70
     1
102
RTVSPropertyOp8
 70
     1
102
RTVSPropertyOp9
 70
     1
102
RTVSPropertyOp10
 70
     1
102
RTVSPropertyOp11
 70
     1
102
RTVSPropertyOp12
 70
     1
102
RTVSPropertyOp13
 70
     1
102
RTVSPropertyOp14
 70
     1
102
RTVSPropertyOp15
 70
     1
102
RTVSPropertyOp16
 70
     1
102
RTVSPropertyOp17
 70
     1
102
RTVSPropertyOp18
 70
     1
102
RTVSPropertyOp19
 70
     1
102
RTVSPropertyOp20
 70
     1
102
RTVSPropertyOp21
 70
     1
102
RTVSPropertyOp22
 70
     1
102
RTVSPropertyOp23
 70
     1
102
RTVSPropertyOp24
 70
     1
102
RTVSPropertyOp25
 70
     1
102
RTVSPropertyOp26
 70
     1
102
RTVSPropertyOp27
 70
     1
102
RTVSPropertyOp28
 70
     1
102
RTVSPropertyOp29
 70
     1
102
RTVSPropertyOp30
 70
     1
102
RTVSPropertyOp31
 70
     1
102
RTVSPropertyOp32
 70
     1
  0
XRECORD
  5
118B
102
{ACAD_REACTORS
330
118A
102
}
330
118A
100
AcDbXrecord
280
     1
102
RTVSPropertyOp0
 70
     1
102
RTVSPropertyOp1
 70
     1
102
RTVSPropertyOp2
 70
     1
102
RTVSPropertyOp3
 70
     1
102
RTVSPropertyOp4
 70
     1
102
RTVSPropertyOp5
 70
     1
102
RTVSPropertyOp6
 70
     1
102
RTVSPropertyOp7
 70
     1
102
RTVSPropertyOp8
 70
     1
102
RTVSPropertyOp9
 70
     1
102
RTVSPropertyOp10
 70
     1
102
RTVSPropertyOp11
 70
     1
102
RTVSPropertyOp12
 70
     1
102
RTVSPropertyOp13
 70
     1
102
RTVSPropertyOp14
 70
     1
102
RTVSPropertyOp15
 70
     1
102
RTVSPropertyOp16
 70
     1
102
RTVSPropertyOp17
 70
     1
102
RTVSPropertyOp18
 70
     1
102
RTVSPropertyOp19
 70
     1
102
RTVSPropertyOp20
 70
     1
102
RTVSPropertyOp21
 70
     1
102
RTVSPropertyOp22
 70
     1
102
RTVSPropertyOp23
 70
     1
102
RTVSPropertyOp24
 70
     1
102
RTVSPropertyOp25
 70
     1
102
RTVSPropertyOp26
 70
     1
102
RTVSPropertyOp27
 70
     1
102
RTVSPropertyOp28
 70
     1
102
RTVSPropertyOp29
 70
     1
102
RTVSPropertyOp30
 70
     1
102
RTVSPropertyOp31
 70
     1
102
RTVSPropertyOp32
 70
     1
  0
XRECORD
  5
11A7
102
{ACAD_REACTORS
330
11A6
102
}
330
11A6
100
AcDbXrecord
280
     1
102
RTVSPropertyOp0
 70
     0
102
RTVSPropertyOp1
 70
     0
102
RTVSPropertyOp2
 70
     0
102
RTVSPropertyOp3
 70
     0
102
RTVSPropertyOp4
 70
     0
102
RTVSPropertyOp5
 70
     0
102
RTVSPropertyOp6
 70
     0
102
RTVSPropertyOp7
 70
     0
102
RTVSPropertyOp8
 70
     0
102
RTVSPropertyOp9
 70
     0
102
RTVSPropertyOp10
 70
     0
102
RTVSPropertyOp11
 70
     0
102
RTVSPropertyOp12
 70
     0
102
RTVSPropertyOp13
 70
     0
102
RTVSPropertyOp14
 70
     2
102
RTVSPropertyOp15
 70
     0
102
RTVSPropertyOp16
 70
     0
102
RTVSPropertyOp17
 70
     0
102
RTVSPropertyOp18
 70
     0
102
RTVSPropertyOp19
 70
     0
102
RTVSPropertyOp20
 70
     0
102
RTVSPropertyOp21
 70
     0
102
RTVSPropertyOp22
 70
     0
102
RTVSPropertyOp23
 70
     0
102
RTVSPropertyOp24
 70
     0
102
RTVSPropertyOp25
 70
     0
102
RTVSPropertyOp26
 70
     0
102
RTVSPropertyOp27
 70
     0
102
RTVSPropertyOp28
 70
     0
102
RTVSPropertyOp29
 70
     0
102
RTVSPropertyOp30
 70
     0
102
RTVSPropertyOp31
 70
     0
102
RTVSPropertyOp32
 70
     0
  0
XRECORD
  5
1197
102
{ACAD_REACTORS
330
1196
102
}
330
1196
100
AcDbXrecord
280
     1
102
RTVSPropertyOp0
 70
     1
102
RTVSPropertyOp1
 70
     1
102
RTVSPropertyOp2
 70
     1
102
RTVSPropertyOp3
 70
     1
102
RTVSPropertyOp4
 70
     1
102
RTVSPropertyOp5
 70
     1
102
RTVSPropertyOp6
 70
     1
102
RTVSPropertyOp7
 70
     1
102
RTVSPropertyOp8
 70
     1
102
RTVSPropertyOp9
 70
     1
102
RTVSPropertyOp10
 70
     1
102
RTVSPropertyOp11
 70
     1
102
RTVSPropertyOp12
 70
     1
102
RTVSPropertyOp13
 70
     1
102
RTVSPropertyOp14
 70
     1
102
RTVSPropertyOp15
 70
     1
102
RTVSPropertyOp16
 70
     1
102
RTVSPropertyOp17
 70
     1
102
RTVSPropertyOp18
 70
     1
102
RTVSPropertyOp19
 70
     1
102
RTVSPropertyOp20
 70
     1
102
RTVSPropertyOp21
 70
     1
102
RTVSPropertyOp22
 70
     1
102
RTVSPropertyOp23
 70
     1
102
RTVSPropertyOp24
 70
     1
102
RTVSPropertyOp25
 70
     1
102
RTVSPropertyOp26
 70
     1
102
RTVSPropertyOp27
 70
     1
102
RTVSPropertyOp28
 70
     1
102
RTVSPropertyOp29
 70
     1
102
RTVSPropertyOp30
 70
     1
102
RTVSPropertyOp31
 70
     1
102
RTVSPropertyOp32
 70
     1
  0
XRECORD
  5
11A9
102
{ACAD_REACTORS
330
11A8
102
}
330
11A8
100
AcDbXrecord
280
     1
102
RTVSPropertyOp0
 70
     0
102
RTVSPropertyOp1
 70
     0
102
RTVSPropertyOp2
 70
     0
102
RTVSPropertyOp3
 70
     0
102
RTVSPropertyOp4
 70
     0
102
RTVSPropertyOp5
 70
     0
102
RTVSPropertyOp6
 70
     0
102
RTVSPropertyOp7
 70
     0
102
RTVSPropertyOp8
 70
     0
102
RTVSPropertyOp9
 70
     0
102
RTVSPropertyOp10
 70
     0
102
RTVSPropertyOp11
 70
     0
102
RTVSPropertyOp12
 70
     0
102
RTVSPropertyOp13
 70
     0
102
RTVSPropertyOp14
 70
     2
102
RTVSPropertyOp15
 70
     0
102
RTVSPropertyOp16
 70
     0
102
RTVSPropertyOp17
 70
     0
102
RTVSPropertyOp18
 70
     0
102
RTVSPropertyOp19
 70
     0
102
RTVSPropertyOp20
 70
     0
102
RTVSPropertyOp21
 70
     0
102
RTVSPropertyOp22
 70
     0
102
RTVSPropertyOp23
 70
     0
102
RTVSPropertyOp24
 70
     0
102
RTVSPropertyOp25
 70
     0
102
RTVSPropertyOp26
 70
     0
102
RTVSPropertyOp27
 70
     0
102
RTVSPropertyOp28
 70
     0
102
RTVSPropertyOp29
 70
     0
102
RTVSPropertyOp30
 70
     0
102
RTVSPropertyOp31
 70
     0
102
RTVSPropertyOp32
 70
     0
  0
XRECORD
  5
118F
102
{ACAD_REACTORS
330
118E
102
}
330
118E
100
AcDbXrecord
280
     1
102
RTVSPropertyOp0
 70
     1
102
RTVSPropertyOp1
 70
     1
102
RTVSPropertyOp2
 70
     1
102
RTVSPropertyOp3
 70
     1
102
RTVSPropertyOp4
 70
     1
102
RTVSPropertyOp5
 70
     1
102
RTVSPropertyOp6
 70
     1
102
RTVSPropertyOp7
 70
     1
102
RTVSPropertyOp8
 70
     1
102
RTVSPropertyOp9
 70
     1
102
RTVSPropertyOp10
 70
     1
102
RTVSPropertyOp11
 70
     1
102
RTVSPropertyOp12
 70
     1
102
RTVSPropertyOp13
 70
     1
102
RTVSPropertyOp14
 70
     1
102
RTVSPropertyOp15
 70
     1
102
RTVSPropertyOp16
 70
     1
102
RTVSPropertyOp17
 70
     1
102
RTVSPropertyOp18
 70
     1
102
RTVSPropertyOp19
 70
     1
102
RTVSPropertyOp20
 70
     1
102
RTVSPropertyOp21
 70
     1
102
RTVSPropertyOp22
 70
     1
102
RTVSPropertyOp23
 70
     1
102
RTVSPropertyOp24
 70
     1
102
RTVSPropertyOp25
 70
     1
102
RTVSPropertyOp26
 70
     1
102
RTVSPropertyOp27
 70
     1
102
RTVSPropertyOp28
 70
     1
102
RTVSPropertyOp29
 70
     1
102
RTVSPropertyOp30
 70
     1
102
RTVSPropertyOp31
 70
     1
102
RTVSPropertyOp32
 70
     1
  0
XRECORD
  5
11A5
102
{ACAD_REACTORS
330
11A4
102
}
330
11A4
100
AcDbXrecord
280
     1
102
RTVSPropertyOp0
 70
     1
102
RTVSPropertyOp1
 70
     1
102
RTVSPropertyOp2
 70
     1
102
RTVSPropertyOp3
 70
     1
102
RTVSPropertyOp4
 70
     1
102
RTVSPropertyOp5
 70
     1
102
RTVSPropertyOp6
 70
     1
102
RTVSPropertyOp7
 70
     1
102
RTVSPropertyOp8
 70
     1
102
RTVSPropertyOp9
 70
     1
102
RTVSPropertyOp10
 70
     1
102
RTVSPropertyOp11
 70
     1
102
RTVSPropertyOp12
 70
     1
102
RTVSPropertyOp13
 70
     1
102
RTVSPropertyOp14
 70
     1
102
RTVSPropertyOp15
 70
     1
102
RTVSPropertyOp16
 70
     1
102
RTVSPropertyOp17
 70
     1
102
RTVSPropertyOp18
 70
     1
102
RTVSPropertyOp19
 70
     1
102
RTVSPropertyOp20
 70
     1
102
RTVSPropertyOp21
 70
     1
102
RTVSPropertyOp22
 70
     1
102
RTVSPropertyOp23
 70
     1
102
RTVSPropertyOp24
 70
     1
102
RTVSPropertyOp25
 70
     1
102
RTVSPropertyOp26
 70
     1
102
RTVSPropertyOp27
 70
     1
102
RTVSPropertyOp28
 70
     1
102
RTVSPropertyOp29
 70
     1
102
RTVSPropertyOp30
 70
     1
102
RTVSPropertyOp31
 70
     1
102
RTVSPropertyOp32
 70
     1
  0
XRECORD
  5
11A3
102
{ACAD_REACTORS
330
11A2
102
}
330
11A2
100
AcDbXrecord
280
     1
102
RTVSPropertyOp0
 70
     1
102
RTVSPropertyOp1
 70
     1
102
RTVSPropertyOp2
 70
     1
102
RTVSPropertyOp3
 70
     1
102
RTVSPropertyOp4
 70
     1
102
RTVSPropertyOp5
 70
     1
102
RTVSPropertyOp6
 70
     1
102
RTVSPropertyOp7
 70
     1
102
RTVSPropertyOp8
 70
     1
102
RTVSPropertyOp9
 70
     1
102
RTVSPropertyOp10
 70
     1
102
RTVSPropertyOp11
 70
     1
102
RTVSPropertyOp12
 70
     1
102
RTVSPropertyOp13
 70
     1
102
RTVSPropertyOp14
 70
     1
102
RTVSPropertyOp15
 70
     1
102
RTVSPropertyOp16
 70
     1
102
RTVSPropertyOp17
 70
     1
102
RTVSPropertyOp18
 70
     1
102
RTVSPropertyOp19
 70
     1
102
RTVSPropertyOp20
 70
     1
102
RTVSPropertyOp21
 70
     1
102
RTVSPropertyOp22
 70
     1
102
RTVSPropertyOp23
 70
     1
102
RTVSPropertyOp24
 70
     1
102
RTVSPropertyOp25
 70
     1
102
RTVSPropertyOp26
 70
     1
102
RTVSPropertyOp27
 70
     1
102
RTVSPropertyOp28
 70
     1
102
RTVSPropertyOp29
 70
     1
102
RTVSPropertyOp30
 70
     1
102
RTVSPropertyOp31
 70
     1
102
RTVSPropertyOp32
 70
     1
  0
XRECORD
  5
119D
102
{ACAD_REACTORS
330
119C
102
}
330
119C
100
AcDbXrecord
280
     1
102
RTVSPropertyOp0
 70
     1
102
RTVSPropertyOp1
 70
     1
102
RTVSPropertyOp2
 70
     1
102
RTVSPropertyOp3
 70
     1
102
RTVSPropertyOp4
 70
     1
102
RTVSPropertyOp5
 70
     1
102
RTVSPropertyOp6
 70
     1
102
RTVSPropertyOp7
 70
     1
102
RTVSPropertyOp8
 70
     1
102
RTVSPropertyOp9
 70
     1
102
RTVSPropertyOp10
 70
     1
102
RTVSPropertyOp11
 70
     1
102
RTVSPropertyOp12
 70
     1
102
RTVSPropertyOp13
 70
     1
102
RTVSPropertyOp14
 70
     1
102
RTVSPropertyOp15
 70
     1
102
RTVSPropertyOp16
 70
     1
102
RTVSPropertyOp17
 70
     1
102
RTVSPropertyOp18
 70
     1
102
RTVSPropertyOp19
 70
     1
102
RTVSPropertyOp20
 70
     1
102
RTVSPropertyOp21
 70
     1
102
RTVSPropertyOp22
 70
     1
102
RTVSPropertyOp23
 70
     1
102
RTVSPropertyOp24
 70
     1
102
RTVSPropertyOp25
 70
     1
102
RTVSPropertyOp26
 70
     1
102
RTVSPropertyOp27
 70
     1
102
RTVSPropertyOp28
 70
     1
102
RTVSPropertyOp29
 70
     1
102
RTVSPropertyOp30
 70
     1
102
RTVSPropertyOp31
 70
     1
102
RTVSPropertyOp32
 70
     1
  0
XRECORD
  5
119F
102
{ACAD_REACTORS
330
119E
102
}
330
119E
100
AcDbXrecord
280
     1
102
RTVSPropertyOp0
 70
     1
102
RTVSPropertyOp1
 70
     1
102
RTVSPropertyOp2
 70
     1
102
RTVSPropertyOp3
 70
     1
102
RTVSPropertyOp4
 70
     1
102
RTVSPropertyOp5
 70
     1
102
RTVSPropertyOp6
 70
     1
102
RTVSPropertyOp7
 70
     1
102
RTVSPropertyOp8
 70
     1
102
RTVSPropertyOp9
 70
     1
102
RTVSPropertyOp10
 70
     1
102
RTVSPropertyOp11
 70
     1
102
RTVSPropertyOp12
 70
     1
102
RTVSPropertyOp13
 70
     1
102
RTVSPropertyOp14
 70
     1
102
RTVSPropertyOp15
 70
     1
102
RTVSPropertyOp16
 70
     1
102
RTVSPropertyOp17
 70
     1
102
RTVSPropertyOp18
 70
     1
102
RTVSPropertyOp19
 70
     1
102
RTVSPropertyOp20
 70
     1
102
RTVSPropertyOp21
 70
     1
102
RTVSPropertyOp22
 70
     1
102
RTVSPropertyOp23
 70
     1
102
RTVSPropertyOp24
 70
     1
102
RTVSPropertyOp25
 70
     1
102
RTVSPropertyOp26
 70
     1
102
RTVSPropertyOp27
 70
     1
102
RTVSPropertyOp28
 70
     1
102
RTVSPropertyOp29
 70
     1
102
RTVSPropertyOp30
 70
     1
102
RTVSPropertyOp31
 70
     1
102
RTVSPropertyOp32
 70
     1
  0
XRECORD
  5
1195
102
{ACAD_REACTORS
330
1194
102
}
330
1194
100
AcDbXrecord
280
     1
102
RTVSPropertyOp0
 70
     1
102
RTVSPropertyOp1
 70
     1
102
RTVSPropertyOp2
 70
     1
102
RTVSPropertyOp3
 70
     1
102
RTVSPropertyOp4
 70
     1
102
RTVSPropertyOp5
 70
     1
102
RTVSPropertyOp6
 70
     1
102
RTVSPropertyOp7
 70
     1
102
RTVSPropertyOp8
 70
     1
102
RTVSPropertyOp9
 70
     1
102
RTVSPropertyOp10
 70
     1
102
RTVSPropertyOp11
 70
     1
102
RTVSPropertyOp12
 70
     1
102
RTVSPropertyOp13
 70
     1
102
RTVSPropertyOp14
 70
     1
102
RTVSPropertyOp15
 70
     1
102
RTVSPropertyOp16
 70
     1
102
RTVSPropertyOp17
 70
     1
102
RTVSPropertyOp18
 70
     1
102
RTVSPropertyOp19
 70
     1
102
RTVSPropertyOp20
 70
     1
102
RTVSPropertyOp21
 70
     1
102
RTVSPropertyOp22
 70
     1
102
RTVSPropertyOp23
 70
     1
102
RTVSPropertyOp24
 70
     1
102
RTVSPropertyOp25
 70
     1
102
RTVSPropertyOp26
 70
     1
102
RTVSPropertyOp27
 70
     1
102
RTVSPropertyOp28
 70
     1
102
RTVSPropertyOp29
 70
     1
102
RTVSPropertyOp30
 70
     1
102
RTVSPropertyOp31
 70
     1
102
RTVSPropertyOp32
 70
     1
  0
XRECORD
  5
1189
102
{ACAD_REACTORS
330
1188
102
}
330
1188
100
AcDbXrecord
280
     1
102
RTVSPropertyOp0
 70
     1
102
RTVSPropertyOp1
 70
     1
102
RTVSPropertyOp2
 70
     1
102
RTVSPropertyOp3
 70
     1
102
RTVSPropertyOp4
 70
     1
102
RTVSPropertyOp5
 70
     1
102
RTVSPropertyOp6
 70
     1
102
RTVSPropertyOp7
 70
     1
102
RTVSPropertyOp8
 70
     1
102
RTVSPropertyOp9
 70
     1
102
RTVSPropertyOp10
 70
     1
102
RTVSPropertyOp11
 70
     1
102
RTVSPropertyOp12
 70
     1
102
RTVSPropertyOp13
 70
     1
102
RTVSPropertyOp14
 70
     1
102
RTVSPropertyOp15
 70
     1
102
RTVSPropertyOp16
 70
     1
102
RTVSPropertyOp17
 70
     1
102
RTVSPropertyOp18
 70
     1
102
RTVSPropertyOp19
 70
     1
102
RTVSPropertyOp20
 70
     1
102
RTVSPropertyOp21
 70
     1
102
RTVSPropertyOp22
 70
     1
102
RTVSPropertyOp23
 70
     1
102
RTVSPropertyOp24
 70
     1
102
RTVSPropertyOp25
 70
     1
102
RTVSPropertyOp26
 70
     1
102
RTVSPropertyOp27
 70
     1
102
RTVSPropertyOp28
 70
     1
102
RTVSPropertyOp29
 70
     1
102
RTVSPropertyOp30
 70
     1
102
RTVSPropertyOp31
 70
     1
102
RTVSPropertyOp32
 70
     1
  0
XRECORD
  5
11A1
102
{ACAD_REACTORS
330
11A0
102
}
330
11A0
100
AcDbXrecord
280
     1
102
RTVSPropertyOp0
 70
     1
102
RTVSPropertyOp1
 70
     1
102
RTVSPropertyOp2
 70
     1
102
RTVSPropertyOp3
 70
     1
102
RTVSPropertyOp4
 70
     1
102
RTVSPropertyOp5
 70
     1
102
RTVSPropertyOp6
 70
     1
102
RTVSPropertyOp7
 70
     1
102
RTVSPropertyOp8
 70
     1
102
RTVSPropertyOp9
 70
     1
102
RTVSPropertyOp10
 70
     1
102
RTVSPropertyOp11
 70
     1
102
RTVSPropertyOp12
 70
     1
102
RTVSPropertyOp13
 70
     1
102
RTVSPropertyOp14
 70
     1
102
RTVSPropertyOp15
 70
     1
102
RTVSPropertyOp16
 70
     1
102
RTVSPropertyOp17
 70
     1
102
RTVSPropertyOp18
 70
     1
102
RTVSPropertyOp19
 70
     1
102
RTVSPropertyOp20
 70
     1
102
RTVSPropertyOp21
 70
     1
102
RTVSPropertyOp22
 70
     1
102
RTVSPropertyOp23
 70
     1
102
RTVSPropertyOp24
 70
     1
102
RTVSPropertyOp25
 70
     1
102
RTVSPropertyOp26
 70
     1
102
RTVSPropertyOp27
 70
     1
102
RTVSPropertyOp28
 70
     1
102
RTVSPropertyOp29
 70
     1
102
RTVSPropertyOp30
 70
     1
102
RTVSPropertyOp31
 70
     1
102
RTVSPropertyOp32
 70
     1
  0
ENDSEC
  0
EOF
