  0
SECTION
  2
HEADER
  9
$ACADVER
  1
AC1015
  9
$ACADMAINTVER
 70
    20
  9
$DWGCODEPAGE
  3
ANSI_932
  9
$INSBASE
 10
0.0
 20
0.0
 30
0.0
  9
$EXTMIN
 10
-0.1730188239926065
 20
-0.1087428640512371
 30
-0.000000000000013
  9
$EXTMAX
 10
1260.019241183614
 20
891.1291834334242
 30
0.0000000000000023
  9
$LIMMIN
 10
0.0
 20
0.0
  9
$LIMMAX
 10
1260.0
 20
891.0
  9
$ORTHOMODE
 70
     1
  9
$REGENMODE
 70
     1
  9
$FILLMODE
 70
     1
  9
$QTEXTMODE
 70
     0
  9
$MIRRTEXT
 70
     1
  9
$LTSCALE
 40
25.2
  9
$ATTMODE
 70
     1
  9
$TEXTSIZE
 40
0.2
  9
$TRACEWID
 40
0.05
  9
$TEXTSTYLE
  7
STANDARD
  9
$CLAYER
  8
LEVEL001
  9
$CELTYPE
  6
CONTINUOUS
  9
$CECOLOR
 62
   256
  9
$CELTSCALE
 40
1.0
  9
$DISPSILH
 70
     0
  9
$DIMSCALE
 40
1.0
  9
$DIMASZ
 40
0.18
  9
$DIMEXO
 40
0.0625
  9
$DIMDLI
 40
0.38
  9
$DIMRND
 40
0.0
  9
$DIMDLE
 40
0.0
  9
$DIMEXE
 40
0.18
  9
$DIMTP
 40
0.0
  9
$DIMTM
 40
0.0
  9
$DIMTXT
 40
0.18
  9
$DIMCEN
 40
0.09
  9
$DIMTSZ
 40
0.0
  9
$DIMTOL
 70
     0
  9
$DIMLIM
 70
     0
  9
$DIMTIH
 70
     1
  9
$DIMTOH
 70
     1
  9
$DIMSE1
 70
     0
  9
$DIMSE2
 70
     0
  9
$DIMTAD
 70
     0
  9
$DIMZIN
 70
     0
  9
$DIMBLK
  1

  9
$DIMASO
 70
     1
  9
$DIMSHO
 70
     1
  9
$DIMPOST
  1

  9
$DIMAPOST
  1

  9
$DIMALT
 70
     0
  9
$DIMALTD
 70
     2
  9
$DIMALTF
 40
25.4
  9
$DIMLFAC
 40
1.0
  9
$DIMTOFL
 70
     0
  9
$DIMTVP
 40
0.0
  9
$DIMTIX
 70
     0
  9
$DIMSOXD
 70
     0
  9
$DIMSAH
 70
     0
  9
$DIMBLK1
  1

  9
$DIMBLK2
  1

  9
$DIMSTYLE
  2
STANDARD
  9
$DIMCLRD
 70
     0
  9
$DIMCLRE
 70
     0
  9
$DIMCLRT
 70
     0
  9
$DIMTFAC
 40
1.0
  9
$DIMGAP
 40
0.09
  9
$DIMJUST
 70
     0
  9
$DIMSD1
 70
     0
  9
$DIMSD2
 70
     0
  9
$DIMTOLJ
 70
     1
  9
$DIMTZIN
 70
     0
  9
$DIMALTZ
 70
     0
  9
$DIMALTTZ
 70
     0
  9
$DIMUPT
 70
     0
  9
$DIMDEC
 70
     4
  9
$DIMTDEC
 70
     4
  9
$DIMALTU
 70
     2
  9
$DIMALTTD
 70
     2
  9
$DIMTXSTY
  7
STANDARD
  9
$DIMAUNIT
 70
     0
  9
$DIMADEC
 70
     0
  9
$DIMALTRND
 40
0.0
  9
$DIMAZIN
 70
     0
  9
$DIMDSEP
 70
    46
  9
$DIMATFIT
 70
     3
  9
$DIMFRAC
 70
     0
  9
$DIMLDRBLK
  1

  9
$DIMLUNIT
 70
     2
  9
$DIMLWD
 70
    -2
  9
$DIMLWE
 70
    -2
  9
$DIMTMOVE
 70
     0
  9
$LUNITS
 70
     2
  9
$LUPREC
 70
     4
  9
$SKETCHINC
 40
0.1
  9
$FILLETRAD
 40
0.0
  9
$AUNITS
 70
     0
  9
$AUPREC
 70
     0
  9
$MENU
  1
.
  9
$ELEVATION
 40
0.0
  9
$PELEVATION
 40
0.0
  9
$THICKNESS
 40
0.0
  9
$LIMCHECK
 70
     0
  9
$CHAMFERA
 40
0.0
  9
$CHAMFERB
 40
0.0
  9
$CHAMFERC
 40
0.0
  9
$CHAMFERD
 40
0.0
  9
$SKPOLY
 70
     0
  9
$TDCREATE
 40
2451212.682759178
  9
$TDUCREATE
 40
2451212.307759178
  9
$TDUPDATE
 40
2458321.587524005
  9
$TDUUPDATE
 40
2458321.212524005
  9
$TDINDWG
 40
0.0587051620
  9
$TDUSRTIMER
 40
0.0587051620
  9
$USRTIMER
 70
     1
  9
$ANGBASE
 50
0.0
  9
$ANGDIR
 70
     0
  9
$PDMODE
 70
     0
  9
$PDSIZE
 40
0.0
  9
$PLINEWID
 40
0.0
  9
$SPLFRAME
 70
     0
  9
$SPLINETYPE
 70
     6
  9
$SPLINESEGS
 70
     8
  9
$HANDSEED
  5
2CCA
  9
$SURFTAB1
 70
     6
  9
$SURFTAB2
 70
     6
  9
$SURFTYPE
 70
     6
  9
$SURFU
 70
     6
  9
$SURFV
 70
     6
  9
$UCSBASE
  2

  9
$UCSNAME
  2

  9
$UCSORG
 10
0.0
 20
0.0
 30
0.0
  9
$UCSXDIR
 10
1.0
 20
0.0
 30
0.0
  9
$UCSYDIR
 10
0.0
 20
1.0
 30
0.0
  9
$UCSORTHOREF
  2

  9
$UCSORTHOVIEW
 70
     0
  9
$UCSORGTOP
 10
0.0
 20
0.0
 30
0.0
  9
$UCSORGBOTTOM
 10
0.0
 20
0.0
 30
0.0
  9
$UCSORGLEFT
 10
0.0
 20
0.0
 30
0.0
  9
$UCSORGRIGHT
 10
0.0
 20
0.0
 30
0.0
  9
$UCSORGFRONT
 10
0.0
 20
0.0
 30
0.0
  9
$UCSORGBACK
 10
0.0
 20
0.0
 30
0.0
  9
$PUCSBASE
  2

  9
$PUCSNAME
  2

  9
$PUCSORG
 10
0.0
 20
0.0
 30
0.0
  9
$PUCSXDIR
 10
1.0
 20
0.0
 30
0.0
  9
$PUCSYDIR
 10
0.0
 20
1.0
 30
0.0
  9
$PUCSORTHOREF
  2

  9
$PUCSORTHOVIEW
 70
     0
  9
$PUCSORGTOP
 10
0.0
 20
0.0
 30
0.0
  9
$PUCSORGBOTTOM
 10
0.0
 20
0.0
 30
0.0
  9
$PUCSORGLEFT
 10
0.0
 20
0.0
 30
0.0
  9
$PUCSORGRIGHT
 10
0.0
 20
0.0
 30
0.0
  9
$PUCSORGFRONT
 10
0.0
 20
0.0
 30
0.0
  9
$PUCSORGBACK
 10
0.0
 20
0.0
 30
0.0
  9
$USERI1
 70
     0
  9
$USERI2
 70
     0
  9
$USERI3
 70
     0
  9
$USERI4
 70
     0
  9
$USERI5
 70
     0
  9
$USERR1
 40
0.0
  9
$USERR2
 40
0.0
  9
$USERR3
 40
0.0
  9
$USERR4
 40
0.0
  9
$USERR5
 40
0.0
  9
$WORLDVIEW
 70
     1
  9
$SHADEDGE
 70
     3
  9
$SHADEDIF
 70
    70
  9
$TILEMODE
 70
     1
  9
$MAXACTVP
 70
    16
  9
$PINSBASE
 10
0.0
 20
0.0
 30
0.0
  9
$PLIMCHECK
 70
     0
  9
$PEXTMIN
 10
1.000000000000000E+20
 20
1.000000000000000E+20
 30
1.000000000000000E+20
  9
$PEXTMAX
 10
-1.000000000000000E+20
 20
-1.000000000000000E+20
 30
-1.000000000000000E+20
  9
$PLIMMIN
 10
0.0
 20
0.0
  9
$PLIMMAX
 10
12.0
 20
9.0
  9
$UNITMODE
 70
     0
  9
$VISRETAIN
 70
     1
  9
$PLINEGEN
 70
     0
  9
$PSLTSCALE
 70
     1
  9
$TREEDEPTH
 70
  3020
  9
$CMLSTYLE
  2
STANDARD
  9
$CMLJUST
 70
     0
  9
$CMLSCALE
 40
1.0
  9
$PROXYGRAPHICS
 70
     1
  9
$MEASUREMENT
 70
     0
  9
$CELWEIGHT
370
    -1
  9
$ENDCAPS
280
     0
  9
$JOINSTYLE
280
     0
  9
$LWDISPLAY
290
     0
  9
$INSUNITS
 70
     0
  9
$HYPERLINKBASE
  1

  9
$STYLESHEET
  1

  9
$XEDIT
290
     1
  9
$CEPSNTYPE
380
     0
  9
$PSTYLEMODE
290
     0
  9
$FINGERPRINTGUID
  2
{EB615839-BECE-4A57-B5FA-B1D42DEFAB7F}
  9
$VERSIONGUID
  2
{9A3E80E6-A54F-410D-8183-8CE10635E25E}
  9
$EXTNAMES
290
     1
  9
$PSVPSCALE
 40
0.0
  9
$OLESTARTUP
290
     0
  0
ENDSEC
  0
SECTION
  2
CLASSES
  0
CLASS
  1
ACDBDICTIONARYWDFLT
  2
AcDbDictionaryWithDefault
  3
ObjectDBX Classes
 90
        0
280
     0
281
     0
  0
CLASS
  1
TABLESTYLE
  2
AcDbTableStyle
  3
ObjectDBX Classes
 90
     4095
280
     0
281
     0
  0
CLASS
  1
DICTIONARYVAR
  2
AcDbDictionaryVar
  3
ObjectDBX Classes
 90
        0
280
     0
281
     0
  0
CLASS
  1
SORTENTSTABLE
  2
AcDbSortentsTable
  3
ObjectDBX Classes
 90
        0
280
     0
281
     0
  0
CLASS
  1
ACDBPLACEHOLDER
  2
AcDbPlaceHolder
  3
ObjectDBX Classes
 90
        0
280
     0
281
     0
  0
CLASS
  1
LAYOUT
  2
AcDbLayout
  3
ObjectDBX Classes
 90
        0
280
     0
281
     0
  0
CLASS
  1
MATERIAL
  2
AcDbMaterial
  3
ObjectDBX Classes
 90
     1153
280
     0
281
     0
  0
CLASS
  1
VISUALSTYLE
  2
AcDbVisualStyle
  3
ObjectDBX Classes
 90
     4095
280
     0
281
     0
  0
CLASS
  1
SCALE
  2
AcDbScale
  3
ObjectDBX Classes
 90
     1153
280
     0
281
     0
  0
CLASS
  1
MLEADERSTYLE
  2
AcDbMLeaderStyle
  3
ACDB_MLEADERSTYLE_CLASS
 90
     4095
280
     0
281
     0
  0
CLASS
  1
CELLSTYLEMAP
  2
AcDbCellStyleMap
  3
ObjectDBX Classes
 90
     1152
280
     0
281
     0
  0
ENDSEC
  0
SECTION
  2
TABLES
  0
TABLE
  2
VPORT
  5
1
330
0
100
AcDbSymbolTable
 70
     1
  0
VPORT
  5
2A56
330
1
100
AcDbSymbolTableRecord
100
AcDbViewportTableRecord
  2
*Active
 70
     0
 10
0.0
 20
0.0
 11
1.0
 21
1.0
 12
629.9231111798109
 22
445.5102202846864
 13
0.0
 23
0.0
 14
1.0
 24
1.0
 15
0.0
 25
0.0
 16
0.0
 26
0.0
 36
1.0
 17
0.0
 27
0.0
 37
0.0
 40
899.6326320396809
 41
1.882075471698112
 42
50.0
 43
0.0
 44
0.0
 50
0.0
 51
0.0
 71
     0
 72
   100
 73
     1
 74
     1
 75
     0
 76
     0
 77
     0
 78
     0
281
     0
 65
     1
110
0.0
120
0.0
130
0.0
111
1.0
121
0.0
131
0.0
112
0.0
122
1.0
132
0.0
 79
     0
146
0.0
1001
ACAD_NAV_VCDISPLAY
1070
     3
  0
ENDTAB
  0
TABLE
  2
LTYPE
  5
6B
330
0
100
AcDbSymbolTable
 70
    25
  0
LTYPE
  5
1D
330
6B
100
AcDbSymbolTableRecord
100
AcDbLinetypeTableRecord
  2
BYBLOCK
 70
     0
  3

 72
    65
 73
     0
 40
0.0
  0
LTYPE
  5
1E
330
6B
100
AcDbSymbolTableRecord
100
AcDbLinetypeTableRecord
  2
BYLAYER
 70
     0
  3

 72
    65
 73
     0
 40
0.0
  0
LTYPE
  5
1F
330
6B
100
AcDbSymbolTableRecord
100
AcDbLinetypeTableRecord
  2
CONTINUOUS
 70
     0
  3
Solid line
 72
    65
 73
     0
 40
0.0
  0
LTYPE
  5
20
330
6B
100
AcDbSymbolTableRecord
100
AcDbLinetypeTableRecord
  2
BORDER
 70
     0
  3
__ __ . __ __ . __ __ . __ __ . __ __ . __ __ .
 72
    65
 73
     6
 40
1.75
 49
0.5
 74
     0
 49
-0.25
 74
     0
 49
0.5
 74
     0
 49
-0.25
 74
     0
 49
0.0
 74
     0
 49
-0.25
 74
     0
  0
LTYPE
  5
21
330
6B
100
AcDbSymbolTableRecord
100
AcDbLinetypeTableRecord
  2
BORDER2
 70
     0
  3
__.__.__.__.__.__.__.__.__.__.__.__.__.__.__.__
 72
    65
 73
     6
 40
0.875
 49
0.25
 74
     0
 49
-0.125
 74
     0
 49
0.25
 74
     0
 49
-0.125
 74
     0
 49
0.0
 74
     0
 49
-0.125
 74
     0
  0
LTYPE
  5
22
330
6B
100
AcDbSymbolTableRecord
100
AcDbLinetypeTableRecord
  2
BORDERX2
 70
     0
  3
____  ____  .  ____  ____  .  ____  ____  .  __
 72
    65
 73
     6
 40
3.5
 49
1.0
 74
     0
 49
-0.5
 74
     0
 49
1.0
 74
     0
 49
-0.5
 74
     0
 49
0.0
 74
     0
 49
-0.5
 74
     0
  0
LTYPE
  5
23
330
6B
100
AcDbSymbolTableRecord
100
AcDbLinetypeTableRecord
  2
CENTER
 70
     0
  3
____ _ ____ _ ____ _ ____ _ ____ _ ____ _ ____ 
 72
    65
 73
     4
 40
2.0
 49
1.25
 74
     0
 49
-0.25
 74
     0
 49
0.25
 74
     0
 49
-0.25
 74
     0
  0
LTYPE
  5
24
330
6B
100
AcDbSymbolTableRecord
100
AcDbLinetypeTableRecord
  2
CENTER2
 70
     0
  3
___ _ ___ _ ___ _ ___ _ ___ _ ___ _ ___ _ ___ _
 72
    65
 73
     4
 40
1.125
 49
0.75
 74
     0
 49
-0.125
 74
     0
 49
0.125
 74
     0
 49
-0.125
 74
     0
  0
LTYPE
  5
25
330
6B
100
AcDbSymbolTableRecord
100
AcDbLinetypeTableRecord
  2
CENTERX2
 70
     0
  3
________  __  ________  __  ________  __  _____
 72
    65
 73
     4
 40
4.0
 49
2.5
 74
     0
 49
-0.5
 74
     0
 49
0.5
 74
     0
 49
-0.5
 74
     0
  0
LTYPE
  5
26
330
6B
100
AcDbSymbolTableRecord
100
AcDbLinetypeTableRecord
  2
DASHDOT
 70
     0
  3
__ . __ . __ . __ . __ . __ . __ . __ . __ . __
 72
    65
 73
     4
 40
1.0
 49
0.5
 74
     0
 49
-0.25
 74
     0
 49
0.0
 74
     0
 49
-0.25
 74
     0
  0
LTYPE
  5
27
330
6B
100
AcDbSymbolTableRecord
100
AcDbLinetypeTableRecord
  2
DASHDOT2
 70
     0
  3
_._._._._._._._._._._._._._._._._._._._._._._._
 72
    65
 73
     4
 40
0.5
 49
0.25
 74
     0
 49
-0.125
 74
     0
 49
0.0
 74
     0
 49
-0.125
 74
     0
  0
LTYPE
  5
28
330
6B
100
AcDbSymbolTableRecord
100
AcDbLinetypeTableRecord
  2
DASHDOTX2
 70
     0
  3
____  .  ____  .  ____  .  ____  .  ____  .  __
 72
    65
 73
     4
 40
2.0
 49
1.0
 74
     0
 49
-0.5
 74
     0
 49
0.0
 74
     0
 49
-0.5
 74
     0
  0
LTYPE
  5
29
330
6B
100
AcDbSymbolTableRecord
100
AcDbLinetypeTableRecord
  2
DASHED
 70
     0
  3
__ __ __ __ __ __ __ __ __ __ __ __ __ __ __ __
 72
    65
 73
     2
 40
0.75
 49
0.5
 74
     0
 49
-0.25
 74
     0
  0
LTYPE
  5
2A
330
6B
100
AcDbSymbolTableRecord
100
AcDbLinetypeTableRecord
  2
DASHED2
 70
     0
  3
_ _ _ _ _ _ _ _ _ _ _ _ _ _ _ _ _ _ _ _ _ _ _ _
 72
    65
 73
     2
 40
0.375
 49
0.25
 74
     0
 49
-0.125
 74
     0
  0
LTYPE
  5
2B
330
6B
100
AcDbSymbolTableRecord
100
AcDbLinetypeTableRecord
  2
DASHEDX2
 70
     0
  3
____  ____  ____  ____  ____  ____  ____  ____ 
 72
    65
 73
     2
 40
1.5
 49
1.0
 74
     0
 49
-0.5
 74
     0
  0
LTYPE
  5
2C
330
6B
100
AcDbSymbolTableRecord
100
AcDbLinetypeTableRecord
  2
DIVIDE
 70
     0
  3
____ . . ____ . . ____ . . ____ . . ____ . . __
 72
    65
 73
     6
 40
1.25
 49
0.5
 74
     0
 49
-0.25
 74
     0
 49
0.0
 74
     0
 49
-0.25
 74
     0
 49
0.0
 74
     0
 49
-0.25
 74
     0
  0
LTYPE
  5
2D
330
6B
100
AcDbSymbolTableRecord
100
AcDbLinetypeTableRecord
  2
DIVIDE2
 70
     0
  3
__..__..__..__..__..__..__..__..__..__..__..__.
 72
    65
 73
     6
 40
0.625
 49
0.25
 74
     0
 49
-0.125
 74
     0
 49
0.0
 74
     0
 49
-0.125
 74
     0
 49
0.0
 74
     0
 49
-0.125
 74
     0
  0
LTYPE
  5
2E
330
6B
100
AcDbSymbolTableRecord
100
AcDbLinetypeTableRecord
  2
DIVIDEX2
 70
     0
  3
________  .  .  ________  .  .  ________  .  . 
 72
    65
 73
     6
 40
2.5
 49
1.0
 74
     0
 49
-0.5
 74
     0
 49
0.0
 74
     0
 49
-0.5
 74
     0
 49
0.0
 74
     0
 49
-0.5
 74
     0
  0
LTYPE
  5
2F
330
6B
100
AcDbSymbolTableRecord
100
AcDbLinetypeTableRecord
  2
DOT
 70
     0
  3
. . . . . . . . . . . . . . . . . . . . . . . .
 72
    65
 73
     2
 40
0.25
 49
0.0
 74
     0
 49
-0.25
 74
     0
  0
LTYPE
  5
30
330
6B
100
AcDbSymbolTableRecord
100
AcDbLinetypeTableRecord
  2
DOT2
 70
     0
  3
...............................................
 72
    65
 73
     2
 40
0.125
 49
0.0
 74
     0
 49
-0.125
 74
     0
  0
LTYPE
  5
31
330
6B
100
AcDbSymbolTableRecord
100
AcDbLinetypeTableRecord
  2
DOTX2
 70
     0
  3
.  .  .  .  .  .  .  .  .  .  .  .  .  .  .  . 
 72
    65
 73
     2
 40
0.5
 49
0.0
 74
     0
 49
-0.5
 74
     0
  0
LTYPE
  5
32
330
6B
100
AcDbSymbolTableRecord
100
AcDbLinetypeTableRecord
  2
HIDDEN
 70
     0
  3
__ __ __ __ __ __ __ __ __ __ __ __ __ __ __ __
 72
    65
 73
     2
 40
0.375
 49
0.25
 74
     0
 49
-0.125
 74
     0
  0
LTYPE
  5
33
330
6B
100
AcDbSymbolTableRecord
100
AcDbLinetypeTableRecord
  2
HIDDEN2
 70
     0
  3
_ _ _ _ _ _ _ _ _ _ _ _ _ _ _ _ _ _ _ _ _ _ _ _
 72
    65
 73
     2
 40
0.1875
 49
0.125
 74
     0
 49
-0.0625
 74
     0
  0
LTYPE
  5
34
330
6B
100
AcDbSymbolTableRecord
100
AcDbLinetypeTableRecord
  2
HIDDENX2
 70
     0
  3
____ ____ ____ ____ ____ ____ ____ ____ ____ __
 72
    65
 73
     2
 40
0.75
 49
0.5
 74
     0
 49
-0.25
 74
     0
  0
LTYPE
  5
35
330
6B
100
AcDbSymbolTableRecord
100
AcDbLinetypeTableRecord
  2
PHANTOM
 70
     0
  3
______  __  __  ______  __  __  ______  __  __ 
 72
    65
 73
     6
 40
2.5
 49
1.25
 74
     0
 49
-0.25
 74
     0
 49
0.25
 74
     0
 49
-0.25
 74
     0
 49
0.25
 74
     0
 49
-0.25
 74
     0
  0
LTYPE
  5
36
330
6B
100
AcDbSymbolTableRecord
100
AcDbLinetypeTableRecord
  2
PHANTOM2
 70
     0
  3
___ _ _ ___ _ _ ___ _ _ ___ _ _ ___ _ _ ___ _ _
 72
    65
 73
     6
 40
1.25
 49
0.625
 74
     0
 49
-0.125
 74
     0
 49
0.125
 74
     0
 49
-0.125
 74
     0
 49
0.125
 74
     0
 49
-0.125
 74
     0
  0
LTYPE
  5
37
330
6B
100
AcDbSymbolTableRecord
100
AcDbLinetypeTableRecord
  2
PHANTOMX2
 70
     0
  3
____________    ____    ____    ____________   
 72
    65
 73
     6
 40
5.0
 49
2.5
 74
     0
 49
-0.5
 74
     0
 49
0.5
 74
     0
 49
-0.5
 74
     0
 49
0.5
 74
     0
 49
-0.5
 74
     0
  0
ENDTAB
  0
TABLE
  2
LAYER
  5
6A
102
{ACAD_XDICTIONARY
360
1746
102
}
330
0
100
AcDbSymbolTable
 70
     9
  0
LAYER
  5
38
102
{ACAD_XDICTIONARY
360
2C72
102
}
330
6A
100
AcDbSymbolTableRecord
100
AcDbLayerTableRecord
  2
0
 70
     0
 62
     7
  6
CONTINUOUS
370
    -3
390
D43
  0
LAYER
  5
39
102
{ACAD_XDICTIONARY
360
2C74
102
}
330
6A
100
AcDbSymbolTableRecord
100
AcDbLayerTableRecord
  2
LEVEL001
 70
     0
 62
     7
  6
CONTINUOUS
370
    -3
390
D43
  0
LAYER
  5
3A
102
{ACAD_XDICTIONARY
360
2C76
102
}
330
6A
100
AcDbSymbolTableRecord
100
AcDbLayerTableRecord
  2
LEVEL002
 70
     0
 62
     7
  6
CONTINUOUS
370
    -3
390
D43
  0
LAYER
  5
3B
102
{ACAD_XDICTIONARY
360
2C78
102
}
330
6A
100
AcDbSymbolTableRecord
100
AcDbLayerTableRecord
  2
LEVEL003
 70
     0
 62
     7
  6
CONTINUOUS
370
    -3
390
D43
  0
LAYER
  5
3C
102
{ACAD_XDICTIONARY
360
2C7A
102
}
330
6A
100
AcDbSymbolTableRecord
100
AcDbLayerTableRecord
  2
LEVEL006
 70
     0
 62
     7
  6
CONTINUOUS
370
    -3
390
D43
  0
LAYER
  5
3D
102
{ACAD_XDICTIONARY
360
2C7C
102
}
330
6A
100
AcDbSymbolTableRecord
100
AcDbLayerTableRecord
  2
LEVEL007
 70
     0
 62
     7
  6
CONTINUOUS
370
    -3
390
D43
  0
LAYER
  5
173D
102
{ACAD_XDICTIONARY
360
173E
102
}
330
6A
100
AcDbSymbolTableRecord
100
AcDbLayerTableRecord
  2
sunpou
 70
     0
 62
     7
  6
CONTINUOUS
370
    13
390
D43
  0
LAYER
  5
1740
102
{ACAD_XDICTIONARY
360
1741
102
}
330
6A
100
AcDbSymbolTableRecord
100
AcDbLayerTableRecord
  2
&AF-55
 70
     0
 62
     7
  6
CONTINUOUS
370
    -3
390
D43
  0
LAYER
  5
1743
102
{ACAD_XDICTIONARY
360
1744
102
}
330
6A
100
AcDbSymbolTableRecord
100
AcDbLayerTableRecord
  2
12アンカー
 70
     0
 62
     4
  6
HIDDEN
370
    -3
390
D43
  0
ENDTAB
  0
TABLE
  2
STYLE
  5
6
330
0
100
AcDbSymbolTable
 70
     2
  0
STYLE
  5
7
330
6
100
AcDbSymbolTableRecord
100
AcDbTextStyleTableRecord
  2
STANDARD
 70
     0
 40
0.0
 41
0.8
 50
0.0
 71
     0
 42
0.2
  3
TXT.shx
  4
BIGFONT.shx
  0
STYLE
  5
8
330
6
100
AcDbSymbolTableRecord
100
AcDbTextStyleTableRecord
  2
STANDARD1
 70
     4
 40
0.0
 41
1.0
 50
0.0
 71
     0
 42
0.2
  3
TXT
  4
BIGFONT
  0
ENDTAB
  0
TABLE
  2
VIEW
  5
2
330
0
100
AcDbSymbolTable
 70
     0
  0
ENDTAB
  0
TABLE
  2
UCS
  5
3
330
0
100
AcDbSymbolTable
 70
     0
  0
ENDTAB
  0
TABLE
  2
APPID
  5
4
330
0
100
AcDbSymbolTable
 70
     5
  0
APPID
  5
5
330
4
100
AcDbSymbolTableRecord
100
AcDbRegAppTableRecord
  2
ACAD
 70
     0
  0
APPID
  5
2BDA
330
4
100
AcDbSymbolTableRecord
100
AcDbRegAppTableRecord
  2
ACAD_NAV_VCDISPLAY
 70
     0
  0
APPID
  5
2C22
330
4
100
AcDbSymbolTableRecord
100
AcDbRegAppTableRecord
  2
GradientColor1ACI
 70
     0
  0
APPID
  5
2C23
330
4
100
AcDbSymbolTableRecord
100
AcDbRegAppTableRecord
  2
GradientColor2ACI
 70
     0
  0
APPID
  5
2CC9
330
4
100
AcDbSymbolTableRecord
100
AcDbRegAppTableRecord
  2
ACAD_MLEADERVER
 70
     0
  0
ENDTAB
  0
TABLE
  2
DIMSTYLE
  5
69
330
0
100
AcDbSymbolTable
 70
     1
100
AcDbDimStyleTable
 71
     0
  0
DIMSTYLE
105
3E
330
69
100
AcDbSymbolTableRecord
100
AcDbDimStyleTableRecord
  2
STANDARD
 70
     0
340
7
  0
ENDTAB
  0
TABLE
  2
BLOCK_RECORD
  5
9
330
0
100
AcDbSymbolTable
 70
    17
  0
BLOCK_RECORD
  5
A
102
{ACAD_XDICTIONARY
360
D5B
102
}
330
9
100
AcDbSymbolTableRecord
100
AcDbBlockTableRecord
  2
*MODEL_SPACE
340
D4A
  0
BLOCK_RECORD
  5
B
330
9
100
AcDbSymbolTableRecord
100
AcDbBlockTableRecord
  2
*PAPER_SPACE
340
D4B
  0
BLOCK_RECORD
  5
C
330
9
100
AcDbSymbolTableRecord
100
AcDbBlockTableRecord
  2
_ARCHTICK
340
0
  0
BLOCK_RECORD
  5
D
330
9
100
AcDbSymbolTableRecord
100
AcDbBlockTableRecord
  2
_OBLIQUE
340
0
  0
BLOCK_RECORD
  5
E
330
9
100
AcDbSymbolTableRecord
100
AcDbBlockTableRecord
  2
_BOXBLANK
340
0
  0
BLOCK_RECORD
  5
F
330
9
100
AcDbSymbolTableRecord
100
AcDbBlockTableRecord
  2
_BOXFILLED
340
0
  0
BLOCK_RECORD
  5
10
330
9
100
AcDbSymbolTableRecord
100
AcDbBlockTableRecord
  2
_CLOSED
340
0
  0
BLOCK_RECORD
  5
11
330
9
100
AcDbSymbolTableRecord
100
AcDbBlockTableRecord
  2
_OPEN
340
0
  0
BLOCK_RECORD
  5
12
330
9
100
AcDbSymbolTableRecord
100
AcDbBlockTableRecord
  2
_OPEN30
340
0
  0
BLOCK_RECORD
  5
13
330
9
100
AcDbSymbolTableRecord
100
AcDbBlockTableRecord
  2
_OPEN90
340
0
  0
BLOCK_RECORD
  5
14
330
9
100
AcDbSymbolTableRecord
100
AcDbBlockTableRecord
  2
_CLOSEDBLANK
340
0
  0
BLOCK_RECORD
  5
15
330
9
100
AcDbSymbolTableRecord
100
AcDbBlockTableRecord
  2
_DOT
340
0
  0
BLOCK_RECORD
  5
16
330
9
100
AcDbSymbolTableRecord
100
AcDbBlockTableRecord
  2
_DOTSMALL
340
0
  0
BLOCK_RECORD
  5
17
330
9
100
AcDbSymbolTableRecord
100
AcDbBlockTableRecord
  2
_DATUMBLANK
340
0
  0
BLOCK_RECORD
  5
18
330
9
100
AcDbSymbolTableRecord
100
AcDbBlockTableRecord
  2
_DATUMFILLED
340
0
  0
BLOCK_RECORD
  5
19
330
9
100
AcDbSymbolTableRecord
100
AcDbBlockTableRecord
  2
_ORIGIN
340
0
  0
BLOCK_RECORD
  5
1A
330
9
100
AcDbSymbolTableRecord
100
AcDbBlockTableRecord
  2
_NONE
340
0
  0
BLOCK_RECORD
  5
1B
330
9
100
AcDbSymbolTableRecord
100
AcDbBlockTableRecord
  2
_DOTBLANK
340
0
  0
BLOCK_RECORD
  5
1C
330
9
100
AcDbSymbolTableRecord
100
AcDbBlockTableRecord
  2
_INTEGRAL
340
0
  0
ENDTAB
  0
ENDSEC
  0
SECTION
  2
BLOCKS
  0
BLOCK
  5
43
330
A
100
AcDbEntity
  8
0
100
AcDbBlockBegin
  2
*MODEL_SPACE
 70
     0
 10
0.0
 20
0.0
 30
0.0
  3
*MODEL_SPACE
  1

  0
ENDBLK
  5
56
330
A
100
AcDbEntity
  8
0
100
AcDbBlockEnd
  0
BLOCK
  5
44
330
B
100
AcDbEntity
 67
     1
  8
0
100
AcDbBlockBegin
  2
*PAPER_SPACE
 70
     0
 10
0.0
 20
0.0
 30
0.0
  3
*PAPER_SPACE
  1

  0
ENDBLK
  5
57
330
B
100
AcDbEntity
 67
     1
  8
0
100
AcDbBlockEnd
  0
BLOCK
  5
45
330
C
100
AcDbEntity
  8
0
100
AcDbBlockBegin
  2
_ARCHTICK
 70
     0
 10
0.0
 20
0.0
 30
0.0
  3
_ARCHTICK
  1

  0
LWPOLYLINE
  5
78
330
C
100
AcDbEntity
  8
0
  6
ByBlock
 62
     0
380
     1
100
AcDbPolyline
 90
        2
 70
     1
 43
0.15
 10
-0.5
 20
-0.5
 10
0.5
 20
0.5
  0
ENDBLK
  5
58
330
C
100
AcDbEntity
  8
0
100
AcDbBlockEnd
  0
BLOCK
  5
46
330
D
100
AcDbEntity
  8
0
100
AcDbBlockBegin
  2
_OBLIQUE
 70
     0
 10
0.0
 20
0.0
 30
0.0
  3
_OBLIQUE
  1

  0
LINE
  5
7C
330
D
100
AcDbEntity
  8
0
  6
ByBlock
 62
     0
380
     1
100
AcDbLine
 10
-0.5
 20
-0.5
 30
0.0
 11
0.5
 21
0.5
 31
0.0
  0
ENDBLK
  5
64
330
D
100
AcDbEntity
  8
0
100
AcDbBlockEnd
  0
BLOCK
  5
47
330
E
100
AcDbEntity
  8
0
100
AcDbBlockBegin
  2
_BOXBLANK
 70
     0
 10
0.0
 20
0.0
 30
0.0
  3
_BOXBLANK
  1

  0
LINE
  5
7D
330
E
100
AcDbEntity
  8
0
  6
ByBlock
 62
     0
380
     1
100
AcDbLine
 10
-0.5
 20
-0.5
 30
0.0
 11
0.5
 21
-0.5
 31
0.0
  0
LINE
  5
7E
330
E
100
AcDbEntity
  8
0
  6
ByBlock
 62
     0
380
     1
100
AcDbLine
 10
0.5
 20
-0.5
 30
0.0
 11
0.5
 21
0.5
 31
0.0
  0
LINE
  5
7F
330
E
100
AcDbEntity
  8
0
  6
ByBlock
 62
     0
380
     1
100
AcDbLine
 10
0.5
 20
0.5
 30
0.0
 11
-0.5
 21
0.5
 31
0.0
  0
LINE
  5
80
330
E
100
AcDbEntity
  8
0
  6
ByBlock
 62
     0
380
     1
100
AcDbLine
 10
-0.5
 20
0.5
 30
0.0
 11
-0.5
 21
-0.5
 31
0.0
  0
LINE
  5
81
330
E
100
AcDbEntity
  8
0
  6
ByBlock
 62
     0
380
     1
100
AcDbLine
 10
-0.5
 20
0.0
 30
0.0
 11
-1.0
 21
0.0
 31
0.0
  0
ENDBLK
  5
59
330
E
100
AcDbEntity
  8
0
100
AcDbBlockEnd
  0
BLOCK
  5
48
330
F
100
AcDbEntity
  8
0
100
AcDbBlockBegin
  2
_BOXFILLED
 70
     0
 10
0.0
 20
0.0
 30
0.0
  3
_BOXFILLED
  1

  0
SOLID
  5
82
330
F
100
AcDbEntity
  8
0
  6
ByBlock
 62
     0
380
     1
100
AcDbTrace
 10
-0.5
 20
0.5
 30
0.0
 11
0.5
 21
0.5
 31
0.0
 12
-0.5
 22
-0.5
 32
0.0
 13
0.5
 23
-0.5
 33
0.0
  0
LINE
  5
83
330
F
100
AcDbEntity
  8
0
  6
ByBlock
 62
     0
380
     1
100
AcDbLine
 10
-0.5
 20
0.0
 30
0.0
 11
-1.0
 21
0.0
 31
0.0
  0
ENDBLK
  5
5A
330
F
100
AcDbEntity
  8
0
100
AcDbBlockEnd
  0
BLOCK
  5
49
330
10
100
AcDbEntity
  8
0
100
AcDbBlockBegin
  2
_CLOSED
 70
     0
 10
0.0
 20
0.0
 30
0.0
  3
_CLOSED
  1

  0
LINE
  5
84
330
10
100
AcDbEntity
  8
0
  6
ByBlock
 62
     0
380
     1
100
AcDbLine
 10
-1.0
 20
0.16666666666667
 30
0.0
 11
0.0
 21
0.0
 31
0.0
  0
LINE
  5
85
330
10
100
AcDbEntity
  8
0
  6
ByBlock
 62
     0
380
     1
100
AcDbLine
 10
0.0
 20
0.0
 30
0.0
 11
-1.0
 21
-0.16666666666667
 31
0.0
  0
LINE
  5
86
330
10
100
AcDbEntity
  8
0
  6
ByBlock
 62
     0
380
     1
100
AcDbLine
 10
-1.0
 20
0.16666666666667
 30
0.0
 11
-1.0
 21
-0.16666666666667
 31
0.0
  0
LINE
  5
87
330
10
100
AcDbEntity
  8
0
  6
ByBlock
 62
     0
380
     1
100
AcDbLine
 10
0.0
 20
0.0
 30
0.0
 11
-1.0
 21
0.0
 31
0.0
  0
ENDBLK
  5
5B
330
10
100
AcDbEntity
  8
0
100
AcDbBlockEnd
  0
BLOCK
  5
4A
330
11
100
AcDbEntity
  8
0
100
AcDbBlockBegin
  2
_OPEN
 70
     0
 10
0.0
 20
0.0
 30
0.0
  3
_OPEN
  1

  0
LINE
  5
88
330
11
100
AcDbEntity
  8
0
  6
ByBlock
 62
     0
380
     1
100
AcDbLine
 10
-1.0
 20
0.16666666666667
 30
0.0
 11
0.0
 21
0.0
 31
0.0
  0
LINE
  5
89
330
11
100
AcDbEntity
  8
0
  6
ByBlock
 62
     0
380
     1
100
AcDbLine
 10
0.0
 20
0.0
 30
0.0
 11
-1.0
 21
-0.16666666666667
 31
0.0
  0
LINE
  5
8A
330
11
100
AcDbEntity
  8
0
  6
ByBlock
 62
     0
380
     1
100
AcDbLine
 10
0.0
 20
0.0
 30
0.0
 11
-1.0
 21
0.0
 31
0.0
  0
ENDBLK
  5
65
330
11
100
AcDbEntity
  8
0
100
AcDbBlockEnd
  0
BLOCK
  5
4B
330
12
100
AcDbEntity
  8
0
100
AcDbBlockBegin
  2
_OPEN30
 70
     0
 10
0.0
 20
0.0
 30
0.0
  3
_OPEN30
  1

  0
LINE
  5
8B
330
12
100
AcDbEntity
  8
0
  6
ByBlock
 62
     0
380
     1
100
AcDbLine
 10
-1.0
 20
0.2679491924311
 30
0.0
 11
0.0
 21
0.0
 31
0.0
  0
LINE
  5
8C
330
12
100
AcDbEntity
  8
0
  6
ByBlock
 62
     0
380
     1
100
AcDbLine
 10
0.0
 20
0.0
 30
0.0
 11
-1.0
 21
-0.2679491924311
 31
0.0
  0
LINE
  5
8D
330
12
100
AcDbEntity
  8
0
  6
ByBlock
 62
     0
380
     1
100
AcDbLine
 10
0.0
 20
0.0
 30
0.0
 11
-1.0
 21
0.0
 31
0.0
  0
ENDBLK
  5
66
330
12
100
AcDbEntity
  8
0
100
AcDbBlockEnd
  0
BLOCK
  5
4C
330
13
100
AcDbEntity
  8
0
100
AcDbBlockBegin
  2
_OPEN90
 70
     0
 10
0.0
 20
0.0
 30
0.0
  3
_OPEN90
  1

  0
LINE
  5
8E
330
13
100
AcDbEntity
  8
0
  6
ByBlock
 62
     0
380
     1
100
AcDbLine
 10
-0.5
 20
0.5
 30
0.0
 11
0.0
 21
0.0
 31
0.0
  0
LINE
  5
8F
330
13
100
AcDbEntity
  8
0
  6
ByBlock
 62
     0
380
     1
100
AcDbLine
 10
0.0
 20
0.0
 30
0.0
 11
-0.5
 21
-0.5
 31
0.0
  0
LINE
  5
90
330
13
100
AcDbEntity
  8
0
  6
ByBlock
 62
     0
380
     1
100
AcDbLine
 10
0.0
 20
0.0
 30
0.0
 11
-1.0
 21
0.0
 31
0.0
  0
ENDBLK
  5
67
330
13
100
AcDbEntity
  8
0
100
AcDbBlockEnd
  0
BLOCK
  5
4D
330
14
100
AcDbEntity
  8
0
100
AcDbBlockBegin
  2
_CLOSEDBLANK
 70
     0
 10
0.0
 20
0.0
 30
0.0
  3
_CLOSEDBLANK
  1

  0
LINE
  5
91
330
14
100
AcDbEntity
  8
0
  6
ByBlock
 62
     0
380
     1
100
AcDbLine
 10
-1.0
 20
0.16666666666667
 30
0.0
 11
0.0
 21
0.0
 31
0.0
  0
LINE
  5
92
330
14
100
AcDbEntity
  8
0
  6
ByBlock
 62
     0
380
     1
100
AcDbLine
 10
0.0
 20
0.0
 30
0.0
 11
-1.0
 21
-0.16666666666667
 31
0.0
  0
LINE
  5
93
330
14
100
AcDbEntity
  8
0
  6
ByBlock
 62
     0
380
     1
100
AcDbLine
 10
-1.0
 20
0.16666666666667
 30
0.0
 11
-1.0
 21
-0.16666666666667
 31
0.0
  0
ENDBLK
  5
5C
330
14
100
AcDbEntity
  8
0
100
AcDbBlockEnd
  0
BLOCK
  5
4E
330
15
100
AcDbEntity
  8
0
100
AcDbBlockBegin
  2
_DOT
 70
     0
 10
0.0
 20
0.0
 30
0.0
  3
_DOT
  1

  0
LWPOLYLINE
  5
94
330
15
100
AcDbEntity
  8
0
  6
ByBlock
 62
     0
380
     1
100
AcDbPolyline
 90
        2
 70
     1
 43
0.5
 10
-0.25
 20
0.0
 42
1.0
 10
0.25
 20
0.0
 42
1.0
  0
LINE
  5
98
330
15
100
AcDbEntity
  8
0
  6
ByBlock
 62
     0
380
     1
100
AcDbLine
 10
-0.5
 20
0.0
 30
0.0
 11
-1.0
 21
0.0
 31
0.0
  0
ENDBLK
  5
5F
330
15
100
AcDbEntity
  8
0
100
AcDbBlockEnd
  0
BLOCK
  5
4F
330
16
100
AcDbEntity
  8
0
100
AcDbBlockBegin
  2
_DOTSMALL
 70
     0
 10
0.0
 20
0.0
 30
0.0
  3
_DOTSMALL
  1

  0
LWPOLYLINE
  5
99
330
16
100
AcDbEntity
  8
0
  6
ByBlock
 62
     0
380
     1
100
AcDbPolyline
 90
        2
 70
     1
 43
0.5
 10
-0.0625
 20
0.0
 42
1.0
 10
0.0625
 20
0.0
 42
1.0
  0
ENDBLK
  5
61
330
16
100
AcDbEntity
  8
0
100
AcDbBlockEnd
  0
BLOCK
  5
50
330
17
100
AcDbEntity
  8
0
100
AcDbBlockBegin
  2
_DATUMBLANK
 70
     0
 10
0.0
 20
0.0
 30
0.0
  3
_DATUMBLANK
  1

  0
LINE
  5
9D
330
17
100
AcDbEntity
  8
0
  6
ByBlock
 62
     0
380
     1
100
AcDbLine
 10
0.0
 20
0.5773502700000001
 30
0.0
 11
-1.0
 21
0.0
 31
0.0
  0
LINE
  5
9E
330
17
100
AcDbEntity
  8
0
  6
ByBlock
 62
     0
380
     1
100
AcDbLine
 10
-1.0
 20
0.0
 30
0.0
 11
0.0
 21
-0.5773502700000001
 31
0.0
  0
LINE
  5
9F
330
17
100
AcDbEntity
  8
0
  6
ByBlock
 62
     0
380
     1
100
AcDbLine
 10
0.0
 20
-0.5773502700000001
 30
0.0
 11
0.0
 21
0.5773502700000001
 31
0.0
  0
ENDBLK
  5
5D
330
17
100
AcDbEntity
  8
0
100
AcDbBlockEnd
  0
BLOCK
  5
51
330
18
100
AcDbEntity
  8
0
100
AcDbBlockBegin
  2
_DATUMFILLED
 70
     0
 10
0.0
 20
0.0
 30
0.0
  3
_DATUMFILLED
  1

  0
SOLID
  5
A0
330
18
100
AcDbEntity
  8
0
  6
ByBlock
 62
     0
380
     1
100
AcDbTrace
 10
0.0
 20
0.5773502700000001
 30
0.0
 11
-1.0
 21
0.0
 31
0.0
 12
0.0
 22
-0.5773502700000001
 32
0.0
 13
0.0
 23
-0.5773502700000001
 33
0.0
  0
ENDBLK
  5
5E
330
18
100
AcDbEntity
  8
0
100
AcDbBlockEnd
  0
BLOCK
  5
52
330
19
100
AcDbEntity
  8
0
100
AcDbBlockBegin
  2
_ORIGIN
 70
     0
 10
0.0
 20
0.0
 30
0.0
  3
_ORIGIN
  1

  0
CIRCLE
  5
A1
330
19
100
AcDbEntity
  8
0
  6
ByBlock
 62
     0
380
     1
100
AcDbCircle
 10
0.0
 20
0.0
 30
0.0
 40
0.5
  0
LINE
  5
A2
330
19
100
AcDbEntity
  8
0
  6
ByBlock
 62
     0
380
     1
100
AcDbLine
 10
0.0
 20
0.0
 30
0.0
 11
-1.0
 21
0.0
 31
0.0
  0
ENDBLK
  5
68
330
19
100
AcDbEntity
  8
0
100
AcDbBlockEnd
  0
BLOCK
  5
53
330
1A
100
AcDbEntity
  8
0
100
AcDbBlockBegin
  2
_NONE
 70
     0
 10
0.0
 20
0.0
 30
0.0
  3
_NONE
  1

  0
CIRCLE
  5
A3
330
1A
100
AcDbEntity
  8
0
  6
ByBlock
 62
     0
380
     1
100
AcDbCircle
 10
0.0
 20
0.0
 30
0.0
 40
0.25
  0
ENDBLK
  5
63
330
1A
100
AcDbEntity
  8
0
100
AcDbBlockEnd
  0
BLOCK
  5
54
330
1B
100
AcDbEntity
  8
0
100
AcDbBlockBegin
  2
_DOTBLANK
 70
     0
 10
0.0
 20
0.0
 30
0.0
  3
_DOTBLANK
  1

  0
CIRCLE
  5
A4
330
1B
100
AcDbEntity
  8
0
  6
ByBlock
 62
     0
380
     1
100
AcDbCircle
 10
0.0
 20
0.0
 30
0.0
 40
0.5
  0
LINE
  5
A5
330
1B
100
AcDbEntity
  8
0
  6
ByBlock
 62
     0
380
     1
100
AcDbLine
 10
-0.5
 20
0.0
 30
0.0
 11
-1.0
 21
0.0
 31
0.0
  0
ENDBLK
  5
60
330
1B
100
AcDbEntity
  8
0
100
AcDbBlockEnd
  0
BLOCK
  5
55
330
1C
100
AcDbEntity
  8
0
100
AcDbBlockBegin
  2
_INTEGRAL
 70
     0
 10
0.0
 20
0.0
 30
0.0
  3
_INTEGRAL
  1

  0
ARC
  5
A6
330
1C
100
AcDbEntity
  8
0
  6
ByBlock
 62
     0
380
     1
100
AcDbCircle
 10
0.444888
 20
-0.091335
 30
0.0
 40
0.454167
100
AcDbArc
 50
102.0
 51
168.0
  0
ARC
  5
A7
330
1C
100
AcDbEntity
  8
0
  6
ByBlock
 62
     0
380
     1
100
AcDbCircle
 10
-0.444888
 20
0.091335
 30
0.0
 40
0.454167
100
AcDbArc
 50
282.0
 51
348.0
  0
ENDBLK
  5
62
330
1C
100
AcDbEntity
  8
0
100
AcDbBlockEnd
  0
ENDSEC
  0
SECTION
  2
ENTITIES
  0
TEXT
  5
241
330
A
100
AcDbEntity
  8
LEVEL001
 62
     8
100
AcDbText
 10
943.5000000000799
 20
566.25000000001
 30
0.0
 40
9.0
  1
　　　　　　　
100
AcDbText
  0
TEXT
  5
246
330
A
100
AcDbEntity
  8
LEVEL001
 62
     8
100
AcDbText
 10
943.5000000000799
 20
506.25000000001
 30
0.0
 40
9.0
  1
　
100
AcDbText
  0
TEXT
  5
249
330
A
100
AcDbEntity
  8
LEVEL001
 62
     8
100
AcDbText
 10
943.5000000000799
 20
470.25000000001
 30
0.0
 40
9.0
  1

 41
0.5
100
AcDbText
  0
TEXT
  5
24F
330
A
100
AcDbEntity
  8
LEVEL001
 62
     8
100
AcDbText
 10
943.5000000000799
 20
398.25000000001
 30
0.0
 40
9.0
  1

 41
0.5
100
AcDbText
  0
TEXT
  5
251
330
A
100
AcDbEntity
  8
LEVEL001
 62
     8
100
AcDbText
 10
943.5000000000799
 20
374.25000000001
 30
0.0
 40
9.0
  1

 41
0.5
100
AcDbText
  0
TEXT
  5
256
330
A
100
AcDbEntity
  8
LEVEL001
 62
     8
100
AcDbText
 10
943.5000000000799
 20
314.25000000001
 30
0.0
 40
9.0
  1
　　　
100
AcDbText
  0
LWPOLYLINE
  5
20D2
330
A
100
AcDbEntity
  8
LEVEL001
  6
Continuous
 62
     3
370
    40
100
AcDbPolyline
 90
        5
 70
     0
 43
0.0
 10
46.50000000008185
 20
36.00000000000591
 10
1213.5000000001
 20
36.00000000000591
 10
1213.5000000001
 20
855.00000000001
 10
46.50000000008185
 20
855.00000000001
 10
46.50000000008185
 20
36.00000000000591
  0
LINE
  5
20D3
330
A
100
AcDbEntity
  8
LEVEL001
  6
Continuous
 62
     3
370
    40
100
AcDbLine
 10
913.50000000008
 20
855.00000000001
 30
0.0
 11
913.50000000008
 21
36.00000000000591
 31
0.0
  0
LINE
  5
211F
330
A
100
AcDbEntity
  8
LEVEL001
  6
Continuous
 62
     3
100
AcDbLine
 10
913.50000000008
 20
770.25000000001
 30
0.0
 11
1213.5000000001
 21
770.25000000001
 31
0.0
  0
LINE
  5
2120
330
A
100
AcDbEntity
  8
LEVEL001
  6
Continuous
 62
     3
100
AcDbLine
 10
913.50000000008
 20
710.25000000001
 30
0.0
 11
1213.5000000001
 21
710.25000000001
 31
0.0
  0
LINE
  5
2121
330
A
100
AcDbEntity
  8
LEVEL001
  6
Continuous
 62
     3
100
AcDbLine
 10
913.50000000008
 20
650.2500000000099
 30
0.0
 11
1213.5000000001
 21
650.2500000000099
 31
0.0
  0
LINE
  5
2122
330
A
100
AcDbEntity
  8
LEVEL001
  6
Continuous
 62
     3
100
AcDbLine
 10
913.50000000008
 20
216.00000000001
 30
0.0
 11
1213.5000000001
 21
216.00000000001
 31
0.0
  0
LINE
  5
2123
330
A
100
AcDbEntity
  8
LEVEL001
  6
Continuous
 62
     3
100
AcDbLine
 10
913.50000000008
 20
156.00000000001
 30
0.0
 11
1213.5000000001
 21
156.00000000001
 31
0.0
  0
LINE
  5
2124
330
A
100
AcDbEntity
  8
LEVEL001
  6
Continuous
 62
     3
100
AcDbLine
 10
913.50000000008
 20
96.00000000000591
 30
0.0
 11
1213.5000000001
 21
96.00000000000591
 31
0.0
  0
LINE
  5
2125
330
A
100
AcDbEntity
  8
LEVEL001
  6
Continuous
 62
     3
100
AcDbLine
 10
1063.5000000001
 20
136.00000000001
 30
0.0
 11
1213.5000000001
 21
136.00000000001
 31
0.0
  0
LINE
  5
2126
330
A
100
AcDbEntity
  8
LEVEL001
  6
Continuous
 62
     3
100
AcDbLine
 10
1063.5000000001
 20
156.00000000001
 30
0.0
 11
1063.5000000001
 21
36.00000000000591
 31
0.0
  0
LINE
  5
2127
330
A
100
AcDbEntity
  8
LEVEL001
  6
Continuous
 62
     3
100
AcDbLine
 10
1063.5000000001
 20
116.00000000001
 30
0.0
 11
1213.5000000001
 21
116.00000000001
 31
0.0
  0
LWPOLYLINE
  5
2128
330
A
100
AcDbEntity
  8
0
  6
DOT
100
AcDbPolyline
 90
        5
 70
     0
 43
0.0
 10
0.0
 20
0.0
 10
1260.0
 20
0.0
 10
1260.0
 20
891.0
 10
0.0
 20
891.0
 10
0.0
 20
0.0
  0
LINE
  5
2129
330
A
100
AcDbEntity
  8
LEVEL001
  6
Continuous
 62
     3
370
    40
100
AcDbLine
 10
46.50000000008185
 20
840.0000000000099
 30
0.0
 11
913.50000000008
 21
840.0000000000099
 31
0.0
  0
TEXT
  5
212A
330
A
100
AcDbEntity
  8
LEVEL001
 62
     8
100
AcDbText
 10
979.20000000008
 20
49.12500000000591
 30
0.0
 40
11.25
  1
Ａ３
 41
0.8
 72
     1
 11
988.50000000008
 21
54.75000000000591
 31
0.0
100
AcDbText
 73
     2
  0
TEXT
  5
212B
330
A
100
AcDbEntity
  8
LEVEL001
 62
     8
100
AcDbText
 10
1115.5652536825
 20
101.50000000001
 30
0.0
 40
9.0
  1
平成　　年　　月　　日
 41
0.8
 72
     1
 11
1161.6452536825
 21
106.00000000001
 31
0.0
100
AcDbText
 73
     2
  0
TEXT
  5
212C
330
A
100
AcDbEntity
  8
LEVEL001
 62
     8
100
AcDbText
 10
917.5200000000801
 20
754.50000000001
 30
0.0
 40
9.0
  1
商品名：
 41
0.8
 72
     1
 11
932.40000000008
 21
759.00000000001
 31
0.0
100
AcDbText
 73
     2
  0
TEXT
  5
212D
330
A
100
AcDbEntity
  8
LEVEL001
 62
     8
100
AcDbText
 10
917.3400000000802
 20
694.5000000000099
 30
0.0
 40
9.0
  1
形式：
 41
0.8
 72
     1
 11
927.9000000000801
 21
699.00000000001
 31
0.0
100
AcDbText
 73
     2
  0
TEXT
  5
212E
330
A
100
AcDbEntity
  8
LEVEL001
 62
     8
100
AcDbText
 10
917.3400000000802
 20
634.50000000001
 30
0.0
 40
9.0
  1
仕様：
 41
0.8
 72
     1
 11
927.9000000000801
 21
639.00000000001
 31
0.0
100
AcDbText
 73
     2
  0
TEXT
  5
212F
330
A
100
AcDbEntity
  8
LEVEL001
 62
     8
100
AcDbText
 10
917.4600000000801
 20
200.25000000001
 30
0.0
 40
9.0
  1
図面名称：
 41
0.8
 72
     1
 11
936.90000000008
 21
204.75000000001
 31
0.0
100
AcDbText
 73
     2
  0
TEXT
  5
2130
330
A
100
AcDbEntity
  8
LEVEL001
 62
     8
100
AcDbText
 10
917.3400000000802
 20
140.25000000001
 30
0.0
 40
9.0
  1
縮尺：
 41
0.8
 72
     1
 11
927.9000000000801
 21
144.75000000001
 31
0.0
100
AcDbText
 73
     2
  0
TEXT
  5
2131
330
A
100
AcDbEntity
  8
LEVEL001
 62
     8
100
AcDbText
 10
917.8800000000801
 20
81.6646056858849
 30
0.0
 40
9.0
  1
用紙サイズ：
 41
0.8
 72
     1
 11
941.40000000008
 21
86.16460568588491
 31
0.0
100
AcDbText
 73
     2
  0
TEXT
  5
2132
330
A
100
AcDbEntity
  8
LEVEL001
 62
     8
100
AcDbText
 10
1068.980000000099
 20
141.80000000001
 30
0.0
 40
8.4
  1
作成日付：
 41
0.8
 72
     1
 11
1086.900000000099
 21
146.00000000001
 31
0.0
100
AcDbText
 73
     2
  0
TEXT
  5
2133
330
A
100
AcDbEntity
  8
LEVEL001
 62
     8
100
AcDbText
 10
1068.980000000099
 20
121.80000000001
 30
0.0
 40
8.4
  1
変更日付：
 41
0.8
 72
     1
 11
1086.900000000099
 21
126.00000000001
 31
0.0
100
AcDbText
 73
     2
  0
TEXT
  5
2134
330
A
100
AcDbEntity
  8
LEVEL001
 62
     8
100
AcDbText
 10
1067.6400000001
 20
80.25000000000591
 30
0.0
 40
9.0
  1
ファイル名：
 41
0.8
 72
     1
 11
1091.400000000099
 21
84.75000000000591
 31
0.0
100
AcDbText
 73
     2
  0
TEXT
  5
2135
330
A
100
AcDbEntity
  8
LEVEL001
 62
     8
100
AcDbText
 10
982.2446299340999
 20
721.36381578949
 30
0.0
 40
13.5
  1
パルラインジャンティガード
 41
0.8
 72
     1
 11
1064.3246299341
 21
728.11381578949
 31
0.0
100
AcDbText
 73
     2
  0
TEXT
  5
2136
330
A
100
AcDbEntity
  8
LEVEL001
 62
     8
100
AcDbText
 10
1035.6000000001
 20
169.12500000001
 30
0.0
 40
11.25
  1
平面図･姿図
 41
0.8
 72
     1
 11
1063.5000000001
 21
174.75000000001
 31
0.0
100
AcDbText
 73
     2
  0
LINE
  5
2137
330
A
100
AcDbEntity
  8
LEVEL001
  6
Continuous
 62
     3
370
    40
100
AcDbLine
 10
46.50000000008185
 20
430.50000000001
 30
0.0
 11
913.50000000008
 21
430.50000000001
 31
0.0
  0
LINE
  5
2138
330
A
100
AcDbEntity
  8
LEVEL001
  6
Continuous
 62
     3
370
    40
100
AcDbLine
 10
46.50000000008185
 20
445.50000000001
 30
0.0
 11
913.50000000008
 21
445.50000000001
 31
0.0
  0
LINE
  5
2139
330
A
100
AcDbEntity
  8
LEVEL001
  6
Continuous
 62
     3
370
    40
100
AcDbLine
 10
480.00000000008
 20
855.00000000001
 30
0.0
 11
480.00000000008
 21
445.50000000001
 31
0.0
  0
TEXT
  5
213A
330
A
100
AcDbEntity
  8
LEVEL001
 62
     8
100
AcDbText
 10
1115.5652536825
 20
141.50000000001
 30
0.0
 40
9.0
  1
平成２０年　５月　１日
 41
0.8
 72
     1
 11
1161.6452536825
 21
146.00000000001
 31
0.0
100
AcDbText
 73
     2
  0
TEXT
  5
213B
330
A
100
AcDbEntity
  8
LEVEL001
 62
     8
100
AcDbText
 10
1115.5652536825
 20
121.50000000001
 30
0.0
 40
9.0
  1
平成２５年１１月　１日
 41
0.8
 72
     1
 11
1161.6452536825
 21
126.00000000001
 31
0.0
100
AcDbText
 73
     2
  0
TEXT
  5
21AB
330
A
100
AcDbEntity
  8
LEVEL001
 62
     8
100
AcDbText
 10
928.4171849426998
 20
219.4413378189799
 30
0.0
 40
10.0
  1
※本製品は予告無しに変更する事があります。
 41
0.8
 72
     1
 11
1026.0171849427
 21
224.44133781898
 31
0.0
100
AcDbText
 73
     2
  0
TEXT
  5
21AC
330
A
100
AcDbEntity
  8
LEVEL001
 62
     8
100
AcDbText
 10
943.5000000000799
 20
614.25000000001
 30
0.0
 40
9.0
  1
ブラケット(ＲＰＢ)
 41
0.8
100
AcDbText
  0
TEXT
  5
21AD
330
A
100
AcDbEntity
  8
LEVEL001
 62
     8
100
AcDbText
 10
943.5000000000799
 20
602.25000000001
 30
0.0
 40
9.0
  1
　材質：　　ＡＢＳ･スチール
 41
0.8
100
AcDbText
  0
TEXT
  5
21AE
330
A
100
AcDbEntity
  8
LEVEL001
 62
     8
100
AcDbText
 10
943.5000000000799
 20
590.25000000001
 30
0.0
 40
9.0
  1
　表面処理：クロメート(ｔ＝２.３)
 41
0.8
100
AcDbText
  0
TEXT
  5
21AF
330
A
100
AcDbEntity
  8
LEVEL001
 62
     8
100
AcDbText
 10
943.5000000000799
 20
578.25000000001
 30
0.0
 40
9.0
  1
　仕上：　　オフホワイト
 41
0.8
100
AcDbText
  0
TEXT
  5
21B0
330
A
100
AcDbEntity
  8
LEVEL001
 62
     8
100
AcDbText
 10
943.5000000000799
 20
554.2500000000099
 30
0.0
 40
9.0
  1
笠木受(ＪＰ１５Ｕ)
 41
0.8
100
AcDbText
  0
TEXT
  5
21B1
330
A
100
AcDbEntity
  8
LEVEL001
 62
     8
100
AcDbText
 10
943.5000000000799
 20
541.0861813788087
 30
0.0
 40
9.0
  1
　ＪＰ１５Ｕ－ＪＰ１５０適用
 41
0.8
100
AcDbText
  0
TEXT
  5
21B2
330
A
100
AcDbEntity
  8
LEVEL001
 62
     8
100
AcDbText
 10
943.5000000000799
 20
529.0861813788088
 30
0.0
 40
9.0
  1
　･材質:特殊樹脂
 41
0.8
100
AcDbText
  0
TEXT
  5
21B3
330
A
100
AcDbEntity
  8
LEVEL001
 62
     8
100
AcDbText
 10
943.5000000000799
 20
503.4499308822823
 30
0.0
 40
9.0
  1
ＲＰ１５０･ＲＰ１５０Ｍ
 41
0.8
100
AcDbText
  0
TEXT
  5
21B4
330
A
100
AcDbEntity
  8
LEVEL001
 62
     8
100
AcDbText
 10
943.5000000000799
 20
491.4499308822824
 30
0.0
 40
9.0
  1
　･エンドキャップ　
 41
0.8
100
AcDbText
  0
TEXT
  5
21B5
330
A
100
AcDbEntity
  8
LEVEL001
 62
     8
100
AcDbText
 10
943.5000000000799
 20
479.4499308822824
 30
0.0
 40
9.0
  1
　　(ＪＰ１５Ｅ･ＪＰ１５ＥＭ)･･･ＡＢＳ
 41
0.8
100
AcDbText
  0
TEXT
  5
21B6
330
A
100
AcDbEntity
  8
LEVEL001
 62
     8
100
AcDbText
 10
943.5000000000799
 20
467.4499308822824
 30
0.0
 40
9.0
  1
　･アールエンドキャップ
 41
0.8
100
AcDbText
  0
TEXT
  5
21B7
330
A
100
AcDbEntity
  8
LEVEL001
 62
     8
100
AcDbText
 10
943.5000000000799
 20
455.4499308822824
 30
0.0
 40
9.0
  1
　　(ＪＰ１５ＲＥ･ＪＰ１５ＲＥＭ)･･･ＡＢＳ
 41
0.8
100
AcDbText
  0
TEXT
  5
21B8
330
A
100
AcDbEntity
  8
LEVEL001
 62
     8
100
AcDbText
 10
943.5000000000799
 20
431.4499308822823
 30
0.0
 40
9.0
  1
※木目色はミディアムオーク(Ｍ６６)のみ
 41
0.8
100
AcDbText
  0
TEXT
  5
21B9
330
A
100
AcDbEntity
  8
LEVEL001
 62
     8
100
AcDbText
 10
943.5000000000799
 20
407.4499308822823
 30
0.0
 40
9.0
  1
仕上：標準色
 41
0.8
100
AcDbText
  0
TEXT
  5
21BA
330
A
100
AcDbEntity
  8
LEVEL001
 62
     8
100
AcDbText
 10
943.5000000000799
 20
395.4499308822824
 30
0.0
 40
9.0
  1
　　　Ｐ０１－パールグレイ（白鼠）
 41
0.8
100
AcDbText
  0
TEXT
  5
21BB
330
A
100
AcDbEntity
  8
LEVEL001
 62
     8
100
AcDbText
 10
943.5000000000799
 20
383.4499308822824
 30
0.0
 40
9.0
  1
　　　Ｐ０６－アイボリー（白茶）
 41
0.8
100
AcDbText
  0
TEXT
  5
21BC
330
A
100
AcDbEntity
  8
LEVEL001
 62
     8
100
AcDbText
 10
943.5000000000799
 20
371.4499308822824
 30
0.0
 40
9.0
  1
　　　Ｐ１１－チョコレート（濃茶）
 41
0.8
100
AcDbText
  0
TEXT
  5
21BD
330
A
100
AcDbEntity
  8
LEVEL001
 62
     8
100
AcDbText
 10
943.5000000000799
 20
347.4499308822824
 30
0.0
 40
9.0
  1
　　　木目色（※ＪＰ１５０Ｍのみ）
 41
0.8
100
AcDbText
  0
TEXT
  5
21BE
330
A
100
AcDbEntity
  8
LEVEL001
 62
     8
100
AcDbText
 10
943.5000000000799
 20
335.4499308822824
 30
0.0
 40
9.0
  1
　　　Ｍ６６－ミディアムオーク　
 41
0.8
100
AcDbText
  0
TEXT
  5
21BF
330
A
100
AcDbEntity
  8
LEVEL001
 62
     8
100
AcDbText
 10
943.5000000000799
 20
323.4499308822824
 30
0.0
 40
9.0
  1
　　　Ｍ６４－ライトオーク　※受注生産
 41
0.8
100
AcDbText
  0
TEXT
  5
21C0
330
A
100
AcDbEntity
  8
LEVEL001
 62
     8
100
AcDbText
 10
943.5000000000799
 20
311.4499308822824
 30
0.0
 40
9.0
  1
　　　Ｍ６２－パーチオーク　※受注生産
 41
0.8
100
AcDbText
  0
TEXT
  5
21C1
330
A
100
AcDbEntity
  8
LEVEL001
 62
     8
100
AcDbText
 10
1038.8600000001
 20
670.7500000000099
 30
0.0
 40
10.5
  1
ＲＰタイプ
 41
0.8
 72
     1
 11
1063.5000000001
 21
676.00000000001
 31
0.0
100
AcDbText
 73
     2
  0
TEXT
  5
21C2
330
A
100
AcDbEntity
  8
LEVEL001
 62
     8
100
AcDbText
 10
1119.3000000001
 20
49.12500000000591
 30
0.0
 40
11.25
  1
ＲＰ－１
 41
0.8
 72
     1
 11
1138.5000000001
 21
54.75000000000591
 31
0.0
100
AcDbText
 73
     2
  0
TEXT
  5
21C3
330
A
100
AcDbEntity
  8
LEVEL001
 62
     8
100
AcDbText
 10
47.40000000008194
 20
843.00000000001
 30
0.0
 40
9.0
  1
 ＲＰ１５０･ＲＰ１５０Ｍ
 41
0.8
 11
47.40000000008194
 21
847.50000000001
 31
0.0
100
AcDbText
 73
     2
  0
LINE
  5
21C4
330
A
100
AcDbEntity
  8
LEVEL002
  6
Continuous
 62
     7
370
    30
100
AcDbLine
 10
63.92922618923194
 20
707.9082008640598
 30
0.0
 11
63.92922618923194
 21
636.3654008078301
 31
0.0
  0
LINE
  5
21C5
330
A
100
AcDbEntity
  8
LEVEL002
  6
Continuous
 62
     7
370
    30
100
AcDbLine
 10
63.92922618923194
 20
560.3654008078301
 30
0.0
 11
63.92922618923194
 21
636.3654008078301
 31
0.0
  0
LINE
  5
21C6
330
A
100
AcDbEntity
  8
LEVEL002
  6
Continuous
 62
     7
370
    30
100
AcDbLine
 10
63.92922618923194
 20
560.3654008078301
 30
0.0
 11
63.92922618923194
 21
502.0991034593698
 31
0.0
  0
LINE
  5
21C7
330
A
100
AcDbEntity
  8
LEVEL001
  6
DASHDOT
 62
     6
370
    15
100
AcDbLine
 10
50.61515959788221
 20
596.8687455261699
 30
0.0
 11
97.3328377522921
 21
596.8687455261699
 31
0.0
  0
LWPOLYLINE
  5
21C8
330
A
100
AcDbEntity
  8
LEVEL001
  6
Continuous
 62
     2
370
    15
100
AcDbPolyline
 90
        6
 70
     0
 43
0.0
 10
116.9292261892319
 20
583.8687455261699
 10
104.5292261892323
 20
583.8687455261699
 10
103.9292261892319
 20
583.26874552617
 10
103.9292261892319
 20
580.46874552617
 10
104.5292261892323
 20
579.8687455261699
 10
116.9292261892319
 20
579.8687455261699
  0
LINE
  5
21C9
330
A
100
AcDbEntity
  8
LEVEL001
  6
Continuous
 62
     2
370
    15
100
AcDbLine
 10
104.5292261892323
 20
583.8687455261699
 30
0.0
 11
104.5292261892323
 21
579.8687455261699
 31
0.0
  0
LINE
  5
21CA
330
A
100
AcDbEntity
  8
LEVEL001
  6
Continuous
 62
     2
370
    15
100
AcDbLine
 10
103.9292261892319
 20
583.26874552617
 30
0.0
 11
116.9292261892319
 21
583.26874552617
 31
0.0
  0
LINE
  5
21CB
330
A
100
AcDbEntity
  8
LEVEL001
  6
Continuous
 62
     2
370
    15
100
AcDbLine
 10
103.9292261892319
 20
580.46874552617
 30
0.0
 11
116.9292261892319
 21
580.46874552617
 31
0.0
  0
LWPOLYLINE
  5
21CC
330
A
100
AcDbEntity
  8
LEVEL001
  6
Continuous
 62
     2
370
    15
100
AcDbPolyline
 90
        6
 70
     0
 43
0.0
 10
116.9292261892319
 20
613.8687455261799
 10
104.5292261892323
 20
613.8687455261799
 10
103.9292261892319
 20
613.26874552618
 10
103.9292261892319
 20
610.46874552618
 10
104.5292261892323
 20
609.8687455261799
 10
116.9292261892319
 20
609.8687455261799
  0
LINE
  5
21CD
330
A
100
AcDbEntity
  8
LEVEL001
  6
Continuous
 62
     2
370
    15
100
AcDbLine
 10
104.5292261892323
 20
613.8687455261799
 30
0.0
 11
104.5292261892323
 21
609.8687455261799
 31
0.0
  0
LINE
  5
21CE
330
A
100
AcDbEntity
  8
LEVEL001
  6
Continuous
 62
     2
370
    15
100
AcDbLine
 10
103.9292261892319
 20
613.26874552618
 30
0.0
 11
116.9292261892319
 21
613.26874552618
 31
0.0
  0
LINE
  5
21CF
330
A
100
AcDbEntity
  8
LEVEL001
  6
Continuous
 62
     2
370
    15
100
AcDbLine
 10
103.9292261892319
 20
610.46874552618
 30
0.0
 11
116.9292261892319
 21
610.46874552618
 31
0.0
  0
LINE
  5
21D0
330
A
100
AcDbEntity
  8
LEVEL002
  6
Continuous
 62
     2
370
    15
100
AcDbLine
 10
119.9292261892419
 20
583.3687455261699
 30
0.0
 11
119.9292261892319
 21
580.3687455261699
 31
0.0
  0
ARC
  5
21D1
330
A
100
AcDbEntity
  8
LEVEL002
  6
Continuous
 62
     2
370
    15
100
AcDbCircle
 10
117.6292261892322
 20
585.15759990845
 30
0.0
 40
0.7
100
AcDbArc
 50
83.62062978923756
 51
180.0000000224334
  0
ARC
  5
21D2
330
A
100
AcDbEntity
  8
LEVEL002
  6
Continuous
 62
     2
370
    15
100
AcDbCircle
 10
117.4292261892019
 20
583.36874552618
 30
0.0
 40
2.5
100
AcDbArc
 50
0.0
 51
83.62062979089058
  0
ARC
  5
21D3
330
A
100
AcDbEntity
  8
LEVEL002
  6
Continuous
 62
     2
370
    15
100
AcDbCircle
 10
117.6292261893422
 20
578.57989114417
 30
0.0
 40
0.7
100
AcDbArc
 50
180.0000000005211
 51
276.379370199646
  0
ARC
  5
21D4
330
A
100
AcDbEntity
  8
LEVEL002
  6
Continuous
 62
     2
370
    15
100
AcDbCircle
 10
117.4292261892319
 20
580.3687455261399
 30
0.0
 40
2.5
100
AcDbArc
 50
276.3793702085858
 51
0.0
  0
LINE
  5
21D5
330
A
100
AcDbEntity
  8
LEVEL002
  6
Continuous
 62
     2
370
    15
100
AcDbLine
 10
119.9292261892419
 20
613.3687455261799
 30
0.0
 11
119.9292261892319
 21
610.3687455261799
 31
0.0
  0
ARC
  5
21D6
330
A
100
AcDbEntity
  8
LEVEL002
  6
Continuous
 62
     2
370
    15
100
AcDbCircle
 10
117.6292261892322
 20
615.1575999085398
 30
0.0
 40
0.7
100
AcDbArc
 50
83.62062978853119
 51
180.0000000293641
  0
ARC
  5
21D7
330
A
100
AcDbEntity
  8
LEVEL002
  6
Continuous
 62
     2
370
    15
100
AcDbCircle
 10
117.4292261891719
 20
613.3687455261899
 30
0.0
 40
2.5
100
AcDbArc
 50
0.0
 51
83.62062979026045
  0
ARC
  5
21D8
330
A
100
AcDbEntity
  8
LEVEL002
  6
Continuous
 62
     2
370
    15
100
AcDbCircle
 10
117.6292261894523
 20
608.5798911442
 30
0.0
 40
0.7
100
AcDbArc
 50
180.0000000015633
 51
276.3793701904429
  0
ARC
  5
21D9
330
A
100
AcDbEntity
  8
LEVEL002
  6
Continuous
 62
     2
370
    15
100
AcDbCircle
 10
117.4292261892319
 20
610.36874552619
 30
0.0
 40
2.5
100
AcDbArc
 50
276.3793702084807
 51
0.0
  0
ARC
  5
21DA
330
A
100
AcDbEntity
  8
LEVEL002
  6
Continuous
 62
     3
100
AcDbCircle
 10
67.37922618923221
 20
617.1687455262399
 30
0.0
 40
3.45
100
AcDbArc
 50
90.00000000002605
 51
180.0000000010031
  0
ARC
  5
21DB
330
A
100
AcDbEntity
  8
LEVEL002
  6
Continuous
 62
     3
100
AcDbCircle
 10
67.37922618923221
 20
617.16874552653
 30
0.0
 40
1.149999999999999
100
AcDbArc
 50
90.00000000005213
 51
180.0000000174569
  0
LINE
  5
21DC
330
A
100
AcDbEntity
  8
LEVEL002
  6
Continuous
 62
     3
100
AcDbLine
 10
66.22922618923212
 20
617.1687455261799
 30
0.0
 11
66.22922618923212
 21
576.56874552618
 31
0.0
  0
LINE
  5
21DD
330
A
100
AcDbEntity
  8
LEVEL002
  6
Continuous
 62
     3
100
AcDbLine
 10
67.37922618923221
 20
620.6187455261799
 30
0.0
 11
108.4792261892321
 21
620.6187455261699
 31
0.0
  0
LINE
  5
21DE
330
A
100
AcDbEntity
  8
LEVEL002
  6
Continuous
 62
     3
100
AcDbLine
 10
108.4792261892321
 20
618.31874552618
 30
0.0
 11
67.37922618923221
 21
618.31874552618
 31
0.0
  0
ARC
  5
21DF
330
A
100
AcDbEntity
  8
LEVEL002
  6
Continuous
 62
     3
100
AcDbCircle
 10
114.8377398904622
 20
756.8655708830101
 30
0.0
 40
130.0
100
AcDbArc
 50
249.7907257120026
 51
269.5995813504539
  0
LINE
  5
21E0
330
A
100
AcDbEntity
  8
LEVEL002
  6
Continuous
 62
     3
100
AcDbLine
 10
63.92922618923194
 20
634.8687455261799
 30
0.0
 11
69.92922618923194
 21
634.8687455261799
 31
0.0
  0
ARC
  5
21E1
330
A
100
AcDbEntity
  8
LEVEL002
  6
Continuous
 62
     3
100
AcDbCircle
 10
108.4792261892221
 20
617.1687455261698
 30
0.0
 40
3.45
100
AcDbArc
 50
0.0
 51
89.99999999986973
  0
LINE
  5
21E2
330
A
100
AcDbEntity
  8
LEVEL002
  6
Continuous
 62
     3
100
AcDbLine
 10
111.9292261892319
 20
617.1687455261698
 30
0.0
 11
111.9292261892319
 21
605.1187455261799
 31
0.0
  0
ARC
  5
21E3
330
A
100
AcDbEntity
  8
LEVEL002
  6
Continuous
 62
     3
100
AcDbCircle
 10
108.479226189042
 20
617.1687455261799
 30
0.0
 40
1.149999999999999
100
AcDbArc
 50
0.0
 51
89.99999999085465
  0
LINE
  5
21E4
330
A
100
AcDbEntity
  8
LEVEL002
  6
Continuous
 62
     3
100
AcDbLine
 10
109.6292261892322
 20
605.1187455261799
 30
0.0
 11
109.6292261892322
 21
617.1687455261799
 31
0.0
  0
LINE
  5
21E5
330
A
100
AcDbEntity
  8
LEVEL002
  6
Continuous
 62
     3
100
AcDbLine
 10
109.6292261892322
 20
605.1187455261799
 30
0.0
 11
111.9292261892319
 21
605.1187455261799
 31
0.0
  0
LINE
  5
21E6
330
A
100
AcDbEntity
  8
LEVEL002
  6
Continuous
 62
     3
100
AcDbLine
 10
109.6292261892322
 20
588.6187455261799
 30
0.0
 11
111.9292261892319
 21
588.6187455261799
 31
0.0
  0
LINE
  5
21E7
330
A
100
AcDbEntity
  8
LEVEL002
  6
Continuous
 62
     3
100
AcDbLine
 10
111.9292261892319
 20
576.56874552617
 30
0.0
 11
111.9292261892319
 21
588.6187455261799
 31
0.0
  0
LINE
  5
21E8
330
A
100
AcDbEntity
  8
LEVEL002
  6
Continuous
 62
     3
100
AcDbLine
 10
109.6292261892322
 20
576.56874552618
 30
0.0
 11
109.6292261892322
 21
588.6187455261799
 31
0.0
  0
ARC
  5
21E9
330
A
100
AcDbEntity
  8
LEVEL002
  6
Continuous
 62
     3
100
AcDbCircle
 10
67.37922618930224
 20
576.56874552618
 30
0.0
 40
3.45
100
AcDbArc
 50
180.0
 51
269.9999999987493
  0
ARC
  5
21EA
330
A
100
AcDbEntity
  8
LEVEL002
  6
Continuous
 62
     3
100
AcDbCircle
 10
67.37922618959192
 20
576.56874552618
 30
0.0
 40
1.149999999999999
100
AcDbArc
 50
180.0
 51
269.9999999820481
  0
LINE
  5
21EB
330
A
100
AcDbEntity
  8
LEVEL002
  6
Continuous
 62
     3
100
AcDbLine
 10
67.37922618923221
 20
573.11874552618
 30
0.0
 11
108.4792261892321
 21
573.1187455261699
 31
0.0
  0
LINE
  5
21EC
330
A
100
AcDbEntity
  8
LEVEL002
  6
Continuous
 62
     3
100
AcDbLine
 10
67.37922618923221
 20
575.4187455261798
 30
0.0
 11
108.4792261892321
 21
575.4187455261798
 31
0.0
  0
ARC
  5
21ED
330
A
100
AcDbEntity
  8
LEVEL002
  6
Continuous
 62
     3
100
AcDbCircle
 10
108.4792261892321
 20
576.56874552617
 30
0.0
 40
3.45
100
AcDbArc
 50
270.0
 51
0.0
  0
ARC
  5
21EE
330
A
100
AcDbEntity
  8
LEVEL002
  6
Continuous
 62
     3
100
AcDbCircle
 10
108.4792261892321
 20
576.5687455259398
 30
0.0
 40
1.149999999999999
100
AcDbArc
 50
270.0
 51
0.0000000119592927
  0
ARC
  5
21EF
330
A
100
AcDbEntity
  8
LEVEL002
  6
Continuous
 62
     3
100
AcDbCircle
 10
114.8377398904622
 20
436.87192016934
 30
0.0
 40
130.0
100
AcDbArc
 50
90.40041864954609
 51
110.2092742879974
  0
LINE
  5
21F0
330
A
100
AcDbEntity
  8
LEVEL002
  6
Continuous
 62
     3
100
AcDbLine
 10
63.92922618923194
 20
558.8687455261799
 30
0.0
 11
69.92922618923194
 21
558.8687455261799
 31
0.0
  0
LINE
  5
21F1
330
A
100
AcDbEntity
  8
LEVEL002
  6
Continuous
 62
     1
100
AcDbLine
 10
113.9292261892319
 20
596.8687455261699
 30
0.0
 11
113.9292261892319
 21
627.86874552617
 31
0.0
  0
LINE
  5
21F2
330
A
100
AcDbEntity
  8
LEVEL002
  6
Continuous
 62
     1
100
AcDbLine
 10
116.9292261892319
 20
639.86874552617
 30
0.0
 11
136.9292261892319
 21
639.86874552617
 31
0.0
  0
LINE
  5
21F3
330
A
100
AcDbEntity
  8
LEVEL002
  6
Continuous
 62
     1
100
AcDbLine
 10
136.9292261892319
 20
639.86874552617
 30
0.0
 11
136.9292261892319
 21
634.083972439
 31
0.0
  0
LINE
  5
21F4
330
A
100
AcDbEntity
  8
LEVEL002
  6
Continuous
 62
     1
100
AcDbLine
 10
136.9292261892319
 20
634.083972439
 30
0.0
 11
116.9292261892319
 21
626.8045677536699
 31
0.0
  0
LINE
  5
21F5
330
A
100
AcDbEntity
  8
LEVEL002
  6
Continuous
 62
     1
100
AcDbLine
 10
116.9292261892319
 20
628.9329232986599
 30
0.0
 11
134.9292261892319
 21
635.48438751546
 31
0.0
  0
LINE
  5
21F6
330
A
100
AcDbEntity
  8
LEVEL002
  6
Continuous
 62
     1
100
AcDbLine
 10
134.9292261892319
 20
635.48438751546
 30
0.0
 11
134.9292261892319
 21
637.8687455261699
 31
0.0
  0
LINE
  5
21F7
330
A
100
AcDbEntity
  8
LEVEL002
  6
Continuous
 62
     1
100
AcDbLine
 10
134.9292261892319
 20
637.8687455261699
 30
0.0
 11
116.9292261892319
 21
637.8687455261699
 31
0.0
  0
LINE
  5
21F8
330
A
100
AcDbEntity
  8
LEVEL002
  6
Continuous
 62
     1
100
AcDbLine
 10
116.9292261892319
 20
628.9329232986599
 30
0.0
 11
116.9292261892319
 21
637.8687455261699
 31
0.0
  0
LINE
  5
21F9
330
A
100
AcDbEntity
  8
LEVEL002
  6
Continuous
 62
     1
100
AcDbLine
 10
118.9292261892319
 20
662.8687455261699
 30
0.0
 11
116.9292261892319
 21
662.8687455261699
 31
0.0
  0
LINE
  5
21FA
330
A
100
AcDbEntity
  8
LEVEL002
  6
Continuous
 62
     1
100
AcDbLine
 10
121.4292261892319
 20
665.36874552617
 30
0.0
 11
119.4292261892319
 21
665.36874552617
 31
0.0
  0
LINE
  5
21FB
330
A
100
AcDbEntity
  8
LEVEL002
  6
Continuous
 62
     1
100
AcDbLine
 10
119.4292261892319
 20
665.36874552617
 30
0.0
 11
119.4292261892319
 21
667.3687455261699
 31
0.0
  0
LINE
  5
21FC
330
A
100
AcDbEntity
  8
LEVEL002
  6
Continuous
 62
     1
100
AcDbLine
 10
136.9292261892319
 20
635.86874552617
 30
0.0
 11
141.3571037274919
 21
637.96490880848
 31
0.0
  0
LINE
  5
21FD
330
A
100
AcDbEntity
  8
LEVEL002
  6
Continuous
 62
     1
100
AcDbLine
 10
136.9292261892319
 20
639.86874552617
 30
0.0
 11
140.9292261892319
 21
639.86874552617
 31
0.0
  0
ARC
  5
21FE
330
A
100
AcDbEntity
  8
LEVEL002
  6
Continuous
 62
     1
100
AcDbCircle
 10
140.9292261886621
 20
638.8687455261699
 30
0.0
 40
1.0
100
AcDbArc
 50
295.3329386425011
 51
89.99999996743111
  0
LINE
  5
21FF
330
A
100
AcDbEntity
  8
LEVEL002
  6
Continuous
 62
     1
100
AcDbLine
 10
116.9292261892319
 20
612.36874552618
 30
0.0
 11
116.9292261892319
 21
626.8045677536699
 31
0.0
  0
LINE
  5
2200
330
A
100
AcDbEntity
  8
LEVEL002
  6
Continuous
 62
     1
100
AcDbLine
 10
112.9292261892319
 20
627.86874552617
 30
0.0
 11
113.9292261892319
 21
627.86874552617
 31
0.0
  0
LINE
  5
2201
330
A
100
AcDbEntity
  8
LEVEL002
  6
Continuous
 62
     1
100
AcDbLine
 10
112.9292261892319
 20
627.86874552617
 30
0.0
 11
112.9292261892319
 21
628.8687455261699
 31
0.0
  0
LINE
  5
2202
330
A
100
AcDbEntity
  8
LEVEL002
  6
Continuous
 62
     1
100
AcDbLine
 10
112.9292261892319
 20
628.8687455261699
 30
0.0
 11
113.9292261892319
 21
628.8687455261699
 31
0.0
  0
LINE
  5
2203
330
A
100
AcDbEntity
  8
LEVEL002
  6
Continuous
 62
     1
100
AcDbLine
 10
118.9292261892319
 20
659.8687455261699
 30
0.0
 11
118.9292261892319
 21
662.8687455261699
 31
0.0
  0
LINE
  5
2204
330
A
100
AcDbEntity
  8
LEVEL002
  6
Continuous
 62
     1
100
AcDbLine
 10
121.4292261892319
 20
658.8332116203801
 30
0.0
 11
121.4292261892319
 21
665.36874552617
 31
0.0
  0
LINE
  5
2205
330
A
100
AcDbEntity
  8
LEVEL002
  6
Continuous
 62
     1
100
AcDbLine
 10
118.9292261892319
 20
659.8687455261699
 30
0.0
 11
113.9292261892319
 21
654.8687455261799
 31
0.0
  0
LINE
  5
2206
330
A
100
AcDbEntity
  8
LEVEL002
  6
Continuous
 62
     1
100
AcDbLine
 10
121.4292261892319
 20
658.8332116203801
 30
0.0
 11
116.9292261892319
 21
654.33321162038
 31
0.0
  0
LINE
  5
2207
330
A
100
AcDbEntity
  8
LEVEL002
  6
Continuous
 62
     1
100
AcDbLine
 10
113.9292261892319
 20
628.8687455261699
 30
0.0
 11
113.9292261892319
 21
654.8687455261799
 31
0.0
  0
LINE
  5
2208
330
A
100
AcDbEntity
  8
LEVEL002
  6
Continuous
 62
     1
100
AcDbLine
 10
116.9292261892319
 20
639.86874552617
 30
0.0
 11
116.9292261892319
 21
654.33321162038
 31
0.0
  0
LINE
  5
2209
330
A
100
AcDbEntity
  8
LEVEL002
  6
Continuous
 62
     1
100
AcDbLine
 10
116.9292261892319
 20
597.3687455260301
 30
0.0
 11
116.4292261892319
 21
596.8687455261699
 31
0.0
  0
LINE
  5
220A
330
A
100
AcDbEntity
  8
LEVEL002
  6
Continuous
 62
     1
100
AcDbLine
 10
113.9292261892319
 20
596.8687455261699
 30
0.0
 11
113.9292261892319
 21
565.8687455261699
 31
0.0
  0
LINE
  5
220B
330
A
100
AcDbEntity
  8
LEVEL002
  6
Continuous
 62
     1
100
AcDbLine
 10
116.9292261892319
 20
553.8687455261699
 30
0.0
 11
136.9292261892319
 21
553.8687455261699
 31
0.0
  0
LINE
  5
220C
330
A
100
AcDbEntity
  8
LEVEL002
  6
Continuous
 62
     1
100
AcDbLine
 10
136.9292261892319
 20
553.8687455261699
 30
0.0
 11
136.9292261892319
 21
559.6535186133401
 31
0.0
  0
LINE
  5
220D
330
A
100
AcDbEntity
  8
LEVEL002
  6
Continuous
 62
     1
100
AcDbLine
 10
136.9292261892319
 20
559.6535186133401
 30
0.0
 11
116.9292261892319
 21
566.9329232986599
 31
0.0
  0
LINE
  5
220E
330
A
100
AcDbEntity
  8
LEVEL002
  6
Continuous
 62
     1
100
AcDbLine
 10
116.9292261892319
 20
564.8045677536699
 30
0.0
 11
134.9292261892319
 21
558.2531035368799
 31
0.0
  0
LINE
  5
220F
330
A
100
AcDbEntity
  8
LEVEL002
  6
Continuous
 62
     1
100
AcDbLine
 10
134.9292261892319
 20
558.2531035368799
 30
0.0
 11
134.9292261892319
 21
555.8687455261699
 31
0.0
  0
LINE
  5
2210
330
A
100
AcDbEntity
  8
LEVEL002
  6
Continuous
 62
     1
100
AcDbLine
 10
134.9292261892319
 20
555.8687455261699
 30
0.0
 11
116.9292261892319
 21
555.8687455261699
 31
0.0
  0
LINE
  5
2211
330
A
100
AcDbEntity
  8
LEVEL002
  6
Continuous
 62
     1
100
AcDbLine
 10
116.9292261892319
 20
564.8045677536699
 30
0.0
 11
116.9292261892319
 21
555.8687455261699
 31
0.0
  0
LINE
  5
2212
330
A
100
AcDbEntity
  8
LEVEL002
  6
Continuous
 62
     1
100
AcDbLine
 10
118.9292261892319
 20
530.8687455261699
 30
0.0
 11
116.9292261892319
 21
530.8687455261699
 31
0.0
  0
LINE
  5
2213
330
A
100
AcDbEntity
  8
LEVEL002
  6
Continuous
 62
     1
100
AcDbLine
 10
121.4292261892319
 20
528.3687455261699
 30
0.0
 11
119.4292261892319
 21
528.3687455261699
 31
0.0
  0
LINE
  5
2214
330
A
100
AcDbEntity
  8
LEVEL002
  6
Continuous
 62
     1
100
AcDbLine
 10
119.4292261892319
 20
528.3687455261699
 30
0.0
 11
119.4292261892319
 21
526.3687455261699
 31
0.0
  0
LINE
  5
2215
330
A
100
AcDbEntity
  8
LEVEL002
  6
Continuous
 62
     1
100
AcDbLine
 10
136.9292261892319
 20
557.8687455261699
 30
0.0
 11
141.3571037274919
 21
555.7725822438601
 31
0.0
  0
LINE
  5
2216
330
A
100
AcDbEntity
  8
LEVEL002
  6
Continuous
 62
     1
100
AcDbLine
 10
136.9292261892319
 20
553.8687455261699
 30
0.0
 11
140.9292261892319
 21
553.8687455261699
 31
0.0
  0
ARC
  5
2217
330
A
100
AcDbEntity
  8
LEVEL002
  6
Continuous
 62
     1
100
AcDbCircle
 10
140.9292261896721
 20
554.86874552596
 30
0.0
 40
1.0
100
AcDbArc
 50
269.9999999748308
 51
64.66706141483516
  0
LINE
  5
2218
330
A
100
AcDbEntity
  8
LEVEL002
  6
Continuous
 62
     1
100
AcDbLine
 10
116.9292261892319
 20
596.36874552631
 30
0.0
 11
116.9292261892319
 21
582.3687455261599
 31
0.0
  0
LINE
  5
2219
330
A
100
AcDbEntity
  8
LEVEL002
  6
Continuous
 62
     1
100
AcDbLine
 10
112.9292261892319
 20
565.8687455261699
 30
0.0
 11
113.9292261892319
 21
565.8687455261699
 31
0.0
  0
LINE
  5
221A
330
A
100
AcDbEntity
  8
LEVEL002
  6
Continuous
 62
     1
100
AcDbLine
 10
112.9292261892319
 20
565.8687455261699
 30
0.0
 11
112.9292261892319
 21
564.86874552617
 31
0.0
  0
LINE
  5
221B
330
A
100
AcDbEntity
  8
LEVEL002
  6
Continuous
 62
     1
100
AcDbLine
 10
112.9292261892319
 20
564.86874552617
 30
0.0
 11
113.9292261892319
 21
564.86874552617
 31
0.0
  0
LINE
  5
221C
330
A
100
AcDbEntity
  8
LEVEL002
  6
Continuous
 62
     1
100
AcDbLine
 10
118.9292261892319
 20
533.8687455261699
 30
0.0
 11
118.9292261892319
 21
530.8687455261699
 31
0.0
  0
LINE
  5
221D
330
A
100
AcDbEntity
  8
LEVEL002
  6
Continuous
 62
     1
100
AcDbLine
 10
121.4292261892319
 20
534.90427943196
 30
0.0
 11
121.4292261892319
 21
528.3687455261699
 31
0.0
  0
LINE
  5
221E
330
A
100
AcDbEntity
  8
LEVEL002
  6
Continuous
 62
     1
100
AcDbLine
 10
118.9292261892319
 20
533.8687455261699
 30
0.0
 11
113.9292261892319
 21
538.8687455261599
 31
0.0
  0
LINE
  5
221F
330
A
100
AcDbEntity
  8
LEVEL002
  6
Continuous
 62
     1
100
AcDbLine
 10
121.4292261892319
 20
534.90427943196
 30
0.0
 11
116.9292261892319
 21
539.40427943196
 31
0.0
  0
LINE
  5
2220
330
A
100
AcDbEntity
  8
LEVEL002
  6
Continuous
 62
     1
100
AcDbLine
 10
113.9292261892319
 20
564.86874552617
 30
0.0
 11
113.9292261892319
 21
538.8687455261599
 31
0.0
  0
LINE
  5
2221
330
A
100
AcDbEntity
  8
LEVEL002
  6
Continuous
 62
     1
100
AcDbLine
 10
116.9292261892319
 20
553.8687455261699
 30
0.0
 11
116.9292261892319
 21
539.40427943196
 31
0.0
  0
LINE
  5
2222
330
A
100
AcDbEntity
  8
LEVEL002
  6
Continuous
 62
     1
100
AcDbLine
 10
116.9292261892319
 20
596.36874552631
 30
0.0
 11
116.4292261892319
 21
596.8687455261699
 31
0.0
  0
ARC
  5
2223
330
A
100
AcDbEntity
  8
LEVEL002
  6
Continuous
 62
     1
100
AcDbCircle
 10
140.1657043473319
 20
666.8687455261699
 30
0.0
 40
5.0
100
AcDbArc
 50
2.683726758859187
 51
90.00000000018239
  0
LINE
  5
2224
330
A
100
AcDbEntity
  8
LEVEL002
  6
Continuous
 62
     1
100
AcDbLine
 10
140.1657043473219
 20
671.8687455261699
 30
0.0
 11
119.9292261892319
 21
671.8687455261699
 31
0.0
  0
ARC
  5
2225
330
A
100
AcDbEntity
  8
LEVEL002
  6
Continuous
 62
     1
100
AcDbCircle
 10
119.9292261892319
 20
666.8687455260901
 30
0.0
 40
5.0
100
AcDbArc
 50
90.0
 51
179.999999999088
  0
ARC
  5
2226
330
A
100
AcDbEntity
  8
LEVEL002
  6
Continuous
 62
     1
100
AcDbCircle
 10
119.9292261892319
 20
666.8687455261899
 30
0.0
 40
3.0
100
AcDbArc
 50
90.0
 51
180.0000000002866
  0
LINE
  5
2227
330
A
100
AcDbEntity
  8
LEVEL002
  6
Continuous
 62
     1
100
AcDbLine
 10
119.9292261892319
 20
669.8687455261699
 30
0.0
 11
140.1657043473219
 21
669.8687455261699
 31
0.0
  0
ARC
  5
2228
330
A
100
AcDbEntity
  8
LEVEL002
  6
Continuous
 62
     1
100
AcDbCircle
 10
140.1657043473719
 20
666.8687455261699
 30
0.0
 40
3.0
100
AcDbArc
 50
2.68372675891124
 51
90.00000000106826
  0
ARC
  5
2229
330
A
100
AcDbEntity
  8
LEVEL002
  6
Continuous
 62
     1
100
AcDbCircle
 10
140.1044318755921
 20
621.3687455261699
 30
0.0
 40
4.5
100
AcDbArc
 50
0.9399461432317684
 51
90.00000000083378
  0
ARC
  5
222A
330
A
100
AcDbEntity
  8
LEVEL002
  6
Continuous
 62
     1
100
AcDbCircle
 10
-1353.194600468668
 20
596.8687455261499
 30
0.0
 40
1498.0
100
AcDbArc
 50
0.0
 51
0.9399461432187427
  0
ARC
  5
222B
330
A
100
AcDbEntity
  8
LEVEL002
  6
Continuous
 62
     1
100
AcDbCircle
 10
139.8834283028022
 20
632.3687455261899
 30
0.0
 40
4.5
100
AcDbArc
 50
270.0
 51
1.362029966553683
  0
ARC
  5
222C
330
A
100
AcDbEntity
  8
LEVEL002
  6
Continuous
 62
     1
100
AcDbCircle
 10
-1353.194600468668
 20
596.8687455261699
 30
0.0
 40
1498.0
100
AcDbArc
 50
1.362029966840209
 51
2.683726758846174
  0
LINE
  5
222D
330
A
100
AcDbEntity
  8
LEVEL002
  6
Continuous
 62
     1
100
AcDbLine
 10
118.4292261892319
 20
662.3687455261699
 30
0.0
 11
116.9292261892319
 21
661.8687455261699
 31
0.0
  0
LINE
  5
222E
330
A
100
AcDbEntity
  8
LEVEL002
  6
Continuous
 62
     1
100
AcDbLine
 10
116.9292261892319
 20
661.8687455261699
 30
0.0
 11
116.9292261892319
 21
666.8687455261699
 31
0.0
  0
LINE
  5
222F
330
A
100
AcDbEntity
  8
LEVEL002
  6
Continuous
 62
     1
100
AcDbLine
 10
114.9292261892319
 20
666.8687455261699
 30
0.0
 11
114.9292261892319
 21
661.3687455261599
 31
0.0
  0
ARC
  5
2230
330
A
100
AcDbEntity
  8
LEVEL002
  6
Continuous
 62
     1
100
AcDbCircle
 10
116.429226189302
 20
661.3687455261599
 30
0.0
 40
1.5
100
AcDbArc
 50
180.000000000026
 51
269.9999999970297
  0
LINE
  5
2231
330
A
100
AcDbEntity
  8
LEVEL002
  6
Continuous
 62
     1
100
AcDbLine
 10
116.4292261892319
 20
659.8687455261599
 30
0.0
 11
116.9292261892319
 21
659.8687455261699
 31
0.0
  0
ARC
  5
2232
330
A
100
AcDbEntity
  8
LEVEL002
  6
Continuous
 62
     1
100
AcDbCircle
 10
116.9292261892319
 20
661.3687455262599
 30
0.0
 40
1.5
100
AcDbArc
 50
270.0
 51
0.0
  0
LINE
  5
2233
330
A
100
AcDbEntity
  8
LEVEL002
  6
Continuous
 62
     1
100
AcDbLine
 10
118.4292261892319
 20
661.3687455261699
 30
0.0
 11
118.4292261892319
 21
662.3687455261699
 31
0.0
  0
ARC
  5
2234
330
A
100
AcDbEntity
  8
LEVEL002
  6
Continuous
 62
     1
100
AcDbCircle
 10
140.1657043473219
 20
526.8687455261699
 30
0.0
 40
5.0
100
AcDbArc
 50
270.0
 51
357.3162732411668
  0
LINE
  5
2235
330
A
100
AcDbEntity
  8
LEVEL002
  6
Continuous
 62
     1
100
AcDbLine
 10
140.1657043473219
 20
521.8687455261699
 30
0.0
 11
119.9292261892319
 21
521.8687455261699
 31
0.0
  0
ARC
  5
2236
330
A
100
AcDbEntity
  8
LEVEL002
  6
Continuous
 62
     1
100
AcDbCircle
 10
119.9292261892019
 20
526.8687455261699
 30
0.0
 40
5.0
100
AcDbArc
 50
180.0
 51
270.0000000003127
  0
ARC
  5
2237
330
A
100
AcDbEntity
  8
LEVEL002
  6
Continuous
 62
     1
100
AcDbCircle
 10
119.9292261892119
 20
526.8687455261699
 30
0.0
 40
3.0
100
AcDbArc
 50
179.999999999987
 51
270.0000000003387
  0
LINE
  5
2238
330
A
100
AcDbEntity
  8
LEVEL002
  6
Continuous
 62
     1
100
AcDbLine
 10
119.9292261892319
 20
523.8687455261699
 30
0.0
 11
140.1657043473219
 21
523.8687455261699
 31
0.0
  0
ARC
  5
2239
330
A
100
AcDbEntity
  8
LEVEL002
  6
Continuous
 62
     1
100
AcDbCircle
 10
140.1657043473219
 20
526.8687455262299
 30
0.0
 40
3.0
100
AcDbArc
 50
269.9999999999479
 51
357.3162732399151
  0
LINE
  5
223A
330
A
100
AcDbEntity
  8
LEVEL002
  6
Continuous
 62
     1
100
AcDbLine
 10
140.1044318755221
 20
567.8687455261699
 30
0.0
 11
130.6030450824019
 21
567.8687455261699
 31
0.0
  0
ARC
  5
223B
330
A
100
AcDbEntity
  8
LEVEL002
  6
Continuous
 62
     1
100
AcDbCircle
 10
140.1044318755221
 20
572.36874552619
 30
0.0
 40
4.5
100
AcDbArc
 50
270.0
 51
359.0600538565728
  0
ARC
  5
223C
330
A
100
AcDbEntity
  8
LEVEL002
  6
Continuous
 62
     1
100
AcDbCircle
 10
-1353.194600468668
 20
596.8687455261799
 30
0.0
 40
1498.0
100
AcDbArc
 50
359.0600538567813
 51
0.0
  0
LINE
  5
223D
330
A
100
AcDbEntity
  8
LEVEL002
  6
Continuous
 62
     1
100
AcDbLine
 10
139.8834283028022
 20
565.8687455261699
 30
0.0
 11
131.4690704863719
 21
565.8687455261699
 31
0.0
  0
ARC
  5
223E
330
A
100
AcDbEntity
  8
LEVEL002
  6
Continuous
 62
     1
100
AcDbCircle
 10
139.8834283028423
 20
561.3687455261699
 30
0.0
 40
4.5
100
AcDbArc
 50
358.6379700331467
 51
90.00000000046897
  0
ARC
  5
223F
330
A
100
AcDbEntity
  8
LEVEL002
  6
Continuous
 62
     1
100
AcDbCircle
 10
-1353.194600468668
 20
596.86874552616
 30
0.0
 40
1498.0
100
AcDbArc
 50
357.3162732411538
 51
358.6379700331598
  0
LINE
  5
2240
330
A
100
AcDbEntity
  8
LEVEL002
  6
Continuous
 62
     1
100
AcDbLine
 10
118.4292261892319
 20
531.3687455261699
 30
0.0
 11
116.9292261892319
 21
531.86874552617
 31
0.0
  0
LINE
  5
2241
330
A
100
AcDbEntity
  8
LEVEL002
  6
Continuous
 62
     1
100
AcDbLine
 10
116.9292261892319
 20
531.86874552617
 30
0.0
 11
116.9292261892319
 21
526.8687455261699
 31
0.0
  0
LINE
  5
2242
330
A
100
AcDbEntity
  8
LEVEL002
  6
Continuous
 62
     1
100
AcDbLine
 10
114.9292261892319
 20
526.8687455261699
 30
0.0
 11
114.9292261892319
 21
532.3687455261699
 31
0.0
  0
ARC
  5
2243
330
A
100
AcDbEntity
  8
LEVEL002
  6
Continuous
 62
     1
100
AcDbCircle
 10
116.4292261892319
 20
532.3687455260601
 30
0.0
 40
1.5
100
AcDbArc
 50
90.0
 51
179.9999999958312
  0
LINE
  5
2244
330
A
100
AcDbEntity
  8
LEVEL002
  6
Continuous
 62
     1
100
AcDbLine
 10
116.4292261892319
 20
533.8687455261699
 30
0.0
 11
116.9292261892319
 21
533.8687455261699
 31
0.0
  0
ARC
  5
2245
330
A
100
AcDbEntity
  8
LEVEL002
  6
Continuous
 62
     1
100
AcDbCircle
 10
116.929226189352
 20
532.3687455261699
 30
0.0
 40
1.5
100
AcDbArc
 50
0.0
 51
90.00000000482017
  0
LINE
  5
2246
330
A
100
AcDbEntity
  8
LEVEL002
  6
Continuous
 62
     1
100
AcDbLine
 10
118.4292261892319
 20
532.3687455261699
 30
0.0
 11
118.4292261892319
 21
531.3687455261699
 31
0.0
  0
ARC
  5
2247
330
A
100
AcDbEntity
  8
LEVEL002
  6
Continuous
 62
     1
100
AcDbCircle
 10
-1353.194600468668
 20
596.8687455261799
 30
0.0
 40
1500.0
100
AcDbArc
 50
1.241505705371591
 51
2.683726758846174
  0
ARC
  5
2248
330
A
100
AcDbEntity
  8
LEVEL002
  6
Continuous
 62
     1
100
AcDbCircle
 10
-1353.194600468668
 20
596.86874552616
 30
0.0
 40
1500.0
100
AcDbArc
 50
0.0
 51
1.050481476432985
  0
ARC
  5
2249
330
A
100
AcDbEntity
  8
LEVEL002
  6
Continuous
 62
     1
100
AcDbCircle
 10
120.2276783955822
 20
551.85624195235
 30
0.0
 40
25.5
100
AcDbArc
 50
268.2056697911858
 51
324.2601706000717
  0
ARC
  5
224A
330
A
100
AcDbEntity
  8
LEVEL002
  6
Continuous
 62
     1
100
AcDbCircle
 10
141.2066632213123
 20
545.3746586495499
 30
0.0
 40
0.8
100
AcDbArc
 50
40.48752239559959
 51
90.79999999932271
  0
ARC
  5
224B
330
A
100
AcDbEntity
  8
LEVEL002
  6
Continuous
 62
     1
100
AcDbCircle
 10
141.2066632214519
 20
545.3746586493898
 30
0.0
 40
0.8
100
AcDbArc
 50
90.80000000938099
 51
220.4875223813505
  0
ARC
  5
224C
330
A
100
AcDbEntity
  8
LEVEL002
  6
Continuous
 62
     1
100
AcDbCircle
 10
135.7307220760622
 20
540.6998251152199
 30
0.0
 40
6.4
100
AcDbArc
 50
324.2601706002594
 51
40.48752239670739
  0
ARC
  5
224D
330
A
100
AcDbEntity
  8
LEVEL002
  6
Continuous
 62
     1
100
AcDbCircle
 10
135.7307220760221
 20
540.6998251152699
 30
0.0
 40
8.0
100
AcDbArc
 50
334.0396477139357
 51
40.48752239611675
  0
LINE
  5
224E
330
A
100
AcDbEntity
  8
LEVEL002
  6
Continuous
 62
     1
100
AcDbLine
 10
116.9292261892319
 20
530.8687455261699
 30
0.0
 11
116.9292261892319
 21
526.8687455261699
 31
0.0
  0
ARC
  5
224F
330
A
100
AcDbEntity
  8
LEVEL002
  6
Continuous
 62
     1
100
AcDbCircle
 10
119.0731905905822
 20
551.86625988841
 30
0.0
 40
28.0
100
AcDbArc
 50
271.3769251378989
 51
328.4076345141552
  0
ARC
  5
2250
330
A
100
AcDbEntity
  8
LEVEL002
  6
Continuous
 62
     1
100
AcDbCircle
 10
120.2276783955722
 20
641.8812490999998
 30
0.0
 40
25.5
100
AcDbArc
 50
35.73982939990718
 51
91.79433020881416
  0
ARC
  5
2251
330
A
100
AcDbEntity
  8
LEVEL002
  6
Continuous
 62
     1
100
AcDbCircle
 10
141.2066632210722
 20
648.3628324025098
 30
0.0
 40
0.8
100
AcDbArc
 50
269.2000000171458
 51
319.5124776308101
  0
ARC
  5
2252
330
A
100
AcDbEntity
  8
LEVEL002
  6
Continuous
 62
     1
100
AcDbCircle
 10
141.206663221802
 20
648.36283240279
 30
0.0
 40
0.8
100
AcDbArc
 50
139.5124776262827
 51
269.1999999650565
  0
ARC
  5
2253
330
A
100
AcDbEntity
  8
LEVEL002
  6
Continuous
 62
     1
100
AcDbCircle
 10
135.7307220759721
 20
653.0376659371199
 30
0.0
 40
6.4
100
AcDbArc
 50
319.5124776037999
 51
35.7398293992923
  0
ARC
  5
2254
330
A
100
AcDbEntity
  8
LEVEL002
  6
Continuous
 62
     1
100
AcDbCircle
 10
135.7307220760122
 20
653.0376659370699
 30
0.0
 40
8.0
100
AcDbArc
 50
319.5124776038932
 51
25.96035228600598
  0
ARC
  5
2255
330
A
100
AcDbEntity
  8
LEVEL002
  6
Continuous
 62
     1
100
AcDbCircle
 10
119.0731905905922
 20
641.8712311639301
 30
0.0
 40
28.0
100
AcDbArc
 50
31.5923654858559
 51
88.62307486212715
  0
LINE
  5
2256
330
A
100
AcDbEntity
  8
LEVEL002
  6
Continuous
 62
     1
100
AcDbLine
 10
116.9292261892319
 20
662.8687455261699
 30
0.0
 11
116.9292261892319
 21
666.8687455261699
 31
0.0
  0
LINE
  5
2257
330
A
100
AcDbEntity
  8
LEVEL002
  6
Continuous
 62
     1
100
AcDbLine
 10
140.4917541027321
 20
557.9889865247901
 30
0.0
 11
129.5447774257422
 21
563.10377983838
 31
0.0
  0
ARC
  5
2258
330
A
100
AcDbEntity
  8
LEVEL002
  6
Continuous
 62
     1
100
AcDbCircle
 10
131.6250098656119
 20
564.8809788987801
 30
0.0
 40
1.0
100
AcDbArc
 50
98.97128122094455
 51
237.1341878277118
  0
LINE
  5
2259
330
A
100
AcDbEntity
  8
LEVEL002
  6
Continuous
 62
     1
100
AcDbLine
 10
131.0823365052319
 20
564.0410350768799
 30
0.0
 11
141.126714696742
 21
559.34796593751
 31
0.0
  0
ARC
  5
225A
330
A
100
AcDbEntity
  8
LEVEL002
  6
Continuous
 62
     1
100
AcDbCircle
 10
130.6030450823223
 20
565.3687455262099
 30
0.0
 40
2.5
100
AcDbArc
 50
89.9999999982022
 51
244.9564470437112
  0
ARC
  5
225B
330
A
100
AcDbEntity
  8
LEVEL002
  6
Continuous
 62
     1
100
AcDbCircle
 10
140.8092343997323
 20
558.6684762311499
 30
0.0
 40
0.75
100
AcDbArc
 50
244.9564470419514
 51
64.95644704189313
  0
LINE
  5
225C
330
A
100
AcDbEntity
  8
LEVEL002
  6
Continuous
 62
     1
100
AcDbLine
 10
140.1044318755221
 20
625.8687455261699
 30
0.0
 11
130.6030450824019
 21
625.8687455261699
 31
0.0
  0
LINE
  5
225D
330
A
100
AcDbEntity
  8
LEVEL002
  6
Continuous
 62
     1
100
AcDbLine
 10
139.8834283028022
 20
627.86874552617
 30
0.0
 11
131.4690704863719
 21
627.86874552617
 31
0.0
  0
LINE
  5
225E
330
A
100
AcDbEntity
  8
LEVEL002
  6
Continuous
 62
     1
100
AcDbLine
 10
140.4917541027321
 20
635.74850452754
 30
0.0
 11
129.5447774257422
 21
630.6337112139599
 31
0.0
  0
ARC
  5
225F
330
A
100
AcDbEntity
  8
LEVEL002
  6
Continuous
 62
     1
100
AcDbCircle
 10
131.6250098651821
 20
628.85651215353
 30
0.0
 40
1.0
100
AcDbArc
 50
122.8658121505778
 51
261.0287188033755
  0
LINE
  5
2260
330
A
100
AcDbEntity
  8
LEVEL002
  6
Continuous
 62
     1
100
AcDbLine
 10
131.0823365052319
 20
629.6964559754501
 30
0.0
 11
141.126714696742
 21
634.3895251148301
 31
0.0
  0
ARC
  5
2261
330
A
100
AcDbEntity
  8
LEVEL002
  6
Continuous
 62
     1
100
AcDbCircle
 10
130.6030450824819
 20
628.3687455261699
 30
0.0
 40
2.5
100
AcDbArc
 50
115.0435529599721
 51
269.999999998098
  0
ARC
  5
2262
330
A
100
AcDbEntity
  8
LEVEL002
  6
Continuous
 62
     1
100
AcDbCircle
 10
140.8092343997323
 20
635.0690148211799
 30
0.0
 40
0.75
100
AcDbArc
 50
295.0435529581305
 51
115.0435529580486
  0
LINE
  5
2263
330
A
100
AcDbEntity
  8
LEVEL002
  6
Continuous
 62
     1
100
AcDbLine
 10
145.9554695353922
 20
564.37924557618
 30
0.0
 11
146.4532866072923
 21
564.36928724287
 31
0.0
  0
ARC
  5
2264
330
A
100
AcDbEntity
  8
LEVEL002
  6
Continuous
 62
     1
100
AcDbCircle
 10
145.9754695354622
 20
565.37904555618
 30
0.0
 40
1.0
100
AcDbArc
 50
178.8540080016256
 51
268.8540079972605
  0
LINE
  5
2265
330
A
100
AcDbEntity
  8
LEVEL002
  6
Continuous
 62
     1
100
AcDbLine
 10
146.5532866072922
 20
569.3682871428499
 30
0.0
 11
146.0554695353821
 21
569.3782454761599
 31
0.0
  0
LINE
  5
2266
330
A
100
AcDbEntity
  8
LEVEL002
  6
Continuous
 62
     1
100
AcDbLine
 10
145.0356695553819
 20
568.39844549617
 30
0.0
 11
144.9756695553919
 21
565.39904555618
 31
0.0
  0
ARC
  5
2267
330
A
100
AcDbEntity
  8
LEVEL002
  6
Continuous
 62
     1
100
AcDbCircle
 10
146.0354695353721
 20
568.37844549598
 30
0.0
 40
1.0
100
AcDbArc
 50
88.85400800163843
 51
178.854007990667
  0
LINE
  5
2268
330
A
100
AcDbEntity
  8
LEVEL002
  6
Continuous
 62
     1
100
AcDbLine
 10
146.0554695353821
 20
569.3782454761599
 30
0.0
 11
145.9554695353922
 21
564.37924557618
 31
0.0
  0
ARC
  5
2269
330
A
100
AcDbEntity
  8
LEVEL002
  6
Continuous
 62
     1
100
AcDbCircle
 10
-1353.194600468668
 20
596.86874552616
 30
0.0
 40
1500.0
100
AcDbArc
 50
357.3162732411538
 51
358.7585149915516
  0
ARC
  5
226A
330
A
100
AcDbEntity
  8
LEVEL002
  6
Continuous
 62
     1
100
AcDbCircle
 10
-1353.194600468668
 20
596.86874552616
 30
0.0
 40
1500.0
100
AcDbArc
 50
358.9495010116851
 51
0.0
  0
LINE
  5
226B
330
A
100
AcDbEntity
  8
LEVEL002
  6
Continuous
 62
     1
100
AcDbLine
 10
145.9554695353922
 20
629.3582454761499
 30
0.0
 11
146.4532866072923
 21
629.36820380946
 31
0.0
  0
ARC
  5
226C
330
A
100
AcDbEntity
  8
LEVEL002
  6
Continuous
 62
     1
100
AcDbCircle
 10
145.9754695353922
 20
628.3584454958599
 30
0.0
 40
1.0
100
AcDbArc
 50
91.14599199836156
 51
181.1459919810964
  0
LINE
  5
226D
330
A
100
AcDbEntity
  8
LEVEL002
  6
Continuous
 62
     1
100
AcDbLine
 10
146.5532866072922
 20
624.3692039094798
 30
0.0
 11
146.0554695353821
 21
624.3592455761699
 31
0.0
  0
LINE
  5
226E
330
A
100
AcDbEntity
  8
LEVEL002
  6
Continuous
 62
     1
100
AcDbLine
 10
145.0356695553819
 20
625.33904555617
 30
0.0
 11
144.9756695553919
 21
628.3384454961601
 31
0.0
  0
ARC
  5
226F
330
A
100
AcDbEntity
  8
LEVEL002
  6
Continuous
 62
     1
100
AcDbCircle
 10
146.0354695352521
 20
625.35904555617
 30
0.0
 40
1.0
100
AcDbArc
 50
181.1459919982962
 51
271.1459920057105
  0
LINE
  5
2270
330
A
100
AcDbEntity
  8
LEVEL002
  6
Continuous
 62
     1
100
AcDbLine
 10
146.0554695353821
 20
624.3592455761699
 30
0.0
 11
145.9554695353922
 21
629.3582454761499
 31
0.0
  0
LINE
  5
2271
330
A
100
AcDbEntity
  8
LEVEL002
  6
Continuous
 62
     1
100
AcDbLine
 10
116.9292261892319
 20
582.3687455261599
 30
0.0
 11
116.9292261892319
 21
566.9329232986599
 31
0.0
  0
LINE
  5
2272
330
A
100
AcDbEntity
  8
LEVEL002
  6
Continuous
 62
     1
100
AcDbLine
 10
116.9292261892319
 20
597.3687455260301
 30
0.0
 11
116.9292261892319
 21
612.36874552618
 31
0.0
  0
LINE
  5
2273
330
A
100
AcDbEntity
  8
LEVEL002
  6
HIDDEN
 62
     2
 48
0.5
370
    15
100
AcDbLine
 10
398.6221079288721
 20
669.8687455261699
 30
0.0
 11
383.6221079288721
 21
669.8687455261699
 31
0.0
  0
LINE
  5
2274
330
A
100
AcDbEntity
  8
LEVEL002
  6
HIDDEN
 62
     2
 48
0.5
370
    15
100
AcDbLine
 10
383.6221079288721
 20
669.8687455261699
 30
0.0
 11
383.6221079288721
 21
523.8687455261699
 31
0.0
  0
LINE
  5
2275
330
A
100
AcDbEntity
  8
LEVEL002
  6
HIDDEN
 62
     2
 48
0.5
370
    15
100
AcDbLine
 10
383.6221079288721
 20
523.8687455261699
 30
0.0
 11
398.6221079288721
 21
523.8687455261699
 31
0.0
  0
LINE
  5
2276
330
A
100
AcDbEntity
  8
LEVEL002
  6
HIDDEN
 62
     2
 48
0.5
370
    15
100
AcDbLine
 10
383.6221079288721
 20
636.8687455261699
 30
0.0
 11
398.6221079288721
 21
636.8687455261699
 31
0.0
  0
LINE
  5
2277
330
A
100
AcDbEntity
  8
LEVEL002
  6
HIDDEN
 62
     2
 48
0.5
370
    15
100
AcDbLine
 10
398.6221079288721
 20
616.8687455261699
 30
0.0
 11
383.6221079288721
 21
616.8687455261699
 31
0.0
  0
LINE
  5
2278
330
A
100
AcDbEntity
  8
LEVEL002
  6
HIDDEN
 62
     2
 48
0.5
370
    15
100
AcDbLine
 10
383.6221079288721
 20
576.8687455261699
 30
0.0
 11
398.6221079288721
 21
576.8687455261699
 31
0.0
  0
LINE
  5
2279
330
A
100
AcDbEntity
  8
LEVEL002
  6
HIDDEN
 62
     2
 48
0.5
370
    15
100
AcDbLine
 10
398.6221079288721
 20
556.86874552617
 30
0.0
 11
383.6221079288721
 21
556.86874552617
 31
0.0
  0
ARC
  5
227A
330
A
100
AcDbEntity
  8
LEVEL002
  6
HIDDEN
 62
     2
 48
0.5
370
    15
100
AcDbCircle
 10
303.6221079288621
 20
594.8687455261699
 30
0.0
 40
40.0
100
AcDbArc
 50
59.9999999999962
 51
119.9999999999973
  0
ARC
  5
227B
330
A
100
AcDbEntity
  8
LEVEL002
  6
HIDDEN
 62
     2
 48
0.5
370
    15
100
AcDbCircle
 10
303.6221079288621
 20
598.8687455261699
 30
0.0
 40
40.0
100
AcDbArc
 50
240.0000000000027
 51
300.0000000000038
  0
LINE
  5
227C
330
A
100
AcDbEntity
  8
LEVEL002
  6
HIDDEN
 62
     2
 48
0.5
370
    15
100
AcDbLine
 10
283.6221079288721
 20
629.5097616775501
 30
0.0
 11
283.6221079288721
 21
564.2277293748
 31
0.0
  0
LINE
  5
227D
330
A
100
AcDbEntity
  8
LEVEL002
  6
HIDDEN
 62
     2
 48
0.5
370
    15
100
AcDbLine
 10
323.6221079288721
 20
564.2277293748
 30
0.0
 11
323.6221079288721
 21
629.5097616775501
 31
0.0
  0
ARC
  5
227E
330
A
100
AcDbEntity
  8
LEVEL002
  6
HIDDEN
 62
     2
 48
0.5
370
    15
100
AcDbCircle
 10
312.6221079288721
 20
572.8687455261799
 30
0.0
 40
6.0
100
AcDbArc
 50
270.0
 51
0.0
  0
LINE
  5
227F
330
A
100
AcDbEntity
  8
LEVEL002
  6
HIDDEN
 62
     2
 48
0.5
370
    15
100
AcDbLine
 10
318.6221079288721
 20
572.8687455261699
 30
0.0
 11
318.6221079288721
 21
620.8687455261699
 31
0.0
  0
ARC
  5
2280
330
A
100
AcDbEntity
  8
LEVEL002
  6
HIDDEN
 62
     2
 48
0.5
370
    15
100
AcDbCircle
 10
312.6221079289121
 20
620.8687455261699
 30
0.0
 40
6.0
100
AcDbArc
 50
0.0
 51
90.00000000041687
  0
LINE
  5
2281
330
A
100
AcDbEntity
  8
LEVEL002
  6
HIDDEN
 62
     2
 48
0.5
370
    15
100
AcDbLine
 10
312.6221079288721
 20
626.8687455261699
 30
0.0
 11
294.6221079288721
 21
626.8687455261699
 31
0.0
  0
ARC
  5
2282
330
A
100
AcDbEntity
  8
LEVEL002
  6
HIDDEN
 62
     2
 48
0.5
370
    15
100
AcDbCircle
 10
294.6221079288721
 20
620.86874552618
 30
0.0
 40
6.0
100
AcDbArc
 50
90.0
 51
180.0000000001172
  0
LINE
  5
2283
330
A
100
AcDbEntity
  8
LEVEL002
  6
HIDDEN
 62
     2
 48
0.5
370
    15
100
AcDbLine
 10
288.6221079288721
 20
620.8687455261699
 30
0.0
 11
288.6221079288721
 21
572.8687455261699
 31
0.0
  0
LINE
  5
2284
330
A
100
AcDbEntity
  8
LEVEL002
  6
HIDDEN
 62
     2
 48
0.5
370
    15
100
AcDbLine
 10
294.6221079288721
 20
566.8687455261699
 30
0.0
 11
312.6221079288721
 21
566.8687455261699
 31
0.0
  0
ARC
  5
2285
330
A
100
AcDbEntity
  8
LEVEL002
  6
HIDDEN
 62
     2
 48
0.5
370
    15
100
AcDbCircle
 10
294.6221079288721
 20
572.8687455261699
 30
0.0
 40
6.0
100
AcDbArc
 50
180.0
 51
269.9999999999479
  0
CIRCLE
  5
2286
330
A
100
AcDbEntity
  8
LEVEL002
  6
HIDDEN
 62
     2
 48
0.5
370
    15
100
AcDbCircle
 10
303.6221079288721
 20
596.8687455261699
 30
0.0
 40
3.75
  0
CIRCLE
  5
2287
330
A
100
AcDbEntity
  8
LEVEL001
  6
HIDDEN
 62
     2
 48
0.5
370
    15
100
AcDbCircle
 10
303.6221079288721
 20
596.8687455261699
 30
0.0
 40
9.000000000009999
  0
LINE
  5
2288
330
A
100
AcDbEntity
  8
LEVEL002
  6
HIDDEN
 62
     2
 48
0.5
370
    15
100
AcDbLine
 10
303.6221079289221
 20
604.3631920265199
 30
0.0
 11
310.1221079290021
 21
600.61041527674
 31
0.0
  0
LINE
  5
2289
330
A
100
AcDbEntity
  8
LEVEL002
  6
HIDDEN
 62
     2
 48
0.5
370
    15
100
AcDbLine
 10
310.1221079290021
 20
600.61041527674
 30
0.0
 11
310.1221079290521
 21
593.1159687763299
 31
0.0
  0
CIRCLE
  5
228A
330
A
100
AcDbEntity
  8
LEVEL002
  6
HIDDEN
 62
     2
 48
0.5
370
    15
100
AcDbCircle
 10
303.6221079288721
 20
596.8687455261699
 30
0.0
 40
6.500000000179199
  0
CIRCLE
  5
228B
330
A
100
AcDbEntity
  8
LEVEL002
  6
HIDDEN
 62
     2
 48
0.5
370
    15
100
AcDbCircle
 10
303.6221079288721
 20
596.8687455261699
 30
0.0
 40
3.75
  0
CIRCLE
  5
228C
330
A
100
AcDbEntity
  8
LEVEL001
  6
HIDDEN
 62
     2
 48
0.5
370
    15
100
AcDbCircle
 10
303.6221079288721
 20
596.8687455261699
 30
0.0
 40
2.5
  0
LINE
  5
228D
330
A
100
AcDbEntity
  8
LEVEL002
  6
HIDDEN
 62
     2
 48
0.5
370
    15
100
AcDbLine
 10
310.1221079290521
 20
593.1159687763299
 30
0.0
 11
303.6221079288221
 21
589.3631920264599
 31
0.0
  0
LINE
  5
228E
330
A
100
AcDbEntity
  8
LEVEL002
  6
HIDDEN
 62
     2
 48
0.5
370
    15
100
AcDbLine
 10
303.6221079288221
 20
589.3631920264599
 30
0.0
 11
297.1221079285919
 21
593.1159687763299
 31
0.0
  0
LINE
  5
228F
330
A
100
AcDbEntity
  8
LEVEL002
  6
HIDDEN
 62
     2
 48
0.5
370
    15
100
AcDbLine
 10
297.1221079285919
 20
593.1159687763299
 30
0.0
 11
297.1221079288321
 21
600.61041527674
 31
0.0
  0
LINE
  5
2290
330
A
100
AcDbEntity
  8
LEVEL002
  6
HIDDEN
 62
     2
 48
0.5
370
    15
100
AcDbLine
 10
297.1221079288321
 20
600.61041527674
 30
0.0
 11
303.6221079289221
 21
604.3631920265199
 31
0.0
  0
CIRCLE
  5
2291
330
A
100
AcDbEntity
  8
LEVEL001
  6
HIDDEN
 62
     2
 48
0.5
370
    15
100
AcDbCircle
 10
303.6221079288721
 20
611.8687455261799
 30
0.0
 40
3.984519975010699
  0
CIRCLE
  5
2292
330
A
100
AcDbEntity
  8
LEVEL001
  6
HIDDEN
 62
     2
 48
0.5
370
    15
100
AcDbCircle
 10
303.6221079288721
 20
581.8687455261599
 30
0.0
 40
3.984519975010699
  0
LINE
  5
2293
330
A
100
AcDbEntity
  8
LEVEL002
  6
DASHDOT
 62
     6
370
    15
100
AcDbLine
 10
298.6221079288721
 20
611.8687455261799
 30
0.0
 11
308.6221079288721
 21
611.8687455261799
 31
0.0
  0
LINE
  5
2294
330
A
100
AcDbEntity
  8
LEVEL002
  6
DASHDOT
 62
     6
370
    15
100
AcDbLine
 10
298.6221079288721
 20
581.8687455261599
 30
0.0
 11
308.6221079288721
 21
581.8687455261599
 31
0.0
  0
LINE
  5
2295
330
A
100
AcDbEntity
  8
LEVEL002
  6
DASHDOT
 62
     6
370
    15
100
AcDbLine
 10
316.4652390612123
 20
596.8687455261699
 30
0.0
 11
290.7789767965223
 21
596.8687455261699
 31
0.0
  0
LINE
  5
2296
330
A
100
AcDbEntity
  8
LEVEL002
  6
Continuous
 62
     1
100
AcDbLine
 10
398.6221079288721
 20
671.8687455261699
 30
0.0
 11
398.6221079288721
 21
521.8687455261699
 31
0.0
  0
ARC
  5
2297
330
A
100
AcDbEntity
  8
LEVEL002
  6
Continuous
 62
     1
100
AcDbCircle
 10
401.6221079288721
 20
523.8687455260901
 30
0.0
 40
2.0
100
AcDbArc
 50
270.000000000026
 51
0.0
  0
LINE
  5
2298
330
A
100
AcDbEntity
  8
LEVEL002
  6
Continuous
 62
     1
100
AcDbLine
 10
403.622107928872
 20
669.8687455261699
 30
0.0
 11
403.622107928872
 21
523.8687455261699
 31
0.0
  0
ARC
  5
2299
330
A
100
AcDbEntity
  8
LEVEL002
  6
Continuous
 62
     1
100
AcDbCircle
 10
401.622107928682
 20
669.8687455261699
 30
0.0
 40
2.0
100
AcDbArc
 50
0.0
 51
89.99999999458053
  0
LINE
  5
229A
330
A
100
AcDbEntity
  8
LEVEL002
  6
Continuous
 62
     1
100
AcDbLine
 10
196.9264287117821
 20
671.8687455261699
 30
0.0
 11
401.6221079288721
 21
671.8687455261699
 31
0.0
  0
LINE
  5
229B
330
A
100
AcDbEntity
  8
LEVEL002
  6
Continuous
 62
     1
100
AcDbLine
 10
398.6221079288721
 20
624.3692039094798
 30
0.0
 11
196.9264287117821
 21
624.3692039094798
 31
0.0
  0
LINE
  5
229C
330
A
100
AcDbEntity
  8
LEVEL002
  6
Continuous
 62
     1
100
AcDbLine
 10
196.9264287117821
 20
629.3582454761499
 30
0.0
 11
398.6221079288721
 21
629.3582454761499
 31
0.0
  0
LINE
  5
229D
330
A
100
AcDbEntity
  8
LEVEL002
  6
Continuous
 62
     1
100
AcDbLine
 10
398.6221079288721
 20
564.36928724287
 30
0.0
 11
196.9264287117821
 21
564.36928724287
 31
0.0
  0
LINE
  5
229E
330
A
100
AcDbEntity
  8
LEVEL002
  6
Continuous
 62
     1
100
AcDbLine
 10
196.9264287117821
 20
569.3682871428499
 30
0.0
 11
398.6221079288721
 21
569.3682871428499
 31
0.0
  0
LINE
  5
229F
330
A
100
AcDbEntity
  8
LEVEL002
  6
Continuous
 62
     1
100
AcDbLine
 10
401.6221079288721
 20
521.8687455261699
 30
0.0
 11
196.9264287117821
 21
521.8687455261699
 31
0.0
  0
LINE
  5
22A0
330
A
100
AcDbEntity
  8
LEVEL001
  6
HIDDEN
 62
     2
 48
0.5
370
    15
100
AcDbLine
 10
289.6221079288721
 20
814.9157720256699
 30
0.0
 11
289.6221079288721
 21
767.21577202567
 31
0.0
  0
LINE
  5
22A1
330
A
100
AcDbEntity
  8
LEVEL001
  6
HIDDEN
 62
     2
 48
0.5
370
    15
100
AcDbLine
 10
317.6221079288721
 20
767.21577202567
 30
0.0
 11
317.6221079288721
 21
814.9157720256699
 31
0.0
  0
LINE
  5
22A2
330
A
100
AcDbEntity
  8
LEVEL002
  6
HIDDEN
 62
     2
 48
0.5
370
    15
100
AcDbLine
 10
317.6221079288721
 20
814.9157720256699
 30
0.0
 11
289.6221079288721
 21
814.9157720256699
 31
0.0
  0
LINE
  5
22A3
330
A
100
AcDbEntity
  8
LEVEL001
  6
HIDDEN
 62
     2
 48
0.5
370
    15
100
AcDbLine
 10
317.6221079288721
 20
817.21577202567
 30
0.0
 11
317.6221079288721
 21
814.9157720256699
 31
0.0
  0
LINE
  5
22A4
330
A
100
AcDbEntity
  8
LEVEL001
  6
HIDDEN
 62
     2
 48
0.5
370
    15
100
AcDbLine
 10
289.6221079288721
 20
817.21577202567
 30
0.0
 11
289.6221079288721
 21
814.9157720256699
 31
0.0
  0
LWPOLYLINE
  5
22A5
330
A
100
AcDbEntity
  8
LEVEL001
  6
HIDDEN
 62
     2
 48
0.5
370
    15
100
AcDbPolyline
 90
        6
 70
     0
 43
0.0
 10
305.6221079288721
 20
764.21577202568
 10
305.6221079288721
 20
776.6157720256801
 10
305.0221079288722
 20
777.21577202568
 10
302.222107928872
 20
777.21577202568
 10
301.6221079288721
 20
776.6157720256801
 10
301.6221079288721
 20
764.21577202568
  0
LINE
  5
22A6
330
A
100
AcDbEntity
  8
LEVEL001
  6
HIDDEN
 62
     2
 48
0.5
370
    15
100
AcDbLine
 10
305.6221079288721
 20
776.6157720256801
 30
0.0
 11
301.6221079288721
 21
776.6157720256801
 31
0.0
  0
LINE
  5
22A7
330
A
100
AcDbEntity
  8
LEVEL001
  6
HIDDEN
 62
     2
 48
0.5
370
    15
100
AcDbLine
 10
305.0221079288722
 20
777.21577202568
 30
0.0
 11
305.0221079288722
 21
764.21577202568
 31
0.0
  0
LINE
  5
22A8
330
A
100
AcDbEntity
  8
LEVEL001
  6
HIDDEN
 62
     2
 48
0.5
370
    15
100
AcDbLine
 10
302.222107928872
 20
777.21577202568
 30
0.0
 11
302.222107928872
 21
764.21577202568
 31
0.0
  0
ARC
  5
22A9
330
A
100
AcDbEntity
  8
LEVEL002
  6
HIDDEN
 62
     2
 48
0.5
370
    15
100
AcDbCircle
 10
306.910962310832
 20
763.51577202568
 30
0.0
 40
0.7
100
AcDbArc
 50
353.6206297921105
 51
89.99999999671706
  0
ARC
  5
22AA
330
A
100
AcDbEntity
  8
LEVEL002
  6
HIDDEN
 62
     2
 48
0.5
370
    15
100
AcDbCircle
 10
305.1221079288521
 20
763.71577202553
 30
0.0
 40
2.5
100
AcDbArc
 50
270.0000000003647
 51
353.6206297949001
  0
ARC
  5
22AB
330
A
100
AcDbEntity
  8
LEVEL002
  6
HIDDEN
 62
     2
 48
0.5
370
    15
100
AcDbCircle
 10
300.3332535469121
 20
763.51577202521
 30
0.0
 40
0.7
100
AcDbArc
 50
90.00000000380403
 51
186.3793701701521
  0
ARC
  5
22AC
330
A
100
AcDbEntity
  8
LEVEL002
  6
HIDDEN
 62
     2
 48
0.5
370
    15
100
AcDbCircle
 10
302.1221079289621
 20
763.7157720256801
 30
0.0
 40
2.5
100
AcDbArc
 50
186.3793702082448
 51
269.9999999978374
  0
LINE
  5
22AD
330
A
100
AcDbEntity
  8
LEVEL001
  6
HIDDEN
 62
     2
 48
0.5
370
    15
100
AcDbLine
 10
299.6221079288821
 20
804.9157720256697
 30
0.0
 11
307.6221079288821
 21
804.9157720256697
 31
0.0
  0
LINE
  5
22AE
330
A
100
AcDbEntity
  8
LEVEL001
  6
HIDDEN
 62
     2
 48
0.5
370
    15
100
AcDbLine
 10
307.6221079288821
 20
817.21577202567
 30
0.0
 11
307.6221079288821
 21
814.9157720256699
 31
0.0
  0
LINE
  5
22AF
330
A
100
AcDbEntity
  8
LEVEL001
  6
HIDDEN
 62
     2
 48
0.5
370
    15
100
AcDbLine
 10
306.6221079288821
 20
817.21577202567
 30
0.0
 11
306.6221079288821
 21
814.9157720256699
 31
0.0
  0
LINE
  5
22B0
330
A
100
AcDbEntity
  8
LEVEL001
  6
HIDDEN
 62
     2
 48
0.5
370
    15
100
AcDbLine
 10
299.6221079288821
 20
817.21577202567
 30
0.0
 11
299.6221079288821
 21
814.9157720256699
 31
0.0
  0
LINE
  5
22B1
330
A
100
AcDbEntity
  8
LEVEL001
  6
HIDDEN
 62
     2
 48
0.5
370
    15
100
AcDbLine
 10
300.6221079288821
 20
817.21577202567
 30
0.0
 11
300.6221079288821
 21
814.9157720256699
 31
0.0
  0
LINE
  5
22B2
330
A
100
AcDbEntity
  8
LEVEL002
  6
HIDDEN
 62
     2
 48
0.5
370
    15
100
AcDbLine
 10
312.6221079288821
 20
814.9157720256699
 30
0.0
 11
312.6221079288821
 21
813.9157720256699
 31
0.0
  0
LINE
  5
22B3
330
A
100
AcDbEntity
  8
LEVEL002
  6
HIDDEN
 62
     2
 48
0.5
370
    15
100
AcDbLine
 10
312.6221079288821
 20
813.9157720256699
 30
0.0
 11
294.6221079288821
 21
813.9157720256699
 31
0.0
  0
LINE
  5
22B4
330
A
100
AcDbEntity
  8
LEVEL002
  6
HIDDEN
 62
     2
 48
0.5
370
    15
100
AcDbLine
 10
311.1221079288821
 20
813.9157720256699
 30
0.0
 11
311.1221079288821
 21
808.9157720256798
 31
0.0
  0
LINE
  5
22B5
330
A
100
AcDbEntity
  8
LEVEL002
  6
HIDDEN
 62
     2
 48
0.5
370
    15
100
AcDbLine
 10
311.1221079288821
 20
808.9157720256798
 30
0.0
 11
310.1221079288821
 21
807.9157720256798
 31
0.0
  0
LINE
  5
22B6
330
A
100
AcDbEntity
  8
LEVEL002
  6
HIDDEN
 62
     2
 48
0.5
370
    15
100
AcDbLine
 10
310.1221079288821
 20
807.9157720256798
 30
0.0
 11
297.1221079288821
 21
807.9157720256798
 31
0.0
  0
LINE
  5
22B7
330
A
100
AcDbEntity
  8
LEVEL002
  6
HIDDEN
 62
     2
 48
0.5
370
    15
100
AcDbLine
 10
308.3721079290021
 20
807.9157720256798
 30
0.0
 11
307.3631891447822
 21
808.9246908098997
 31
0.0
  0
LINE
  5
22B8
330
A
100
AcDbEntity
  8
LEVEL002
  6
HIDDEN
 62
     2
 48
0.5
370
    15
100
AcDbLine
 10
307.3631891447822
 20
808.9246908098997
 30
0.0
 11
306.3542703605622
 21
807.9157720256798
 31
0.0
  0
LINE
  5
22B9
330
A
100
AcDbEntity
  8
LEVEL002
  6
HIDDEN
 62
     2
 48
0.5
370
    15
100
AcDbLine
 10
307.3721079288821
 20
813.9157720256699
 30
0.0
 11
307.3631891447822
 21
808.9246908098997
 31
0.0
  0
LINE
  5
22BA
330
A
100
AcDbEntity
  8
LEVEL002
  6
HIDDEN
 62
     2
 48
0.5
370
    15
100
AcDbLine
 10
307.3717598810022
 20
813.7209993727802
 30
0.0
 11
307.3586034074419
 21
813.7131054886399
 31
0.0
  0
LINE
  5
22BB
330
A
100
AcDbEntity
  8
LEVEL001
  6
HIDDEN
 62
     2
 48
0.5
370
    15
100
AcDbLine
 10
306.6221079288821
 20
803.9157720256698
 30
0.0
 11
306.6221079288821
 21
807.9157720256798
 31
0.0
  0
LWPOLYLINE
  5
22BC
330
A
100
AcDbEntity
  8
LEVEL001
  6
HIDDEN
 62
     2
 48
0.5
370
    15
100
AcDbPolyline
 90
        6
 70
     0
 43
0.0
 10
307.6221079288821
 20
807.9157720256798
 10
307.6221079288821
 20
804.9157720256697
 10
306.6221079288821
 20
803.9157720256698
 10
300.6221079288821
 20
803.9157720256698
 10
299.6221079288821
 20
804.9157720256697
 10
299.6221079288821
 20
807.9157720256798
  0
LINE
  5
22BD
330
A
100
AcDbEntity
  8
LEVEL002
  6
HIDDEN
 62
     2
 48
0.5
370
    15
100
AcDbLine
 10
297.1221079288821
 20
807.9157720256798
 30
0.0
 11
296.1221079288821
 21
808.9157720256798
 31
0.0
  0
LINE
  5
22BE
330
A
100
AcDbEntity
  8
LEVEL002
  6
HIDDEN
 62
     2
 48
0.5
370
    15
100
AcDbLine
 10
296.1221079288821
 20
808.9157720256798
 30
0.0
 11
296.1221079288821
 21
813.9157720256699
 31
0.0
  0
LINE
  5
22BF
330
A
100
AcDbEntity
  8
LEVEL002
  6
HIDDEN
 62
     2
 48
0.5
370
    15
100
AcDbLine
 10
300.8721079290022
 20
807.9157720256798
 30
0.0
 11
299.8721079289921
 21
808.9157720256899
 31
0.0
  0
LINE
  5
22C0
330
A
100
AcDbEntity
  8
LEVEL002
  6
HIDDEN
 62
     2
 48
0.5
370
    15
100
AcDbLine
 10
299.8721079289921
 20
808.9157720256899
 30
0.0
 11
298.8721079289821
 21
807.9157720256798
 31
0.0
  0
LINE
  5
22C1
330
A
100
AcDbEntity
  8
LEVEL002
  6
HIDDEN
 62
     2
 48
0.5
370
    15
100
AcDbLine
 10
299.8721079288821
 20
813.9157720256699
 30
0.0
 11
299.8721079289921
 21
808.9157720256899
 31
0.0
  0
LINE
  5
22C2
330
A
100
AcDbEntity
  8
LEVEL001
  6
HIDDEN
 62
     2
 48
0.5
370
    15
100
AcDbLine
 10
300.6221079288821
 20
807.9157720256798
 30
0.0
 11
300.6221079288821
 21
803.9157720256698
 31
0.0
  0
LINE
  5
22C3
330
A
100
AcDbEntity
  8
LEVEL001
  6
HIDDEN
 62
     2
 48
0.5
370
    15
100
AcDbLine
 10
294.6221079288821
 20
813.9157720256699
 30
0.0
 11
294.6221079288821
 21
814.9157720256699
 31
0.0
  0
LINE
  5
22C4
330
A
100
AcDbEntity
  8
LEVEL002
  6
HIDDEN
 62
     2
 48
0.5
370
    15
100
AcDbLine
 10
305.1221079288721
 20
761.21577202567
 30
0.0
 11
302.1221079288721
 21
761.21577202568
 31
0.0
  0
LINE
  5
22C5
330
A
100
AcDbEntity
  8
LEVEL001
  6
HIDDEN
 62
     2
 48
0.5
370
    15
100
AcDbLine
 10
383.6221079288721
 20
737.8527511869999
 30
0.0
 11
385.1959856706421
 21
737.05546209992
 31
0.0
  0
ARC
  5
22C6
330
A
100
AcDbEntity
  8
LEVEL001
  6
HIDDEN
 62
     2
 48
0.5
370
    15
100
AcDbCircle
 10
386.0997868938121
 20
738.8395986835698
 30
0.0
 40
2.0
100
AcDbArc
 50
243.1343092453948
 51
269.9999999978635
  0
LINE
  5
22C7
330
A
100
AcDbEntity
  8
LEVEL001
  6
HIDDEN
 62
     2
 48
0.5
370
    15
100
AcDbLine
 10
383.6221079288721
 20
763.3395986835698
 30
0.0
 11
385.199816692872
 21
764.12845306557
 31
0.0
  0
ARC
  5
22C8
330
A
100
AcDbEntity
  8
LEVEL001
  6
HIDDEN
 62
     2
 48
0.5
370
    15
100
AcDbCircle
 10
386.0942438835923
 20
762.3395986835698
 30
0.0
 40
2.0
100
AcDbArc
 50
89.99999999220952
 51
116.5650511701041
  0
LINE
  5
22C9
330
A
100
AcDbEntity
  8
LEVEL001
  6
HIDDEN
 62
     2
 48
0.5
370
    15
100
AcDbLine
 10
386.094243883862
 20
764.3395986835699
 30
0.0
 11
398.6221079288721
 21
764.3395986835699
 31
0.0
  0
LINE
  5
22CA
330
A
100
AcDbEntity
  8
LEVEL001
  6
HIDDEN
 62
     2
 48
0.5
370
    15
100
AcDbLine
 10
398.6221079288721
 20
736.8395986835698
 30
0.0
 11
386.099786893732
 21
736.8395986835698
 31
0.0
  0
LINE
  5
22CB
330
A
100
AcDbEntity
  8
LEVEL001
  6
HIDDEN
 62
     2
 48
0.5
370
    15
100
AcDbLine
 10
383.6221079288721
 20
737.8527511869999
 30
0.0
 11
383.6221079288721
 21
763.3395986835698
 31
0.0
  0
LINE
  5
22CC
330
A
100
AcDbEntity
  8
LEVEL001
  6
HIDDEN
 62
     2
 48
0.5
370
    15
100
AcDbLine
 10
398.6221079288721
 20
764.21577202568
 30
0.0
 11
196.9264287117821
 21
764.21577202568
 31
0.0
  0
ARC
  5
22CD
330
A
100
AcDbEntity
  8
LEVEL001
  6
Continuous
 62
     3
100
AcDbCircle
 10
98.7428432158622
 20
767.92267376284
 30
0.0
 40
189.8805805711
100
AcDbArc
 50
359.7866944607628
 51
13.17945292503606
  0
LINE
  5
22CE
330
A
100
AcDbEntity
  8
LEVEL001
  6
Continuous
 62
     3
100
AcDbLine
 10
283.6221079288721
 20
817.21577202567
 30
0.0
 11
283.6221079288721
 21
811.21577202567
 31
0.0
  0
LINE
  5
22CF
330
A
100
AcDbEntity
  8
LEVEL001
  6
Continuous
 62
     3
100
AcDbLine
 10
283.6221079288721
 20
811.21577202567
 30
0.0
 11
323.6221079288721
 21
811.21577202567
 31
0.0
  0
ARC
  5
22D0
330
A
100
AcDbEntity
  8
LEVEL001
  6
Continuous
 62
     3
100
AcDbCircle
 10
508.5013726418719
 20
767.92267376283
 30
0.0
 40
189.8805805711
100
AcDbArc
 50
166.8205470749766
 51
180.2133055392372
  0
LINE
  5
22D1
330
A
100
AcDbEntity
  8
LEVEL001
  6
Continuous
 62
     3
100
AcDbLine
 10
323.6221079288721
 20
817.21577202567
 30
0.0
 11
323.6221079288721
 21
811.21577202567
 31
0.0
  0
ARC
  5
22D2
330
A
100
AcDbEntity
  8
LEVEL001
  6
Continuous
 62
     1
100
AcDbCircle
 10
401.622107928842
 20
764.8395986835699
 30
0.0
 40
2.0
100
AcDbArc
 50
0.0
 51
89.99999999937468
  0
ARC
  5
22D3
330
A
100
AcDbEntity
  8
LEVEL001
  6
Continuous
 62
     1
100
AcDbCircle
 10
401.6221079288721
 20
736.3395986835298
 30
0.0
 40
2.0
100
AcDbArc
 50
270.0
 51
0.0
  0
LINE
  5
22D4
330
A
100
AcDbEntity
  8
LEVEL001
  6
Continuous
 62
     1
100
AcDbLine
 10
403.622107928872
 20
736.3395986835699
 30
0.0
 11
403.622107928872
 21
764.8395986835699
 31
0.0
  0
LWPOLYLINE
  5
22D5
330
A
100
AcDbEntity
  8
LEVEL001
  6
Continuous
 62
     1
100
AcDbPolyline
 90
        4
 70
     0
 43
0.0
 10
401.6221079288721
 20
766.8395986835698
 10
398.6221079288721
 20
766.8395986835698
 10
398.6221079288721
 20
734.3395986835698
 10
401.6221079288721
 20
734.3395986835698
  0
LINE
  5
22D6
330
A
100
AcDbEntity
  8
LEVEL001
  6
Continuous
 62
     1
100
AcDbLine
 10
398.6221079288721
 20
766.8395986835698
 30
0.0
 11
398.6221079288721
 21
767.21577202567
 31
0.0
  0
LINE
  5
22D7
330
A
100
AcDbEntity
  8
LEVEL001
  6
Continuous
 62
     1
100
AcDbLine
 10
196.9264287117821
 20
766.21577202568
 30
0.0
 11
398.6221079288721
 21
766.21577202568
 31
0.0
  0
LINE
  5
22D8
330
A
100
AcDbEntity
  8
LEVEL001
  6
Continuous
 62
     1
100
AcDbLine
 10
196.9264287117821
 20
767.21577202567
 30
0.0
 11
398.6221079288721
 21
767.21577202567
 31
0.0
  0
LINE
  5
22D9
330
A
100
AcDbEntity
  8
LEVEL001
  6
Continuous
 62
     1
100
AcDbLine
 10
401.6221079288721
 20
734.3395986835698
 30
0.0
 11
196.9264287117821
 21
734.3395986835698
 31
0.0
  0
LINE
  5
22DA
330
A
100
AcDbEntity
  8
LEVEL002
  6
DASHDOT
 62
     6
370
    15
100
AcDbLine
 10
303.6221079288721
 20
826.3860876196499
 30
0.0
 11
303.6221079288721
 21
516.43285188302
 31
0.0
  0
LINE
  5
22DB
330
A
100
AcDbEntity
  8
LEVEL001
  6
Continuous
 62
     7
370
    30
100
AcDbLine
 10
170.868669724422
 20
817.21577202567
 30
0.0
 11
452.4528880680422
 21
817.21577202567
 31
0.0
  0
LINE
  5
22DC
330
A
100
AcDbEntity
  8
LEVEL001
  6
HIDDEN
 62
     2
 48
0.5
370
    15
100
AcDbLine
 10
727.6276865153599
 20
322.21279642895
 30
0.0
 11
728.5720131604202
 21
321.7344229767
 31
0.0
  0
ARC
  5
22DD
330
A
100
AcDbEntity
  8
LEVEL001
  6
HIDDEN
 62
     2
 48
0.5
370
    15
100
AcDbCircle
 10
729.1142938943198
 20
322.80490492689
 30
0.0
 40
1.199999999999999
100
AcDbArc
 50
243.1343092453948
 51
269.9999999978635
  0
LINE
  5
22DE
330
A
100
AcDbEntity
  8
LEVEL001
  6
HIDDEN
 62
     2
 48
0.5
370
    15
100
AcDbLine
 10
727.6276865153599
 20
337.5049049268901
 30
0.0
 11
728.5743117737601
 21
337.9782175560899
 31
0.0
  0
ARC
  5
22DF
330
A
100
AcDbEntity
  8
LEVEL001
  6
HIDDEN
 62
     2
 48
0.5
370
    15
100
AcDbCircle
 10
729.11096808819
 20
336.9049049268901
 30
0.0
 40
1.199999999999999
100
AcDbArc
 50
89.99999999220952
 51
116.5650511701041
  0
LINE
  5
22E0
330
A
100
AcDbEntity
  8
LEVEL001
  6
HIDDEN
 62
     2
 48
0.5
370
    15
100
AcDbLine
 10
729.11096808836
 20
338.10490492689
 30
0.0
 11
736.62768651536
 21
338.10490492689
 31
0.0
  0
LINE
  5
22E1
330
A
100
AcDbEntity
  8
LEVEL001
  6
HIDDEN
 62
     2
 48
0.5
370
    15
100
AcDbLine
 10
736.62768651536
 20
321.60490492689
 30
0.0
 11
729.1142938942798
 21
321.60490492689
 31
0.0
  0
LINE
  5
22E2
330
A
100
AcDbEntity
  8
LEVEL001
  6
HIDDEN
 62
     2
 48
0.5
370
    15
100
AcDbLine
 10
727.6276865153599
 20
322.21279642895
 30
0.0
 11
727.6276865153599
 21
337.5049049268901
 31
0.0
  0
ARC
  5
22E3
330
A
100
AcDbEntity
  8
LEVEL001
  6
Continuous
 62
     3
100
AcDbCircle
 10
556.7001276875599
 20
340.2547499744501
 30
0.0
 40
113.92834834266
100
AcDbArc
 50
359.7866944607628
 51
13.17945292502338
  0
LINE
  5
22E4
330
A
100
AcDbEntity
  8
LEVEL001
  6
Continuous
 62
     3
100
AcDbLine
 10
667.6276865153599
 20
369.83060893216
 30
0.0
 11
667.6276865153599
 21
366.2306089321601
 31
0.0
  0
LINE
  5
22E5
330
A
100
AcDbEntity
  8
LEVEL001
  6
Continuous
 62
     3
100
AcDbLine
 10
667.6276865153599
 20
366.2306089321601
 30
0.0
 11
691.62768651536
 21
366.2306089321601
 31
0.0
  0
ARC
  5
22E6
330
A
100
AcDbEntity
  8
LEVEL001
  6
Continuous
 62
     3
100
AcDbCircle
 10
802.55524534316
 20
340.2547499744501
 30
0.0
 40
113.92834834266
100
AcDbArc
 50
166.8205470749766
 51
180.2133055392372
  0
LINE
  5
22E7
330
A
100
AcDbEntity
  8
LEVEL001
  6
Continuous
 62
     3
100
AcDbLine
 10
691.62768651536
 20
369.83060893216
 30
0.0
 11
691.62768651536
 21
366.2306089321601
 31
0.0
  0
ARC
  5
22E8
330
A
100
AcDbEntity
  8
LEVEL001
  6
Continuous
 62
     1
100
AcDbCircle
 10
738.4276865153402
 20
338.4049049268901
 30
0.0
 40
1.199999999999999
100
AcDbArc
 50
0.0
 51
89.99999999937468
  0
ARC
  5
22E9
330
A
100
AcDbEntity
  8
LEVEL001
  6
Continuous
 62
     1
100
AcDbCircle
 10
738.4276865153601
 20
321.30490492687
 30
0.0
 40
1.199999999999999
100
AcDbArc
 50
270.0
 51
0.0
  0
LINE
  5
22EA
330
A
100
AcDbEntity
  8
LEVEL001
  6
Continuous
 62
     1
100
AcDbLine
 10
739.6276865153599
 20
321.30490492689
 30
0.0
 11
739.6276865153599
 21
338.4049049268901
 31
0.0
  0
LWPOLYLINE
  5
22EB
330
A
100
AcDbEntity
  8
LEVEL001
  6
Continuous
 62
     1
100
AcDbPolyline
 90
        4
 70
     0
 43
0.0
 10
738.4276865153601
 20
339.60490492689
 10
736.62768651536
 20
339.60490492689
 10
736.62768651536
 20
320.1049049268899
 10
738.4276865153601
 20
320.1049049268899
  0
LINE
  5
22EC
330
A
100
AcDbEntity
  8
LEVEL001
  6
Continuous
 62
     1
100
AcDbLine
 10
736.62768651536
 20
339.60490492689
 30
0.0
 11
736.62768651536
 21
339.83060893216
 31
0.0
  0
LINE
  5
22ED
330
A
100
AcDbEntity
  8
LEVEL001
  6
HIDDEN
 62
     2
 48
0.5
370
    15
100
AcDbLine
 10
752.0098740119801
 20
297.83060893227
 30
0.0
 11
751.5315005597299
 21
298.7749355773399
 31
0.0
  0
ARC
  5
22EE
330
A
100
AcDbEntity
  8
LEVEL001
  6
HIDDEN
 62
     2
 48
0.5
370
    15
100
AcDbCircle
 10
752.6019825099202
 20
299.3172163112399
 30
0.0
 40
1.199999999999999
100
AcDbArc
 50
180.0000000019932
 51
206.8656907544712
  0
LINE
  5
22EF
330
A
100
AcDbEntity
  8
LEVEL001
  6
HIDDEN
 62
     2
 48
0.5
370
    15
100
AcDbLine
 10
767.3019825099199
 20
297.83060893224
 30
0.0
 11
767.7752951391198
 21
298.77723419063
 31
0.0
  0
ARC
  5
22F0
330
A
100
AcDbEntity
  8
LEVEL001
  6
HIDDEN
 62
     2
 48
0.5
370
    15
100
AcDbCircle
 10
766.7019825099201
 20
299.3138905050701
 30
0.0
 40
1.199999999999999
100
AcDbArc
 50
333.4349488297618
 51
0.0
  0
LINE
  5
22F1
330
A
100
AcDbEntity
  8
LEVEL001
  6
HIDDEN
 62
     2
 48
0.5
370
    15
100
AcDbLine
 10
767.9019825099199
 20
299.3138905052301
 30
0.0
 11
767.9019825099398
 21
306.83060893223
 31
0.0
  0
LINE
  5
22F2
330
A
100
AcDbEntity
  8
LEVEL001
  6
HIDDEN
 62
     2
 48
0.5
370
    15
100
AcDbLine
 10
751.4019825099398
 20
306.83060893228
 30
0.0
 11
751.4019825099198
 21
299.3172163111899
 31
0.0
  0
LINE
  5
22F3
330
A
100
AcDbEntity
  8
LEVEL001
  6
HIDDEN
 62
     2
 48
0.5
370
    15
100
AcDbLine
 10
752.0098740119801
 20
297.83060893227
 30
0.0
 11
767.3019825099199
 21
297.83060893224
 31
0.0
  0
ARC
  5
22F4
330
A
100
AcDbEntity
  8
LEVEL001
  6
Continuous
 62
     3
100
AcDbCircle
 10
770.0518275570602
 20
126.9030501044299
 30
0.0
 40
113.92834834266
100
AcDbArc
 50
76.82054707481551
 51
90.21330553910694
  0
LINE
  5
22F5
330
A
100
AcDbEntity
  8
LEVEL001
  6
Continuous
 62
     3
100
AcDbLine
 10
799.6276865150298
 20
237.83060893216
 30
0.0
 11
796.0276865150299
 21
237.83060893217
 31
0.0
  0
LINE
  5
22F6
330
A
100
AcDbEntity
  8
LEVEL001
  6
Continuous
 62
     3
100
AcDbLine
 10
796.0276865150299
 20
237.83060893217
 30
0.0
 11
796.0276865150899
 21
261.83060893217
 31
0.0
  0
ARC
  5
22F7
330
A
100
AcDbEntity
  8
LEVEL001
  6
Continuous
 62
     3
100
AcDbCircle
 10
770.0518275576601
 20
372.7581677600301
 30
0.0
 40
113.92834834266
100
AcDbArc
 50
269.7866944606325
 51
283.1794529248906
  0
LINE
  5
22F8
330
A
100
AcDbEntity
  8
LEVEL001
  6
Continuous
 62
     3
100
AcDbLine
 10
799.6276865150898
 20
261.83060893216
 30
0.0
 11
796.0276865150899
 21
261.83060893217
 31
0.0
  0
ARC
  5
22F9
330
A
100
AcDbEntity
  8
LEVEL001
  6
Continuous
 62
     1
100
AcDbCircle
 10
768.20198250994
 20
308.63060893222
 30
0.0
 40
1.199999999999999
100
AcDbArc
 50
0.0
 51
89.99999999986973
  0
ARC
  5
22FA
330
A
100
AcDbEntity
  8
LEVEL001
  6
Continuous
 62
     1
100
AcDbCircle
 10
751.1019825099201
 20
308.63060893228
 30
0.0
 40
1.199999999999999
100
AcDbArc
 50
89.99999999874935
 51
179.9999999998567
  0
LINE
  5
22FB
330
A
100
AcDbEntity
  8
LEVEL001
  6
Continuous
 62
     1
100
AcDbLine
 10
751.1019825099501
 20
309.83060893228
 30
0.0
 11
768.2019825099501
 21
309.83060893223
 31
0.0
  0
LWPOLYLINE
  5
22FC
330
A
100
AcDbEntity
  8
LEVEL001
  6
Continuous
 62
     1
100
AcDbPolyline
 90
        4
 70
     0
 43
0.0
 10
769.4019825099399
 20
308.63060893223
 10
769.4019825099399
 20
306.83060893223
 10
749.9019825099399
 20
306.83060893228
 10
749.9019825099399
 20
308.63060893228
  0
LINE
  5
22FD
330
A
100
AcDbEntity
  8
LEVEL001
  6
Continuous
 62
     1
100
AcDbLine
 10
769.4019825099399
 20
306.83060893223
 30
0.0
 11
769.6276865151999
 21
306.83060893223
 31
0.0
  0
LINE
  5
22FE
330
A
100
AcDbEntity
  8
LEVEL001
  6
Continuous
 62
     7
370
    30
100
AcDbLine
 10
529.9124655660898
 20
369.83060893216
 30
0.0
 11
799.62768651536
 21
369.83060893216
 31
0.0
  0
LINE
  5
22FF
330
A
100
AcDbEntity
  8
LEVEL001
  6
Continuous
 62
     1
100
AcDbLine
 10
563.6145932256599
 20
339.83060893216
 30
0.0
 11
736.62768651536
 21
339.83060893216
 31
0.0
  0
LINE
  5
2300
330
A
100
AcDbEntity
  8
LEVEL001
  6
Continuous
 62
     1
100
AcDbLine
 10
738.4276865153601
 20
320.1049049268899
 30
0.0
 11
563.6145932256599
 21
320.1049049268899
 31
0.0
  0
LINE
  5
2301
330
A
100
AcDbEntity
  8
LEVEL001
  6
Continuous
 62
     7
370
    30
100
AcDbLine
 10
799.6276865147802
 20
137.38216376037
 30
0.0
 11
799.62768651536
 21
369.83060893216
 31
0.0
  0
LINE
  5
2302
330
A
100
AcDbEntity
  8
LEVEL001
  6
Continuous
 62
     1
100
AcDbLine
 10
563.6145932256599
 20
339.2306089321601
 30
0.0
 11
736.62768651536
 21
339.2306089321601
 31
0.0
  0
LINE
  5
2303
330
A
100
AcDbEntity
  8
LEVEL001
  6
Continuous
 62
     1
100
AcDbLine
 10
769.6276865148101
 20
149.5523765263299
 30
0.0
 11
769.6276865151999
 21
306.83060893223
 31
0.0
  0
LINE
  5
2304
330
A
100
AcDbEntity
  8
LEVEL001
  6
Continuous
 62
     1
100
AcDbLine
 10
769.0276865148098
 20
149.5523765263299
 30
0.0
 11
769.0276865152
 21
306.83060893223
 31
0.0
  0
LINE
  5
2305
330
A
100
AcDbEntity
  8
LEVEL001
  6
Continuous
 62
     1
100
AcDbLine
 10
749.9019825099399
 20
308.63060893228
 30
0.0
 11
749.9019825095501
 21
149.5523765263299
 31
0.0
  0
LINE
  5
2306
330
A
100
AcDbEntity
  8
LEVEL001
  6
DASHDOT
 62
     6
370
    15
100
AcDbLine
 10
679.62768651536
 20
377.5458298815002
 30
0.0
 11
679.62768651536
 21
315.90262202552
 31
0.0
  0
LINE
  5
2307
330
A
100
AcDbEntity
  8
LEVEL001
  6
DASHDOT
 62
     6
370
    15
100
AcDbLine
 10
807.3429074647602
 20
249.8306089320999
 30
0.0
 11
745.69969960878
 21
249.8306089320999
 31
0.0
  0
LINE
  5
2308
330
A
100
AcDbEntity
  8
LEVEL001
  6
Continuous
 62
     8
100
AcDbLine
 10
251.5943067089602
 20
68.89660746397794
 30
0.0
 11
368.25551783826
 21
68.89660746397794
 31
0.0
  0
LINE
  5
2309
330
A
100
AcDbEntity
  8
LEVEL001
  6
Continuous
 62
     8
100
AcDbLine
 10
626.2064180019301
 20
68.89660746397794
 30
0.0
 11
742.8676291312299
 21
68.89660746397794
 31
0.0
  0
ARC
  5
230A
330
A
100
AcDbEntity
  8
LEVEL001
  6
Continuous
 62
     3
100
AcDbCircle
 10
182.9848880498198
 20
134.43257364454
 30
0.0
 40
113.92834834266
100
AcDbArc
 50
76.82054707481551
 51
90.21330553910694
  0
LINE
  5
230B
330
A
100
AcDbEntity
  8
LEVEL001
  6
Continuous
 62
     3
100
AcDbLine
 10
212.5607470077998
 20
245.3601324722699
 30
0.0
 11
208.9607470077999
 21
245.3601324722799
 31
0.0
  0
LINE
  5
230C
330
A
100
AcDbEntity
  8
LEVEL001
  6
Continuous
 62
     3
100
AcDbLine
 10
208.9607470077999
 20
245.3601324722799
 30
0.0
 11
208.96074700786
 21
269.3601324722799
 31
0.0
  0
ARC
  5
230D
330
A
100
AcDbEntity
  8
LEVEL001
  6
Continuous
 62
     3
100
AcDbCircle
 10
182.9848880504201
 20
380.2876913001501
 30
0.0
 40
113.92834834266
100
AcDbArc
 50
269.7866944606325
 51
283.1794529248906
  0
LINE
  5
230E
330
A
100
AcDbEntity
  8
LEVEL001
  6
Continuous
 62
     3
100
AcDbLine
 10
212.5607470078598
 20
269.3601324722699
 30
0.0
 11
208.96074700786
 21
269.3601324722799
 31
0.0
  0
LINE
  5
230F
330
A
100
AcDbEntity
  8
LEVEL001
  6
DASHDOT
 62
     6
370
    15
100
AcDbLine
 10
220.2759679575201
 20
257.3601324722099
 30
0.0
 11
158.63276010155
 21
257.3601324722099
 31
0.0
  0
LINE
  5
2310
330
A
100
AcDbEntity
  8
LEVEL001
  6
Continuous
 62
     7
370
    30
100
AcDbLine
 10
459.48998006291
 20
203.96013247221
 30
0.0
 11
212.56074700814
 21
203.96013247221
 31
0.0
  0
LINE
  5
2311
330
A
100
AcDbEntity
  8
LEVEL001
  6
Continuous
 62
     7
370
    30
100
AcDbLine
 10
212.5607470078298
 20
410.4448664162
 30
0.0
 11
212.5607470078298
 21
203.9601324725299
 31
0.0
  0
ARC
  5
2312
330
A
100
AcDbEntity
  8
LEVEL001
  6
Continuous
 62
     3
100
AcDbCircle
 10
143.0381776365898
 20
174.3842735145099
 30
0.0
 40
113.92834834266
100
AcDbArc
 50
359.7866944607628
 51
13.17945292503606
  0
LINE
  5
2313
330
A
100
AcDbEntity
  8
LEVEL001
  6
Continuous
 62
     3
100
AcDbLine
 10
253.9657364643899
 20
203.96013247221
 30
0.0
 11
253.9657364643899
 21
200.3601324722099
 31
0.0
  0
LINE
  5
2314
330
A
100
AcDbEntity
  8
LEVEL001
  6
Continuous
 62
     3
100
AcDbLine
 10
253.9657364643899
 20
200.3601324722099
 30
0.0
 11
277.9657364643899
 21
200.3601324722099
 31
0.0
  0
ARC
  5
2315
330
A
100
AcDbEntity
  8
LEVEL001
  6
Continuous
 62
     3
100
AcDbCircle
 10
388.89329529219
 20
174.3842735144999
 30
0.0
 40
113.92834834266
100
AcDbArc
 50
166.8205470749766
 51
180.2133055392372
  0
LINE
  5
2316
330
A
100
AcDbEntity
  8
LEVEL001
  6
Continuous
 62
     3
100
AcDbLine
 10
277.9657364643899
 20
203.96013247221
 30
0.0
 11
277.9657364643899
 21
200.3601324722099
 31
0.0
  0
LINE
  5
2317
330
A
100
AcDbEntity
  8
LEVEL001
  6
DASHDOT
 62
     6
370
    15
100
AcDbLine
 10
265.9657364643899
 20
211.67535342156
 30
0.0
 11
265.9657364643899
 21
150.0321455655801
 31
0.0
  0
LINE
  5
2318
330
A
100
AcDbEntity
  8
LEVEL001
  6
DASHDOT
 62
     6
370
    15
100
AcDbLine
 10
202.6657364646598
 20
164.96013247221
 30
0.0
 11
470.5602421539701
 21
164.96013247221
 31
0.0
  0
LINE
  5
2319
330
A
100
AcDbEntity
  8
LEVEL001
  6
DASHDOT
 62
     6
370
    15
100
AcDbLine
 10
173.5657364643898
 20
417.9173429961199
 30
0.0
 11
173.5657364643898
 21
194.0601324724901
 31
0.0
  0
LINE
  5
231A
330
A
100
AcDbEntity
  8
LEVEL001
  6
Continuous
 62
     2
100
AcDbLine
 10
183.4607470075498
 20
179.3601324722099
 30
0.0
 11
163.6657364643902
 21
179.3601324722099
 31
0.0
  0
LINE
  5
231B
330
A
100
AcDbEntity
  8
LEVEL001
  6
Continuous
 62
     2
100
AcDbLine
 10
163.6657364643902
 20
179.3601324722099
 30
0.0
 11
163.6657364643902
 21
170.3601324722099
 31
0.0
  0
ARC
  5
231C
330
A
100
AcDbEntity
  8
LEVEL001
  6
Continuous
 62
     2
100
AcDbCircle
 10
178.9657364643899
 20
170.3601324722099
 30
0.0
 40
15.3
100
AcDbArc
 50
180.0
 51
270.0
  0
LINE
  5
231D
330
A
100
AcDbEntity
  8
LEVEL001
  6
Continuous
 62
     2
100
AcDbLine
 10
178.9657364643899
 20
155.0601324722099
 30
0.0
 11
187.9657364643899
 21
155.0601324722099
 31
0.0
  0
LINE
  5
231E
330
A
100
AcDbEntity
  8
LEVEL001
  6
Continuous
 62
     2
100
AcDbLine
 10
187.9657364643899
 20
155.0601324722099
 30
0.0
 11
187.9657364643899
 21
174.8601324722499
 31
0.0
  0
LINE
  5
231F
330
A
100
AcDbEntity
  8
LEVEL001
  6
Continuous
 62
     2
100
AcDbLine
 10
187.9657364643899
 20
174.8601324722499
 30
0.0
 11
183.4607470075498
 21
174.8601324722499
 31
0.0
  0
LINE
  5
2320
330
A
100
AcDbEntity
  8
LEVEL001
  6
Continuous
 62
     2
100
AcDbLine
 10
183.4607470075498
 20
174.8601324722499
 30
0.0
 11
183.4607470075498
 21
179.3601324722099
 31
0.0
  0
LWPOLYLINE
  5
2321
330
A
100
AcDbEntity
  8
LEVEL001
  6
HIDDEN
 62
     2
 48
0.5
370
    15
100
AcDbPolyline
 90
        4
 70
     0
 43
0.0
 10
196.9657364644199
 20
164.0601324722099
 10
220.9657364644199
 20
164.0601324722099
 10
220.9657364644199
 20
165.8601324722099
 10
196.9657364644199
 20
165.8601324722099
  0
LWPOLYLINE
  5
2322
330
A
100
AcDbEntity
  8
LEVEL001
  6
HIDDEN
 62
     2
 48
0.5
370
    15
100
AcDbPolyline
 90
        3
 70
     0
 43
0.0
 10
196.9657364644199
 20
172.7873455579999
 10
196.9657364644199
 20
173.60886265212
 10
187.9657364643899
 20
173.60886265212
  0
LWPOLYLINE
  5
2323
330
A
100
AcDbEntity
  8
LEVEL001
  6
HIDDEN
 62
     2
 48
0.5
370
    15
100
AcDbPolyline
 90
        3
 70
     0
 43
0.0
 10
196.9657364644199
 20
157.1329193864299
 10
196.9657364644199
 20
156.3114022923
 10
187.9657364643899
 20
156.3114022923
  0
LWPOLYLINE
  5
2324
330
A
100
AcDbEntity
  8
LEVEL001
  6
HIDDEN
 62
     2
 48
0.5
370
    15
100
AcDbPolyline
 90
        4
 70
     0
 43
0.0
 10
187.9657364643899
 20
157.1329193864299
 10
196.9657364644199
 20
157.1329193864299
 10
196.9657364644199
 20
172.7873455579999
 10
187.9657364643899
 20
172.7873455579999
  0
LWPOLYLINE
  5
2325
330
A
100
AcDbEntity
  8
LEVEL001
  6
HIDDEN
 62
     2
 48
0.5
370
    15
100
AcDbPolyline
 90
        4
 70
     0
 43
0.0
 10
172.6657364643902
 20
188.3601324722499
 10
172.6657364643902
 20
212.3601324722499
 10
174.4657364643899
 20
212.3601324722499
 10
174.4657364643899
 20
188.3601324722499
  0
LWPOLYLINE
  5
2326
330
A
100
AcDbEntity
  8
LEVEL001
  6
HIDDEN
 62
     2
 48
0.5
370
    15
100
AcDbPolyline
 90
        3
 70
     0
 43
0.0
 10
181.3929495501697
 20
188.3601324722499
 10
182.2144666443
 20
188.3601324722499
 10
182.2144666443
 20
179.3601324722099
  0
LWPOLYLINE
  5
2327
330
A
100
AcDbEntity
  8
LEVEL001
  6
HIDDEN
 62
     2
 48
0.5
370
    15
100
AcDbPolyline
 90
        3
 70
     0
 43
0.0
 10
165.7385233785999
 20
188.3601324722499
 10
164.91700628448
 20
188.3601324722499
 10
164.91700628448
 20
179.3601324722099
  0
LWPOLYLINE
  5
2328
330
A
100
AcDbEntity
  8
LEVEL001
  6
HIDDEN
 62
     2
 48
0.5
370
    15
100
AcDbPolyline
 90
        4
 70
     0
 43
0.0
 10
165.7385233785999
 20
179.3601324722099
 10
165.7385233785999
 20
188.3601324722499
 10
181.3929495501697
 20
188.3601324722499
 10
181.3929495501697
 20
179.3601324722099
  0
LINE
  5
2329
330
A
100
AcDbEntity
  8
LEVEL001
  6
Continuous
 62
     1
100
AcDbLine
 10
182.5607470078298
 20
179.3601324722099
 30
0.0
 11
164.5607470078298
 21
179.3601324722099
 31
0.0
  0
LINE
  5
232A
330
A
100
AcDbEntity
  8
LEVEL001
  6
Continuous
 62
     1
100
AcDbLine
 10
187.9657364643899
 20
173.96013247221
 30
0.0
 11
187.9657364643899
 21
155.96013247221
 31
0.0
  0
LINE
  5
232B
330
A
100
AcDbEntity
  8
LEVEL001
  6
Continuous
 62
     1
100
AcDbLine
 10
187.9657364643899
 20
173.96013247221
 30
0.0
 11
433.4014860164898
 21
173.96013247221
 31
0.0
  0
LINE
  5
232C
330
A
100
AcDbEntity
  8
LEVEL001
  6
Continuous
 62
     1
100
AcDbLine
 10
187.9657364643899
 20
155.96013247221
 30
0.0
 11
433.4014860164898
 21
155.96013247221
 31
0.0
  0
LINE
  5
232D
330
A
100
AcDbEntity
  8
LEVEL001
  6
Continuous
 62
     1
100
AcDbLine
 10
182.5607470078298
 20
179.3601324722099
 30
0.0
 11
182.5607470078298
 21
388.5360009339199
 31
0.0
  0
LINE
  5
232E
330
A
100
AcDbEntity
  8
LEVEL001
  6
Continuous
 62
     1
100
AcDbLine
 10
164.5607470078298
 20
179.3601324722099
 30
0.0
 11
164.5607470078298
 21
388.5360009339199
 31
0.0
  0
TEXT
  5
265F
330
A
100
AcDbEntity
  8
LEVEL001
 62
     8
100
AcDbText
 10
642.53702356658
 20
85.52508536905202
 30
0.0
 40
12.0
  1
入隅部納まり図
 41
0.8
100
AcDbText
  0
TEXT
  5
2660
330
A
100
AcDbEntity
  8
LEVEL001
 62
     8
100
AcDbText
 10
642.53702356658
 20
69.52508536905202
 30
0.0
 40
12.0
  1
(Ｓ＝１/５)
 41
0.8
100
AcDbText
  0
TEXT
  5
2661
330
A
100
AcDbEntity
  8
LEVEL001
 62
     8
100
AcDbText
 10
267.9249122736101
 20
85.52508536905202
 30
0.0
 40
12.0
  1
出隅部納まり図
 41
0.8
100
AcDbText
  0
TEXT
  5
2662
330
A
100
AcDbEntity
  8
LEVEL001
 62
     8
100
AcDbText
 10
267.9249122736101
 20
69.52508536905202
 30
0.0
 40
12.0
  1
(Ｓ＝１/５)
 41
0.8
100
AcDbText
  0
TEXT
  5
2663
330
A
100
AcDbEntity
  8
LEVEL001
 62
     8
100
AcDbText
 10
960.37500000008
 20
126.00000000001
 30
0.0
 40
11.25
  1
Ｓ＝１：３
 41
0.8
100
AcDbText
  0
TEXT
  5
2664
330
A
100
AcDbEntity
  8
LEVEL001
 62
     8
100
AcDbText
 10
960.37500000008
 20
111.00000000001
 30
0.0
 40
11.25
  1
Ｓ＝１：５
 41
0.8
100
AcDbText
  0
LWPOLYLINE
  5
2665
330
A
100
AcDbEntity
  8
LEVEL001
  6
Continuous
 62
     6
370
    15
100
AcDbPolyline
 90
        3
 70
     0
 43
0.0
 10
142.9255224094822
 20
668.7363183861598
 10
157.0854302508719
 20
693.58563874117
 10
188.5854302508719
 20
693.58563874117
  0
LWPOLYLINE
  5
2666
330
A
100
AcDbEntity
  8
LEVEL001
  6
Continuous
 62
     6
370
    15
100
AcDbPolyline
 90
        4
 70
     0
 43
0.0
 10
146.5823850038819
 20
673.55828081344
 10
142.9255224094822
 20
668.7363183861598
 10
145.2097647216519
 20
674.34044211281
 10
146.5823850038819
 20
673.55828081344
  0
TEXT
  5
2667
330
A
100
AcDbEntity
  8
LEVEL001
 62
     6
370
    15
100
AcDbText
 10
157.0854302508719
 20
695.0856387411699
 30
0.0
 40
9.0
  1
特殊樹脂
 41
0.8
100
AcDbText
  0
LINE
  5
2668
330
A
100
AcDbEntity
  8
LEVEL001
  6
Continuous
 62
     6
370
    15
100
AcDbLine
 10
63.92922618923194
 20
699.6649804293999
 30
0.0
 11
113.9292261892319
 21
699.6649804293999
 31
0.0
  0
LINE
  5
2669
330
A
100
AcDbEntity
  8
LEVEL001
  6
Continuous
 62
     6
370
    15
100
AcDbLine
 10
63.92922618923194
 20
696.05368513907
 30
0.0
 11
63.92922618923194
 21
702.6649804294
 31
0.0
  0
CIRCLE
  5
266A
330
A
100
AcDbEntity
  8
LEVEL001
  6
Continuous
 62
     6
370
    15
100
AcDbCircle
 10
63.92922618923194
 20
699.6649804293999
 30
0.0
 40
0.6
  0
TEXT
  5
266B
330
A
100
AcDbEntity
  8
LEVEL001
 62
     6
370
    15
100
AcDbText
 10
80.67922618923194
 20
701.1649804293999
 30
0.0
 40
9.0
  1
５０
 41
0.8
100
AcDbText
  0
LINE
  5
266C
330
A
100
AcDbEntity
  8
LEVEL001
  6
Continuous
 62
     6
370
    15
100
AcDbLine
 10
113.9292261892319
 20
699.6649804293999
 30
0.0
 11
146.8053995313321
 21
699.6649804293999
 31
0.0
  0
LINE
  5
266D
330
A
100
AcDbEntity
  8
LEVEL001
  6
Continuous
 62
     6
370
    15
100
AcDbLine
 10
113.9292261892319
 20
674.8687455261699
 30
0.0
 11
113.9292261892319
 21
702.6649804294
 31
0.0
  0
LINE
  5
266E
330
A
100
AcDbEntity
  8
LEVEL001
  6
Continuous
 62
     6
370
    15
100
AcDbLine
 10
146.8053995313321
 20
674.8687455261699
 30
0.0
 11
146.8053995313321
 21
702.6649804294
 31
0.0
  0
CIRCLE
  5
266F
330
A
100
AcDbEntity
  8
LEVEL001
  6
Continuous
 62
     6
370
    15
100
AcDbCircle
 10
113.9292261892319
 20
699.6649804293999
 30
0.0
 40
0.6
  0
CIRCLE
  5
2670
330
A
100
AcDbEntity
  8
LEVEL001
  6
Continuous
 62
     6
370
    15
100
AcDbCircle
 10
146.8053995313321
 20
699.6649804293999
 30
0.0
 40
0.6
  0
TEXT
  5
2671
330
A
100
AcDbEntity
  8
LEVEL001
 62
     6
370
    15
100
AcDbText
 10
122.1173128602822
 20
701.1649804293999
 30
0.0
 40
9.0
  1
３０
 41
0.8
100
AcDbText
  0
LINE
  5
2672
330
A
100
AcDbEntity
  8
LEVEL001
  6
Continuous
 62
     6
370
    15
100
AcDbLine
 10
169.3053995313321
 20
521.8687455261699
 30
0.0
 11
169.3053995313321
 21
671.8687455261699
 31
0.0
  0
LINE
  5
2673
330
A
100
AcDbEntity
  8
LEVEL001
  6
Continuous
 62
     6
370
    15
100
AcDbLine
 10
149.8053995313321
 20
521.8687455261699
 30
0.0
 11
172.3053995313321
 21
521.8687455261699
 31
0.0
  0
LINE
  5
2674
330
A
100
AcDbEntity
  8
LEVEL001
  6
Continuous
 62
     6
370
    15
100
AcDbLine
 10
149.8053995313321
 20
671.8687455261699
 30
0.0
 11
172.3053995313321
 21
671.8687455261699
 31
0.0
  0
CIRCLE
  5
2675
330
A
100
AcDbEntity
  8
LEVEL001
  6
Continuous
 62
     6
370
    15
100
AcDbCircle
 10
169.3053995313321
 20
521.8687455261699
 30
0.0
 40
0.6
  0
CIRCLE
  5
2676
330
A
100
AcDbEntity
  8
LEVEL001
  6
Continuous
 62
     6
370
    15
100
AcDbCircle
 10
169.3053995313321
 20
671.8687455261699
 30
0.0
 40
0.6
  0
TEXT
  5
2677
330
A
100
AcDbEntity
  8
LEVEL001
 62
     6
370
    15
100
AcDbText
 10
167.8053995313321
 20
584.8687455261699
 30
0.0
 40
9.0
  1
１５０
 50
90.0
 41
0.8
100
AcDbText
  0
LWPOLYLINE
  5
2678
330
A
100
AcDbEntity
  8
LEVEL001
  6
Continuous
 62
     6
370
    15
100
AcDbPolyline
 90
        3
 70
     0
 43
0.0
 10
68.16410506509192
 20
565.4752663049298
 10
116.8874286398222
 20
472.3457166430998
 10
185.1374286398222
 20
472.3457166430998
  0
LWPOLYLINE
  5
2679
330
A
100
AcDbEntity
  8
LEVEL001
  6
Continuous
 62
     6
370
    15
100
AcDbPolyline
 90
        4
 70
     0
 43
0.0
 10
70.24559855654207
 20
559.79271841429
 10
68.16410506509192
 20
565.4752663049298
 10
71.64542500454217
 20
560.5250766960798
 10
70.24559855654207
 20
559.79271841429
  0
TEXT
  5
267A
330
A
100
AcDbEntity
  8
LEVEL001
 62
     6
370
    15
100
AcDbText
 10
116.8874286398222
 20
473.8457166430999
 30
0.0
 40
9.0
  1
ブラケット(ＲＰＢ)
 41
0.8
100
AcDbText
  0
LWPOLYLINE
  5
267B
330
A
100
AcDbEntity
  8
LEVEL001
  6
Continuous
 62
     6
370
    15
100
AcDbPolyline
 90
        3
 70
     0
 43
0.0
 10
115.9252785063222
 20
554.5387516113601
 10
151.4537134188722
 20
495.3899064958
 10
175.4537134188722
 20
495.3899064958
  0
LWPOLYLINE
  5
267C
330
A
100
AcDbEntity
  8
LEVEL001
  6
Continuous
 62
     6
370
    15
100
AcDbPolyline
 90
        4
 70
     0
 43
0.0
 10
118.3376056825723
 20
548.9885585265101
 10
115.9252785063222
 20
554.5387516113601
 10
119.691903301682
 20
549.8020329860501
 10
118.3376056825723
 20
548.9885585265101
  0
TEXT
  5
267D
330
A
100
AcDbEntity
  8
LEVEL001
 62
     6
370
    15
100
AcDbText
 10
151.4537134188722
 20
496.8899064958
 30
0.0
 40
9.0
  1
笠木受
 41
0.8
100
AcDbText
  0
LWPOLYLINE
  5
267E
330
A
100
AcDbEntity
  8
LEVEL001
  6
Continuous
 62
     6
370
    15
100
AcDbPolyline
 90
        3
 70
     0
 43
0.0
 10
401.4414115903819
 20
540.0575703664099
 10
413.6569241383922
 20
526.69969006895
 10
467.6569241383922
 20
526.69969006895
  0
LWPOLYLINE
  5
267F
330
A
100
AcDbEntity
  8
LEVEL001
  6
Continuous
 62
     6
370
    15
100
AcDbPolyline
 90
        4
 70
     0
 43
0.0
 10
404.9075713459919
 20
535.0967536763
 10
401.4414115903819
 20
540.0575703664099
 10
406.0734186550321
 20
536.1628975640601
 10
404.9075713459919
 20
535.0967536763
  0
TEXT
  5
2680
330
A
100
AcDbEntity
  8
LEVEL001
 62
     6
370
    15
100
AcDbText
 10
413.6569241383922
 20
528.1996900689501
 30
0.0
 40
9.0
  1
エンドキャップ
 41
0.8
100
AcDbText
  0
LINE
  5
2681
330
A
100
AcDbEntity
  8
LEVEL001
  6
Continuous
 62
     6
370
    15
100
AcDbLine
 10
403.622107928872
 20
701.8687455261699
 30
0.0
 11
303.6221079288721
 21
701.8687455261699
 31
0.0
  0
LINE
  5
2682
330
A
100
AcDbEntity
  8
LEVEL001
  6
Continuous
 62
     6
370
    15
100
AcDbLine
 10
403.622107928872
 20
674.8687455261699
 30
0.0
 11
403.622107928872
 21
704.8687455261699
 31
0.0
  0
LINE
  5
2683
330
A
100
AcDbEntity
  8
LEVEL001
  6
Continuous
 62
     6
370
    15
100
AcDbLine
 10
303.6221079288721
 20
668.8687455261599
 30
0.0
 11
303.6221079288721
 21
704.8687455261699
 31
0.0
  0
CIRCLE
  5
2684
330
A
100
AcDbEntity
  8
LEVEL001
  6
Continuous
 62
     6
370
    15
100
AcDbCircle
 10
403.622107928872
 20
701.8687455261699
 30
0.0
 40
0.6
  0
CIRCLE
  5
2685
330
A
100
AcDbEntity
  8
LEVEL001
  6
Continuous
 62
     6
370
    15
100
AcDbCircle
 10
303.6221079288721
 20
701.8687455261699
 30
0.0
 40
0.6
  0
TEXT
  5
2686
330
A
100
AcDbEntity
  8
LEVEL001
 62
     6
370
    15
100
AcDbText
 10
341.6221079288721
 20
703.3687455261699
 30
0.0
 40
9.0
  1
１００
 41
0.8
100
AcDbText
  0
LINE
  5
2687
330
A
100
AcDbEntity
  8
LEVEL001
  6
Continuous
 62
     6
370
    15
100
AcDbLine
 10
303.6221079288721
 20
701.8687455261699
 30
0.0
 11
196.9264287117821
 21
701.8687455261699
 31
0.0
  0
CIRCLE
  5
2688
330
A
100
AcDbEntity
  8
LEVEL001
  6
Continuous
 62
     6
370
    15
100
AcDbCircle
 10
303.6221079288721
 20
701.8687455261699
 30
0.0
 40
0.6
  0
LWPOLYLINE
  5
2689
330
A
100
AcDbEntity
  8
LEVEL001
  6
Continuous
 62
     6
370
    15
100
AcDbPolyline
 90
        4
 70
     0
 43
0.0
 10
202.9264287117821
 20
701.0788305406499
 10
196.9264287117821
 20
701.8687455261699
 10
202.9264287117821
 20
702.6586605117
 10
202.9264287117821
 20
701.0788305406499
  0
TEXT
  5
268A
330
A
100
AcDbEntity
  8
LEVEL001
 62
     6
370
    15
100
AcDbText
 10
230.7742683203319
 20
703.3687455261699
 30
0.0
 40
9.0
  1
＠≦８００
 41
0.8
100
AcDbText
  0
LWPOLYLINE
  5
268B
330
A
100
AcDbEntity
  8
LEVEL001
  6
Continuous
 62
     6
370
    15
100
AcDbPolyline
 90
        3
 70
     0
 43
0.0
 10
401.4414115903819
 20
739.85862120562
 10
413.6569241383922
 20
726.5007409081599
 10
467.6569241383922
 20
726.5007409081599
  0
LWPOLYLINE
  5
268C
330
A
100
AcDbEntity
  8
LEVEL001
  6
Continuous
 62
     6
370
    15
100
AcDbPolyline
 90
        4
 70
     0
 43
0.0
 10
404.9075713459919
 20
734.8978045155099
 10
401.4414115903819
 20
739.85862120562
 10
406.0734186550321
 20
735.96394840327
 10
404.9075713459919
 20
734.8978045155099
  0
TEXT
  5
268D
330
A
100
AcDbEntity
  8
LEVEL001
 62
     6
370
    15
100
AcDbText
 10
413.6569241383922
 20
728.00074090816
 30
0.0
 40
9.0
  1
エンドキャップ
 41
0.8
100
AcDbText
  0
LINE
  5
26AA
330
A
100
AcDbEntity
  8
LEVEL001
  6
Continuous
 62
     6
370
    15
100
AcDbLine
 10
398.6221079288721
 20
496.8687455261699
 30
0.0
 11
416.5639761330221
 21
496.8687455261699
 31
0.0
  0
LINE
  5
26AB
330
A
100
AcDbEntity
  8
LEVEL001
  6
Continuous
 62
     6
370
    15
100
AcDbLine
 10
398.6221079288721
 20
518.8687455261699
 30
0.0
 11
398.6221079288721
 21
493.8687455261699
 31
0.0
  0
LINE
  5
26AC
330
A
100
AcDbEntity
  8
LEVEL001
  6
Continuous
 62
     6
370
    15
100
AcDbLine
 10
403.622107928872
 20
518.8687455261699
 30
0.0
 11
403.622107928872
 21
493.8687455261699
 31
0.0
  0
CIRCLE
  5
26AD
330
A
100
AcDbEntity
  8
LEVEL001
  6
Continuous
 62
     6
370
    15
100
AcDbCircle
 10
398.6221079288721
 20
496.8687455261699
 30
0.0
 40
0.6
  0
CIRCLE
  5
26AE
330
A
100
AcDbEntity
  8
LEVEL001
  6
Continuous
 62
     6
370
    15
100
AcDbCircle
 10
403.622107928872
 20
496.8687455261699
 30
0.0
 40
0.6
  0
TEXT
  5
26AF
330
A
100
AcDbEntity
  8
LEVEL001
 62
     6
370
    15
100
AcDbText
 10
407.5639761330221
 20
498.37988262883
 30
0.0
 40
9.0
  1
５
 41
0.8
100
AcDbText
  0
LINE
  5
26B0
330
A
100
AcDbEntity
  8
LEVEL001
  6
Continuous
 62
     6
370
    15
100
AcDbLine
 10
383.6221079288721
 20
471.8687455261699
 30
0.0
 11
403.622107928872
 21
471.8687455261699
 31
0.0
  0
LINE
  5
26B1
330
A
100
AcDbEntity
  8
LEVEL001
  6
Continuous
 62
     6
370
    15
100
AcDbLine
 10
383.6221079288721
 20
520.8687455261699
 30
0.0
 11
383.6221079288721
 21
468.8687455261699
 31
0.0
  0
LINE
  5
26B2
330
A
100
AcDbEntity
  8
LEVEL001
  6
Continuous
 62
     6
370
    15
100
AcDbLine
 10
403.622107928872
 20
493.8687455261699
 30
0.0
 11
403.622107928872
 21
468.8687455261699
 31
0.0
  0
CIRCLE
  5
26B3
330
A
100
AcDbEntity
  8
LEVEL001
  6
Continuous
 62
     6
370
    15
100
AcDbCircle
 10
383.6221079288721
 20
471.8687455261699
 30
0.0
 40
0.6
  0
CIRCLE
  5
26B4
330
A
100
AcDbEntity
  8
LEVEL001
  6
Continuous
 62
     6
370
    15
100
AcDbCircle
 10
403.622107928872
 20
471.8687455261699
 30
0.0
 40
0.6
  0
TEXT
  5
26B5
330
A
100
AcDbEntity
  8
LEVEL001
 62
     6
370
    15
100
AcDbText
 10
385.3721079288721
 20
473.36874552617
 30
0.0
 40
9.0
  1
２０
 41
0.8
100
AcDbText
  0
LINE
  5
26B6
330
A
100
AcDbEntity
  8
LEVEL001
  6
Continuous
 62
     6
370
    15
100
AcDbLine
 10
679.62768651536
 20
390.7962390468001
 30
0.0
 11
739.6276865153599
 21
390.7962390468001
 31
0.0
  0
LINE
  5
26B7
330
A
100
AcDbEntity
  8
LEVEL001
  6
Continuous
 62
     6
370
    15
100
AcDbLine
 10
679.62768651536
 20
380.5458298815001
 30
0.0
 11
679.62768651536
 21
392.2962390468001
 31
0.0
  0
CIRCLE
  5
26B8
330
A
100
AcDbEntity
  8
LEVEL001
  6
Continuous
 62
     6
370
    15
100
AcDbCircle
 10
679.62768651536
 20
390.7962390468001
 30
0.0
 40
0.6
  0
TEXT
  5
26B9
330
A
100
AcDbEntity
  8
LEVEL001
 62
     6
370
    15
100
AcDbText
 10
699.8776865153599
 20
392.2962390468001
 30
0.0
 40
7.5
  1
１００
 41
0.8
100
AcDbText
  0
LINE
  5
26BA
330
A
100
AcDbEntity
  8
LEVEL001
  6
Continuous
 62
     6
370
    15
100
AcDbLine
 10
739.6276865153599
 20
390.7962390468001
 30
0.0
 11
799.62768651536
 21
390.7962390468001
 31
0.0
  0
LINE
  5
26BB
330
A
100
AcDbEntity
  8
LEVEL001
  6
Continuous
 62
     6
370
    15
100
AcDbLine
 10
739.6276865153599
 20
342.6049049268899
 30
0.0
 11
739.6276865153599
 21
392.2962390468001
 31
0.0
  0
LINE
  5
26BC
330
A
100
AcDbEntity
  8
LEVEL001
  6
Continuous
 62
     6
370
    15
100
AcDbLine
 10
799.62768651536
 20
372.83060893216
 30
0.0
 11
799.62768651536
 21
392.2962390468001
 31
0.0
  0
CIRCLE
  5
26BD
330
A
100
AcDbEntity
  8
LEVEL001
  6
Continuous
 62
     6
370
    15
100
AcDbCircle
 10
739.6276865153599
 20
390.7962390468001
 30
0.0
 40
0.6
  0
CIRCLE
  5
26BE
330
A
100
AcDbEntity
  8
LEVEL001
  6
Continuous
 62
     6
370
    15
100
AcDbCircle
 10
799.62768651536
 20
390.7962390468001
 30
0.0
 40
0.6
  0
TEXT
  5
26BF
330
A
100
AcDbEntity
  8
LEVEL001
 62
     6
370
    15
100
AcDbText
 10
759.87768651536
 20
392.2962390468001
 30
0.0
 40
7.5
  1
１００
 41
0.8
100
AcDbText
  0
LINE
  5
26C0
330
A
100
AcDbEntity
  8
LEVEL001
  6
Continuous
 62
     6
370
    15
100
AcDbLine
 10
820.5933166300601
 20
249.8306089320999
 30
0.0
 11
820.5933166300601
 21
309.8306089320999
 31
0.0
  0
LINE
  5
26C1
330
A
100
AcDbEntity
  8
LEVEL001
  6
Continuous
 62
     6
370
    15
100
AcDbLine
 10
810.3429074647602
 20
249.8306089320999
 30
0.0
 11
822.0933166300602
 21
249.8306089320999
 31
0.0
  0
CIRCLE
  5
26C2
330
A
100
AcDbEntity
  8
LEVEL001
  6
Continuous
 62
     6
370
    15
100
AcDbCircle
 10
820.5933166300601
 20
249.8306089320999
 30
0.0
 40
0.6
  0
TEXT
  5
26C3
330
A
100
AcDbEntity
  8
LEVEL001
 62
     6
370
    15
100
AcDbText
 10
819.0933166300601
 20
270.0806089320999
 30
0.0
 40
7.5
  1
１００
 50
90.0
 41
0.8
100
AcDbText
  0
LINE
  5
26C4
330
A
100
AcDbEntity
  8
LEVEL001
  6
Continuous
 62
     6
370
    15
100
AcDbLine
 10
820.5933166300601
 20
309.8306089320999
 30
0.0
 11
820.5933166300601
 21
369.8306089321
 31
0.0
  0
LINE
  5
26C5
330
A
100
AcDbEntity
  8
LEVEL001
  6
Continuous
 62
     6
370
    15
100
AcDbLine
 10
772.40198251015
 20
309.8306089320999
 30
0.0
 11
822.0933166300602
 21
309.8306089320999
 31
0.0
  0
LINE
  5
26C6
330
A
100
AcDbEntity
  8
LEVEL001
  6
Continuous
 62
     6
370
    15
100
AcDbLine
 10
802.62768651541
 20
369.8306089321
 30
0.0
 11
822.0933166300602
 21
369.8306089321
 31
0.0
  0
CIRCLE
  5
26C7
330
A
100
AcDbEntity
  8
LEVEL001
  6
Continuous
 62
     6
370
    15
100
AcDbCircle
 10
820.5933166300601
 20
309.8306089320999
 30
0.0
 40
0.6
  0
CIRCLE
  5
26C8
330
A
100
AcDbEntity
  8
LEVEL001
  6
Continuous
 62
     6
370
    15
100
AcDbCircle
 10
820.5933166300601
 20
369.8306089321
 30
0.0
 40
0.6
  0
TEXT
  5
26C9
330
A
100
AcDbEntity
  8
LEVEL001
 62
     6
370
    15
100
AcDbText
 10
819.0933166300601
 20
330.0806089321
 30
0.0
 40
7.5
  1
１００
 50
90.0
 41
0.8
100
AcDbText
  0
LWPOLYLINE
  5
26CA
330
A
100
AcDbEntity
  8
LEVEL001
  6
Continuous
 62
     6
370
    15
100
AcDbPolyline
 90
        3
 70
     0
 43
0.0
 10
176.3917660673901
 20
160.2072078200099
 10
154.3557595207498
 20
131.6900228772999
 10
91.36934417121755
 20
131.6900228772999
  0
CIRCLE
  5
26CB
330
A
100
AcDbEntity
  8
LEVEL001
  6
Continuous
 62
     6
370
    15
100
AcDbCircle
 10
176.3917660673901
 20
160.2072078200099
 30
0.0
 40
0.6
  0
TEXT
  5
26CC
330
A
100
AcDbEntity
  8
LEVEL001
 62
     6
370
    15
100
AcDbText
 10
93.15274957650718
 20
133.4091383992629
 30
0.0
 40
7.5
  1
コーナージョイント
 41
0.8
100
AcDbText
  0
LINE
  5
26CD
330
A
100
AcDbEntity
  8
LEVEL001
  6
Continuous
 62
     6
370
    15
100
AcDbLine
 10
187.9657364643899
 20
127.2364919322699
 30
0.0
 11
265.9657364643899
 21
127.2364919322699
 31
0.0
  0
LINE
  5
26CE
330
A
100
AcDbEntity
  8
LEVEL001
  6
Continuous
 62
     6
370
    15
100
AcDbLine
 10
187.9657364643899
 20
152.96013247221
 30
0.0
 11
187.9657364643899
 21
125.7364919322699
 31
0.0
  0
LINE
  5
26CF
330
A
100
AcDbEntity
  8
LEVEL001
  6
Continuous
 62
     6
370
    15
100
AcDbLine
 10
265.9657364643899
 20
147.0321455655801
 30
0.0
 11
265.9657364643899
 21
125.7364919322699
 31
0.0
  0
CIRCLE
  5
26D0
330
A
100
AcDbEntity
  8
LEVEL001
  6
Continuous
 62
     6
370
    15
100
AcDbCircle
 10
187.9657364643899
 20
127.2364919322699
 30
0.0
 40
0.6
  0
CIRCLE
  5
26D1
330
A
100
AcDbEntity
  8
LEVEL001
  6
Continuous
 62
     6
370
    15
100
AcDbCircle
 10
265.9657364643899
 20
127.2364919322699
 30
0.0
 40
0.6
  0
TEXT
  5
26D2
330
A
100
AcDbEntity
  8
LEVEL001
 62
     6
370
    15
100
AcDbText
 10
217.2157364643899
 20
128.7364919322699
 30
0.0
 40
7.5
  1
１３０
 41
0.8
100
AcDbText
  0
LINE
  5
26D3
330
A
100
AcDbEntity
  8
LEVEL001
  6
Continuous
 62
     6
370
    15
100
AcDbLine
 10
141.3163796335002
 20
179.3601324722099
 30
0.0
 11
141.3163796335002
 21
257.3601324722099
 31
0.0
  0
LINE
  5
26D4
330
A
100
AcDbEntity
  8
LEVEL001
  6
Continuous
 62
     6
370
    15
100
AcDbLine
 10
161.5607470078298
 20
179.3601324722099
 30
0.0
 11
139.8163796335002
 21
179.3601324722099
 31
0.0
  0
LINE
  5
26D5
330
A
100
AcDbEntity
  8
LEVEL001
  6
Continuous
 62
     6
370
    15
100
AcDbLine
 10
161.5607470078298
 20
257.3601324722099
 30
0.0
 11
139.8163796335002
 21
257.3601324722099
 31
0.0
  0
CIRCLE
  5
26D6
330
A
100
AcDbEntity
  8
LEVEL001
  6
Continuous
 62
     6
370
    15
100
AcDbCircle
 10
141.3163796335002
 20
179.3601324722099
 30
0.0
 40
0.6
  0
CIRCLE
  5
26D7
330
A
100
AcDbEntity
  8
LEVEL001
  6
Continuous
 62
     6
370
    15
100
AcDbCircle
 10
141.3163796335002
 20
257.3601324722099
 30
0.0
 40
0.6
  0
TEXT
  5
26D8
330
A
100
AcDbEntity
  8
LEVEL001
 62
     6
370
    15
100
AcDbText
 10
139.8163796335002
 20
208.6101324722099
 30
0.0
 40
7.5
  1
１３０
 50
90.0
 41
0.8
100
AcDbText
  0
HATCH
  5
2C26
330
A
100
AcDbEntity
  8
LEVEL001
  6
Continuous
100
AcDbHatch
 10
0.0
 20
0.0
 30
0.0
210
0.0
220
0.0
230
1.0
  2
SOLID
 70
     1
 71
     1
 91
        9
 92
        7
 72
     1
 73
     1
 93
        6
 10
1032.4500000001
 20
816.2250000000099
 42
0.0
 10
1010.8500000001
 20
816.2250000000099
 42
0.0
 10
1010.8500000001
 20
783.8250000000102
 42
0.0
 10
1021.6500000001
 20
783.8250000000102
 42
0.0
 10
1021.6500000001
 20
789.2250000000099
 42
0.0
 10
1032.4500000001
 20
789.2250000000099
 42
1.0
 97
        3
330
2C37
330
2C27
330
2C36
 92
       22
 72
     1
 73
     1
 93
        4
 10
1032.4500000001
 20
805.4250000000099
 42
-1.0
 10
1032.4500000001
 20
800.0250000000098
 42
0.0
 10
1021.6500000001
 20
800.02500000001
 42
0.0
 10
1021.6500000001
 20
805.4250000000097
 42
0.0
 97
        4
330
2C3A
330
2C39
330
2C38
330
2C3B
 92
        7
 72
     0
 73
     1
 93
        3
 10
1000.0500000001
 20
812.62500000001
 10
986.5500000001302
 20
812.62500000001
 10
1000.0500000001
 20
791.02500000001
 97
        2
330
2C62
330
2C64
 92
        7
 72
     0
 73
     1
 93
        6
 10
997.6500000001301
 20
841.4250000000096
 10
981.4500000001299
 20
841.4250000000096
 10
962.25000000013
 20
812.62500000001
 10
981.4500000001299
 20
783.8250000000102
 10
997.6500000001301
 20
783.8250000000102
 10
978.4500000001299
 20
812.62500000001
 97
        4
330
2C6F
330
2C6E
330
2C71
330
2C70
 92
        7
 72
     0
 73
     1
 93
        6
 10
973.3500000001299
 20
841.4250000000096
 10
957.1500000001302
 20
841.4250000000096
 10
937.9500000001298
 20
812.62500000001
 10
957.1500000001302
 20
783.8250000000102
 10
973.3500000001299
 20
783.8250000000102
 10
954.1500000001301
 20
812.62500000001
 97
        4
330
2C6B
330
2C6A
330
2C6D
330
2C6C
 92
        7
 72
     0
 73
     1
 93
        4
 10
1075.650000000099
 20
816.2250000000099
 10
1059.4500000001
 20
816.2250000000099
 10
1037.8500000001
 20
783.8250000000102
 10
1054.0500000001
 20
783.8250000000102
 97
        2
330
2C2D
330
2C3E
 92
       23
 72
     0
 73
     1
 93
        3
 10
1072.0500000001
 20
804.33500770421
 10
1058.3766615307
 20
783.8250000000102
 10
1072.0500000001
 20
783.8250000000102
 97
        2
330
2C2E
330
2C40
 92
        7
 72
     0
 73
     1
 93
       22
 10
1113.4500000001
 20
805.4250000000097
 10
1124.2500000001
 20
805.4250000000097
 10
1124.2500000001
 20
783.8250000000102
 10
1156.6500000001
 20
783.8250000000102
 10
1156.6500000001
 20
794.62500000001
 10
1135.0500000001
 20
794.62500000001
 10
1135.0500000001
 20
797.3250000000103
 10
1153.9500000001
 20
797.3250000000103
 10
1153.9500000001
 20
802.7250000000099
 10
1135.0500000001
 20
802.7250000000099
 10
1135.0500000001
 20
805.4250000000097
 10
1156.6500000001
 20
805.4250000000097
 10
1156.6500000001
 20
816.2250000000099
 10
1091.8500000001
 20
816.2250000000099
 10
1091.8500000001
 20
805.4250000000097
 10
1102.6500000001
 20
805.4250000000097
 10
1102.6500000001
 20
794.62500000001
 10
1086.4500000001
 20
794.62500000001
 10
1086.4500000001
 20
816.2250000000099
 10
1075.650000000099
 20
816.2250000000099
 10
1075.650000000099
 20
783.8250000000102
 10
1113.4500000001
 20
783.8250000000102
 97
        2
330
2C2D
330
2C55
 92
        7
 72
     1
 73
     1
 93
        8
 10
1189.0500000001
 20
794.62500000001
 42
0.0
 10
1172.8500000001
 20
794.62500000001
 42
-1.0
 10
1172.8500000001
 20
805.4250000000102
 42
0.0
 10
1189.0500000001
 20
805.4250000000097
 42
0.0
 10
1189.0500000001
 20
816.2250000000099
 42
0.0
 10
1172.8500000001
 20
816.2250000000101
 42
1.0
 10
1172.8500000001
 20
783.82500000001
 42
0.0
 10
1189.0500000001
 20
783.8250000000102
 42
0.0
 97
        7
330
2C5B
330
2C5C
330
2C5D
330
2C31
330
2C60
330
2C59
330
2C5A
 75
     1
 76
     1
 47
0.2408704017688261
 98
        9
 10
1025.66378850955
 20
807.7550999487074
 10
1025.66378850955
 20
807.7550999487074
 10
995.9808469814424
 20
807.5552741629207
 10
980.7948427334931
 20
829.4744800874086
 10
955.7258726921073
 20
829.233607391532
 10
1058.65326369965
 20
797.4387144979318
 10
1067.330982808552
 20
789.7308639704087
 10
1089.748425237424
 20
789.7308639704087
 10
1177.971905639678
 20
791.6578232607953
1001
GradientColor1ACI
1070
     5
1001
GradientColor2ACI
1070
     2
1001
ACAD
1010
0.0
1020
0.0
1030
0.0
  0
LWPOLYLINE
  5
2C27
102
{ACAD_REACTORS
330
2C26
102
}
330
A
100
AcDbEntity
  8
LEVEL001
  6
Continuous
 62
     3
100
AcDbPolyline
 90
        6
 70
     0
 43
0.0
 10
1032.4500000001
 20
816.2250000000099
 10
1010.8500000001
 20
816.2250000000099
 10
1010.8500000001
 20
783.8250000000102
 10
1021.6500000001
 20
783.8250000000102
 10
1021.6500000001
 20
789.2250000000099
 10
1032.4500000001
 20
789.2250000000099
  0
ARC
  5
2C28
330
A
100
AcDbEntity
  8
LEVEL001
  6
Continuous
 62
     3
100
AcDbCircle
 10
1032.4500000001
 20
802.7250000000099
 30
0.0
 40
13.5
100
AcDbArc
 50
270.0
 51
90.0
  0
LINE
  5
2C29
330
A
100
AcDbEntity
  8
LEVEL001
  6
Continuous
 62
     3
100
AcDbLine
 10
1021.6500000001
 20
800.02500000001
 30
0.0
 11
1032.4500000001
 21
800.02500000001
 31
0.0
  0
ARC
  5
2C2A
330
A
100
AcDbEntity
  8
LEVEL001
  6
Continuous
 62
     3
100
AcDbCircle
 10
1032.4500000001
 20
802.7250000000099
 30
0.0
 40
2.7
100
AcDbArc
 50
270.0
 51
90.0
  0
LINE
  5
2C2B
330
A
100
AcDbEntity
  8
LEVEL001
  6
Continuous
 62
     3
100
AcDbLine
 10
1032.4500000001
 20
805.4250000000097
 30
0.0
 11
1021.6500000001
 21
805.4250000000097
 31
0.0
  0
LINE
  5
2C2C
330
A
100
AcDbEntity
  8
LEVEL001
  6
Continuous
 62
     3
100
AcDbLine
 10
1021.6500000001
 20
805.4250000000097
 30
0.0
 11
1021.6500000001
 21
800.02500000001
 31
0.0
  0
LWPOLYLINE
  5
2C2D
102
{ACAD_REACTORS
330
2C26
102
}
330
A
100
AcDbEntity
  8
LEVEL001
  6
Continuous
 62
     3
100
AcDbPolyline
 90
       26
 70
     0
 43
0.0
 10
1037.8500000001
 20
783.8250000000102
 10
1059.4500000001
 20
816.2250000000099
 10
1086.4500000001
 20
816.2250000000099
 10
1086.4500000001
 20
794.62500000001
 10
1102.6500000001
 20
794.62500000001
 10
1102.6500000001
 20
805.4250000000097
 10
1091.8500000001
 20
805.4250000000097
 10
1091.8500000001
 20
816.2250000000099
 10
1156.6500000001
 20
816.2250000000099
 10
1156.6500000001
 20
805.4250000000097
 10
1135.0500000001
 20
805.4250000000097
 10
1135.0500000001
 20
802.7250000000099
 10
1153.9500000001
 20
802.7250000000099
 10
1153.9500000001
 20
797.3250000000103
 10
1135.0500000001
 20
797.3250000000103
 10
1135.0500000001
 20
794.62500000001
 10
1156.6500000001
 20
794.62500000001
 10
1156.6500000001
 20
783.8250000000102
 10
1124.2500000001
 20
783.8250000000102
 10
1124.2500000001
 20
805.4250000000097
 10
1113.4500000001
 20
805.4250000000097
 10
1113.4500000001
 20
783.8250000000102
 10
1075.650000000099
 20
783.8250000000102
 10
1075.650000000099
 20
816.2250000000099
 10
1054.0500000001
 20
783.8250000000102
 10
1037.8500000001
 20
783.8250000000102
  0
LWPOLYLINE
  5
2C2E
102
{ACAD_REACTORS
330
2C26
102
}
330
A
100
AcDbEntity
  8
LEVEL001
  6
Continuous
 62
     3
100
AcDbPolyline
 90
        4
 70
     0
 43
0.0
 10
1072.0500000001
 20
804.33500770421
 10
1058.3766615307
 20
783.8250000000102
 10
1072.0500000001
 20
783.8250000000102
 10
1072.0500000001
 20
804.33500770421
  0
ARC
  5
2C2F
330
A
100
AcDbEntity
  8
LEVEL001
  6
Continuous
 62
     3
100
AcDbCircle
 10
1172.8500000001
 20
800.02500000001
 30
0.0
 40
16.2
100
AcDbArc
 50
90.0
 51
270.0
  0
ARC
  5
2C30
330
A
100
AcDbEntity
  8
LEVEL001
  6
Continuous
 62
     3
100
AcDbCircle
 10
1172.8500000001
 20
800.02500000001
 30
0.0
 40
5.4
100
AcDbArc
 50
90.0
 51
270.0
  0
LWPOLYLINE
  5
2C31
102
{ACAD_REACTORS
330
2C26
102
}
330
A
100
AcDbEntity
  8
LEVEL001
  6
Continuous
 62
     3
100
AcDbPolyline
 90
        4
 70
     0
 43
0.0
 10
1172.8500000001
 20
816.2250000000099
 10
1189.0500000001
 20
816.2250000000099
 10
1189.0500000001
 20
805.4250000000097
 10
1172.8500000001
 20
805.4250000000097
  0
LINE
  5
2C32
330
A
100
AcDbEntity
  8
LEVEL001
  6
Continuous
 62
     3
100
AcDbLine
 10
1010.8500000001
 20
816.2250000000099
 30
0.0
 11
1010.8500000001
 21
783.8250000000102
 31
0.0
  0
LINE
  5
2C33
330
A
100
AcDbEntity
  8
LEVEL001
  6
Continuous
 62
     3
100
AcDbLine
 10
1010.8500000001
 20
783.8250000000102
 30
0.0
 11
1021.6500000001
 21
783.8250000000102
 31
0.0
  0
LINE
  5
2C34
330
A
100
AcDbEntity
  8
LEVEL001
  6
Continuous
 62
     3
100
AcDbLine
 10
1021.6500000001
 20
783.8250000000102
 30
0.0
 11
1021.6500000001
 21
789.2250000000099
 31
0.0
  0
LINE
  5
2C35
330
A
100
AcDbEntity
  8
LEVEL001
  6
Continuous
 62
     3
100
AcDbLine
 10
1021.6500000001
 20
789.2250000000099
 30
0.0
 11
1032.4500000001
 21
789.2250000000099
 31
0.0
  0
ARC
  5
2C36
102
{ACAD_REACTORS
330
2C26
102
}
330
A
100
AcDbEntity
  8
LEVEL001
  6
Continuous
 62
     3
100
AcDbCircle
 10
1032.4500000001
 20
802.7250000000099
 30
0.0
 40
13.5
100
AcDbArc
 50
270.0
 51
90.0
  0
LINE
  5
2C37
102
{ACAD_REACTORS
330
2C26
102
}
330
A
100
AcDbEntity
  8
LEVEL001
  6
Continuous
 62
     3
100
AcDbLine
 10
1032.4500000001
 20
816.2250000000099
 30
0.0
 11
1010.8500000001
 21
816.2250000000099
 31
0.0
  0
LINE
  5
2C38
102
{ACAD_REACTORS
330
2C26
102
}
330
A
100
AcDbEntity
  8
LEVEL001
  6
Continuous
 62
     3
100
AcDbLine
 10
1021.6500000001
 20
805.4250000000097
 30
0.0
 11
1021.6500000001
 21
800.02500000001
 31
0.0
  0
LINE
  5
2C39
102
{ACAD_REACTORS
330
2C26
102
}
330
A
100
AcDbEntity
  8
LEVEL001
  6
Continuous
 62
     3
100
AcDbLine
 10
1021.6500000001
 20
800.02500000001
 30
0.0
 11
1032.4500000001
 21
800.02500000001
 31
0.0
  0
ARC
  5
2C3A
102
{ACAD_REACTORS
330
2C26
102
}
330
A
100
AcDbEntity
  8
LEVEL001
  6
Continuous
 62
     3
100
AcDbCircle
 10
1032.4500000001
 20
802.7250000000099
 30
0.0
 40
2.7
100
AcDbArc
 50
270.0
 51
90.0
  0
LINE
  5
2C3B
102
{ACAD_REACTORS
330
2C26
102
}
330
A
100
AcDbEntity
  8
LEVEL001
  6
Continuous
 62
     3
100
AcDbLine
 10
1032.4500000001
 20
805.4250000000097
 30
0.0
 11
1021.6500000001
 21
805.4250000000097
 31
0.0
  0
LINE
  5
2C3C
330
A
100
AcDbEntity
  8
LEVEL001
  6
Continuous
 62
     3
100
AcDbLine
 10
1059.4500000001
 20
816.2250000000099
 30
0.0
 11
1037.8500000001
 21
783.8250000000102
 31
0.0
  0
LINE
  5
2C3D
330
A
100
AcDbEntity
  8
LEVEL001
  6
Continuous
 62
     3
100
AcDbLine
 10
1037.8500000001
 20
783.8250000000102
 30
0.0
 11
1054.0500000001
 21
783.8250000000102
 31
0.0
  0
LINE
  5
2C3E
102
{ACAD_REACTORS
330
2C26
102
}
330
A
100
AcDbEntity
  8
LEVEL001
  6
Continuous
 62
     3
100
AcDbLine
 10
1054.0500000001
 20
783.8250000000102
 30
0.0
 11
1075.650000000099
 21
816.2250000000099
 31
0.0
  0
LINE
  5
2C3F
330
A
100
AcDbEntity
  8
LEVEL001
  6
Continuous
 62
     3
100
AcDbLine
 10
1075.650000000099
 20
816.2250000000099
 30
0.0
 11
1059.4500000001
 21
816.2250000000099
 31
0.0
  0
LINE
  5
2C40
102
{ACAD_REACTORS
330
2C26
102
}
330
A
100
AcDbEntity
  8
LEVEL001
  6
Continuous
 62
     3
100
AcDbLine
 10
1072.0500000001
 20
783.8250000000102
 30
0.0
 11
1072.0500000001
 21
804.33500770421
 31
0.0
  0
LINE
  5
2C41
330
A
100
AcDbEntity
  8
LEVEL001
  6
Continuous
 62
     3
100
AcDbLine
 10
1072.0500000001
 20
804.33500770421
 30
0.0
 11
1058.3766615307
 21
783.8250000000102
 31
0.0
  0
LINE
  5
2C42
330
A
100
AcDbEntity
  8
LEVEL001
  6
Continuous
 62
     3
100
AcDbLine
 10
1058.3766615307
 20
783.8250000000102
 30
0.0
 11
1072.0500000001
 21
783.8250000000102
 31
0.0
  0
LINE
  5
2C43
330
A
100
AcDbEntity
  8
LEVEL001
  6
Continuous
 62
     3
100
AcDbLine
 10
1075.650000000099
 20
783.8250000000102
 30
0.0
 11
1113.4500000001
 21
783.8250000000102
 31
0.0
  0
LINE
  5
2C44
330
A
100
AcDbEntity
  8
LEVEL001
  6
Continuous
 62
     3
100
AcDbLine
 10
1113.4500000001
 20
783.8250000000102
 30
0.0
 11
1113.4500000001
 21
805.4250000000097
 31
0.0
  0
LINE
  5
2C45
330
A
100
AcDbEntity
  8
LEVEL001
  6
Continuous
 62
     3
100
AcDbLine
 10
1113.4500000001
 20
805.4250000000097
 30
0.0
 11
1124.2500000001
 21
805.4250000000097
 31
0.0
  0
LINE
  5
2C46
330
A
100
AcDbEntity
  8
LEVEL001
  6
Continuous
 62
     3
100
AcDbLine
 10
1124.2500000001
 20
805.4250000000097
 30
0.0
 11
1124.2500000001
 21
783.8250000000102
 31
0.0
  0
LINE
  5
2C47
330
A
100
AcDbEntity
  8
LEVEL001
  6
Continuous
 62
     3
100
AcDbLine
 10
1124.2500000001
 20
783.8250000000102
 30
0.0
 11
1156.6500000001
 21
783.8250000000102
 31
0.0
  0
LINE
  5
2C48
330
A
100
AcDbEntity
  8
LEVEL001
  6
Continuous
 62
     3
100
AcDbLine
 10
1156.6500000001
 20
783.8250000000102
 30
0.0
 11
1156.6500000001
 21
794.62500000001
 31
0.0
  0
LINE
  5
2C49
330
A
100
AcDbEntity
  8
LEVEL001
  6
Continuous
 62
     3
100
AcDbLine
 10
1156.6500000001
 20
794.62500000001
 30
0.0
 11
1135.0500000001
 21
794.62500000001
 31
0.0
  0
LINE
  5
2C4A
330
A
100
AcDbEntity
  8
LEVEL001
  6
Continuous
 62
     3
100
AcDbLine
 10
1135.0500000001
 20
794.62500000001
 30
0.0
 11
1135.0500000001
 21
797.3250000000103
 31
0.0
  0
LINE
  5
2C4B
330
A
100
AcDbEntity
  8
LEVEL001
  6
Continuous
 62
     3
100
AcDbLine
 10
1135.0500000001
 20
797.3250000000103
 30
0.0
 11
1153.9500000001
 21
797.3250000000103
 31
0.0
  0
LINE
  5
2C4C
330
A
100
AcDbEntity
  8
LEVEL001
  6
Continuous
 62
     3
100
AcDbLine
 10
1153.9500000001
 20
797.3250000000103
 30
0.0
 11
1153.9500000001
 21
802.7250000000099
 31
0.0
  0
LINE
  5
2C4D
330
A
100
AcDbEntity
  8
LEVEL001
  6
Continuous
 62
     3
100
AcDbLine
 10
1153.9500000001
 20
802.7250000000099
 30
0.0
 11
1135.0500000001
 21
802.7250000000099
 31
0.0
  0
LINE
  5
2C4E
330
A
100
AcDbEntity
  8
LEVEL001
  6
Continuous
 62
     3
100
AcDbLine
 10
1135.0500000001
 20
802.7250000000099
 30
0.0
 11
1135.0500000001
 21
805.4250000000097
 31
0.0
  0
LINE
  5
2C4F
330
A
100
AcDbEntity
  8
LEVEL001
  6
Continuous
 62
     3
100
AcDbLine
 10
1135.0500000001
 20
805.4250000000097
 30
0.0
 11
1156.6500000001
 21
805.4250000000097
 31
0.0
  0
LINE
  5
2C50
330
A
100
AcDbEntity
  8
LEVEL001
  6
Continuous
 62
     3
100
AcDbLine
 10
1156.6500000001
 20
805.4250000000097
 30
0.0
 11
1156.6500000001
 21
816.2250000000099
 31
0.0
  0
LINE
  5
2C51
330
A
100
AcDbEntity
  8
LEVEL001
  6
Continuous
 62
     3
100
AcDbLine
 10
1156.6500000001
 20
816.2250000000099
 30
0.0
 11
1091.8500000001
 21
816.2250000000099
 31
0.0
  0
LINE
  5
2C52
330
A
100
AcDbEntity
  8
LEVEL001
  6
Continuous
 62
     3
100
AcDbLine
 10
1091.8500000001
 20
816.2250000000099
 30
0.0
 11
1091.8500000001
 21
805.4250000000097
 31
0.0
  0
LINE
  5
2C53
330
A
100
AcDbEntity
  8
LEVEL001
  6
Continuous
 62
     3
100
AcDbLine
 10
1091.8500000001
 20
805.4250000000097
 30
0.0
 11
1102.6500000001
 21
805.4250000000097
 31
0.0
  0
LINE
  5
2C54
330
A
100
AcDbEntity
  8
LEVEL001
  6
Continuous
 62
     3
100
AcDbLine
 10
1102.6500000001
 20
805.4250000000097
 30
0.0
 11
1102.6500000001
 21
794.62500000001
 31
0.0
  0
LINE
  5
2C55
102
{ACAD_REACTORS
330
2C26
102
}
330
A
100
AcDbEntity
  8
LEVEL001
  6
Continuous
 62
     3
100
AcDbLine
 10
1102.6500000001
 20
794.62500000001
 30
0.0
 11
1086.4500000001
 21
794.62500000001
 31
0.0
  0
LINE
  5
2C56
330
A
100
AcDbEntity
  8
LEVEL001
  6
Continuous
 62
     3
100
AcDbLine
 10
1086.4500000001
 20
794.62500000001
 30
0.0
 11
1086.4500000001
 21
816.2250000000099
 31
0.0
  0
LINE
  5
2C57
330
A
100
AcDbEntity
  8
LEVEL001
  6
Continuous
 62
     3
100
AcDbLine
 10
1086.4500000001
 20
816.2250000000099
 30
0.0
 11
1075.650000000099
 21
816.2250000000099
 31
0.0
  0
LINE
  5
2C58
330
A
100
AcDbEntity
  8
LEVEL001
  6
Continuous
 62
     3
100
AcDbLine
 10
1075.650000000099
 20
816.2250000000099
 30
0.0
 11
1075.650000000099
 21
783.8250000000102
 31
0.0
  0
LINE
  5
2C59
102
{ACAD_REACTORS
330
2C26
102
}
330
A
100
AcDbEntity
  8
LEVEL001
  6
Continuous
 62
     3
100
AcDbLine
 10
1172.8500000001
 20
783.8250000000102
 30
0.0
 11
1189.0500000001
 21
783.8250000000102
 31
0.0
  0
LINE
  5
2C5A
102
{ACAD_REACTORS
330
2C26
102
}
330
A
100
AcDbEntity
  8
LEVEL001
  6
Continuous
 62
     3
100
AcDbLine
 10
1189.0500000001
 20
783.8250000000102
 30
0.0
 11
1189.0500000001
 21
794.62500000001
 31
0.0
  0
LINE
  5
2C5B
102
{ACAD_REACTORS
330
2C26
102
}
330
A
100
AcDbEntity
  8
LEVEL001
  6
Continuous
 62
     3
100
AcDbLine
 10
1189.0500000001
 20
794.62500000001
 30
0.0
 11
1172.8500000001
 21
794.62500000001
 31
0.0
  0
ARC
  5
2C5C
102
{ACAD_REACTORS
330
2C26
102
}
330
A
100
AcDbEntity
  8
LEVEL001
  6
Continuous
 62
     3
100
AcDbCircle
 10
1172.8500000001
 20
800.02500000001
 30
0.0
 40
5.4
100
AcDbArc
 50
90.0
 51
270.0
  0
LINE
  5
2C5D
102
{ACAD_REACTORS
330
2C26
102
}
330
A
100
AcDbEntity
  8
LEVEL001
  6
Continuous
 62
     3
100
AcDbLine
 10
1172.8500000001
 20
805.4250000000097
 30
0.0
 11
1189.0500000001
 21
805.4250000000097
 31
0.0
  0
LINE
  5
2C5E
330
A
100
AcDbEntity
  8
LEVEL001
  6
Continuous
 62
     3
100
AcDbLine
 10
1189.0500000001
 20
805.4250000000097
 30
0.0
 11
1189.0500000001
 21
816.2250000000099
 31
0.0
  0
LINE
  5
2C5F
330
A
100
AcDbEntity
  8
LEVEL001
  6
Continuous
 62
     3
100
AcDbLine
 10
1189.0500000001
 20
816.2250000000099
 30
0.0
 11
1172.8500000001
 21
816.2250000000099
 31
0.0
  0
ARC
  5
2C60
102
{ACAD_REACTORS
330
2C26
102
}
330
A
100
AcDbEntity
  8
LEVEL001
  6
Continuous
 62
     3
100
AcDbCircle
 10
1172.8500000001
 20
800.02500000001
 30
0.0
 40
16.2
100
AcDbArc
 50
90.0
 51
270.0
  0
TEXT
  5
2C61
330
A
100
AcDbEntity
  8
LEVEL001
 62
     3
100
AcDbText
 10
1010.8500000001
 20
821.6250000000099
 30
0.0
 40
11.25
  1
ケージーパルテック株式会社
 41
0.8
100
AcDbText
  0
LWPOLYLINE
  5
2C62
102
{ACAD_REACTORS
330
2C26
102
}
330
A
100
AcDbEntity
  8
LEVEL001
  6
Continuous
 62
     3
100
AcDbPolyline
 90
        4
 70
     0
 43
0.0
 10
1000.0500000001
 20
791.02500000001
 10
986.5500000001302
 20
812.62500000001
 10
1000.0500000001
 20
812.62500000001
 10
1000.0500000001
 20
791.02500000001
  0
LINE
  5
2C63
330
A
100
AcDbEntity
  8
LEVEL001
  6
Continuous
 62
     3
100
AcDbLine
 10
986.5500000001302
 20
812.62500000001
 30
0.0
 11
1000.0500000001
 21
791.02500000001
 31
0.0
  0
LINE
  5
2C64
102
{ACAD_REACTORS
330
2C26
102
}
330
A
100
AcDbEntity
  8
LEVEL001
  6
Continuous
 62
     3
100
AcDbLine
 10
1000.0500000001
 20
791.02500000001
 30
0.0
 11
1000.0500000001
 21
812.62500000001
 31
0.0
  0
LINE
  5
2C65
330
A
100
AcDbEntity
  8
LEVEL001
  6
Continuous
 62
     3
100
AcDbLine
 10
1000.0500000001
 20
812.62500000001
 30
0.0
 11
986.5500000001302
 21
812.62500000001
 31
0.0
  0
LWPOLYLINE
  5
2C66
330
A
100
AcDbEntity
  8
LEVEL001
  6
Continuous
 62
     3
100
AcDbPolyline
 90
        3
 70
     0
 43
0.0
 10
957.1500000001302
 20
841.4250000000096
 10
937.9500000001298
 20
812.62500000001
 10
957.1500000001302
 20
783.8250000000102
  0
LWPOLYLINE
  5
2C67
330
A
100
AcDbEntity
  8
LEVEL001
  6
Continuous
 62
     3
100
AcDbPolyline
 90
        3
 70
     0
 43
0.0
 10
973.3500000001299
 20
783.8250000000102
 10
954.1500000001301
 20
812.62500000001
 10
973.3500000001299
 20
841.4250000000096
  0
LWPOLYLINE
  5
2C68
330
A
100
AcDbEntity
  8
LEVEL001
  6
Continuous
 62
     3
100
AcDbPolyline
 90
        3
 70
     0
 43
0.0
 10
981.4500000001299
 20
841.4250000000096
 10
962.25000000013
 20
812.62500000001
 10
981.4500000001299
 20
783.8250000000102
  0
LWPOLYLINE
  5
2C69
330
A
100
AcDbEntity
  8
LEVEL001
  6
Continuous
 62
     3
100
AcDbPolyline
 90
        3
 70
     0
 43
0.0
 10
997.6500000001301
 20
783.8250000000102
 10
978.4500000001299
 20
812.62500000001
 10
997.6500000001301
 20
841.4250000000096
  0
LWPOLYLINE
  5
2C6A
102
{ACAD_REACTORS
330
2C26
102
}
330
A
100
AcDbEntity
  8
LEVEL001
  6
Continuous
 62
     3
100
AcDbPolyline
 90
        3
 70
     0
 43
0.0
 10
957.1500000001302
 20
783.8250000000102
 10
937.9500000001298
 20
812.62500000001
 10
957.1500000001302
 20
841.4250000000096
  0
LINE
  5
2C6B
102
{ACAD_REACTORS
330
2C26
102
}
330
A
100
AcDbEntity
  8
LEVEL001
  6
Continuous
 62
     3
100
AcDbLine
 10
957.1500000001302
 20
841.4250000000096
 30
0.0
 11
973.3500000001299
 21
841.4250000000096
 31
0.0
  0
LWPOLYLINE
  5
2C6C
102
{ACAD_REACTORS
330
2C26
102
}
330
A
100
AcDbEntity
  8
LEVEL001
  6
Continuous
 62
     3
100
AcDbPolyline
 90
        3
 70
     0
 43
0.0
 10
973.3500000001299
 20
841.4250000000096
 10
954.1500000001301
 20
812.62500000001
 10
973.3500000001299
 20
783.8250000000102
  0
LINE
  5
2C6D
102
{ACAD_REACTORS
330
2C26
102
}
330
A
100
AcDbEntity
  8
LEVEL001
  6
Continuous
 62
     3
100
AcDbLine
 10
973.3500000001299
 20
783.8250000000102
 30
0.0
 11
957.1500000001302
 21
783.8250000000102
 31
0.0
  0
LWPOLYLINE
  5
2C6E
102
{ACAD_REACTORS
330
2C26
102
}
330
A
100
AcDbEntity
  8
LEVEL001
  6
Continuous
 62
     3
100
AcDbPolyline
 90
        3
 70
     0
 43
0.0
 10
981.4500000001299
 20
783.8250000000102
 10
962.25000000013
 20
812.62500000001
 10
981.4500000001299
 20
841.4250000000096
  0
LINE
  5
2C6F
102
{ACAD_REACTORS
330
2C26
102
}
330
A
100
AcDbEntity
  8
LEVEL001
  6
Continuous
 62
     3
100
AcDbLine
 10
981.4500000001299
 20
841.4250000000096
 30
0.0
 11
997.6500000001301
 21
841.4250000000096
 31
0.0
  0
LWPOLYLINE
  5
2C70
102
{ACAD_REACTORS
330
2C26
102
}
330
A
100
AcDbEntity
  8
LEVEL001
  6
Continuous
 62
     3
100
AcDbPolyline
 90
        3
 70
     0
 43
0.0
 10
997.6500000001301
 20
841.4250000000096
 10
978.4500000001299
 20
812.62500000001
 10
997.6500000001301
 20
783.8250000000102
  0
LINE
  5
2C71
102
{ACAD_REACTORS
330
2C26
102
}
330
A
100
AcDbEntity
  8
LEVEL001
  6
Continuous
 62
     3
100
AcDbLine
 10
997.6500000001301
 20
783.8250000000102
 30
0.0
 11
981.4500000001299
 21
783.8250000000102
 31
0.0
  0
ENDSEC
  0
SECTION
  2
OBJECTS
  0
DICTIONARY
  5
3F
330
0
100
AcDbDictionary
281
     1
  3
ACAD_CIP_PREVIOUS_PRODUCT_INFO
350
2AA5
  3
ACAD_COLOR
350
D45
  3
ACAD_GROUP
350
40
  3
ACAD_LAYOUT
350
D48
  3
ACAD_MATERIAL
350
D44
  3
ACAD_MLEADERSTYLE
350
2AA0
  3
ACAD_MLINESTYLE
350
41
  3
ACAD_PLOTSETTINGS
350
D49
  3
ACAD_PLOTSTYLENAME
350
D42
  3
ACAD_SCALELIST
350
2A8E
  3
ACAD_TABLESTYLE
350
D46
  3
ACAD_VISUALSTYLE
350
2A75
  3
ACDB_RECOMPOSE_DATA
350
2C8F
  3
AcDbVariableDictionary
350
D63
  3
DWGPROPS
350
2C90
  0
DICTIONARY
  5
1746
330
6A
100
AcDbDictionary
280
     1
281
     1
  3
ACAD_LAYERSTATES
360
1747
  0
DICTIONARY
  5
2C72
330
38
100
AcDbDictionary
280
     1
281
     1
  3
ADSK_XREC_LAYER_RECONCILED
360
2C73
  0
DICTIONARY
  5
2C74
330
39
100
AcDbDictionary
280
     1
281
     1
  3
ADSK_XREC_LAYER_RECONCILED
360
2C75
  0
DICTIONARY
  5
2C76
330
3A
100
AcDbDictionary
280
     1
281
     1
  3
ADSK_XREC_LAYER_RECONCILED
360
2C77
  0
DICTIONARY
  5
2C78
330
3B
100
AcDbDictionary
280
     1
281
     1
  3
ADSK_XREC_LAYER_RECONCILED
360
2C79
  0
DICTIONARY
  5
2C7A
330
3C
100
AcDbDictionary
280
     1
281
     1
  3
ADSK_XREC_LAYER_RECONCILED
360
2C7B
  0
DICTIONARY
  5
2C7C
330
3D
100
AcDbDictionary
280
     1
281
     1
  3
ADSK_XREC_LAYER_RECONCILED
360
2C7D
  0
DICTIONARY
  5
173E
330
173D
100
AcDbDictionary
280
     1
281
     1
  3
ADSK_XREC_LAYER_RECONCILED
360
173F
  0
DICTIONARY
  5
1741
330
1740
100
AcDbDictionary
280
     1
281
     1
  3
ADSK_XREC_LAYER_RECONCILED
360
1742
  0
DICTIONARY
  5
1744
330
1743
100
AcDbDictionary
280
     1
281
     1
  3
ADSK_XREC_LAYER_RECONCILED
360
1745
  0
DICTIONARY
  5
D5B
330
A
100
AcDbDictionary
280
     1
281
     1
  3
ACAD_SORTENTS
360
D5C
  0
XRECORD
  5
2AA5
102
{ACAD_REACTORS
330
3F
102
}
330
3F
100
AcDbXrecord
280
     1
300
ACDLT
300
2012
300
ACDLT_F_S
  0
DICTIONARY
  5
D45
102
{ACAD_REACTORS
330
3F
102
}
330
3F
100
AcDbDictionary
281
     1
  0
DICTIONARY
  5
40
102
{ACAD_REACTORS
330
3F
102
}
330
0
100
AcDbDictionary
281
     1
  0
DICTIONARY
  5
D48
102
{ACAD_REACTORS
330
3F
102
}
330
3F
100
AcDbDictionary
281
     1
  3
Model
350
D4A
  3
レイアウト1
350
D4B
  0
DICTIONARY
  5
D44
102
{ACAD_REACTORS
330
3F
102
}
330
3F
100
AcDbDictionary
281
     1
  3
ByBlock
350
2A65
  3
ByLayer
350
2A5D
  3
Global
350
2A6D
  0
DICTIONARY
  5
2AA0
102
{ACAD_REACTORS
330
3F
102
}
330
3F
100
AcDbDictionary
281
     1
  3
Standard
350
2AA1
  0
DICTIONARY
  5
41
102
{ACAD_REACTORS
330
3F
102
}
330
0
100
AcDbDictionary
281
     1
  3
STANDARD
350
42
  0
DICTIONARY
  5
D49
102
{ACAD_REACTORS
330
3F
102
}
330
3F
100
AcDbDictionary
281
     1
  0
ACDBDICTIONARYWDFLT
  5
D42
102
{ACAD_REACTORS
330
3F
102
}
330
3F
100
AcDbDictionary
281
     1
  3
Normal
350
D43
100
AcDbDictionaryWithDefault
340
D43
  0
DICTIONARY
  5
2A8E
102
{ACAD_REACTORS
330
3F
102
}
330
3F
100
AcDbDictionary
281
     1
  3
A0
350
2A8F
  3
A1
350
2A90
  3
A2
350
2A91
  3
A3
350
2A92
  3
A4
350
2A93
  3
A5
350
2A94
  3
A6
350
2A95
  3
A7
350
2A96
  3
A8
350
2A97
  3
A9
350
2A98
  3
B0
350
2A99
  3
B1
350
2A9A
  3
B2
350
2A9B
  3
B3
350
2A9C
  3
B4
350
2A9D
  3
B5
350
2A9E
  3
B6
350
2A9F
  0
DICTIONARY
  5
D46
102
{ACAD_REACTORS
330
3F
102
}
330
3F
100
AcDbDictionary
281
     1
  3
Standard
350
D47
  0
DICTIONARY
  5
2A75
102
{ACAD_REACTORS
330
3F
102
}
330
3F
100
AcDbDictionary
281
     1
  3
2dWireframe
350
2A7B
  3
Basic
350
2A7A
  3
Brighten
350
2A81
  3
ColorChange
350
2A85
  3
Conceptual
350
2A7E
  3
Dim
350
2A80
  3
EdgeColorOff
350
2A8D
  3
Facepattern
350
2A84
  3
Flat
350
2A76
  3
FlatWithEdges
350
2A77
  3
Gouraud
350
2A78
  3
GouraudWithEdges
350
2A79
  3
Hidden
350
2A7D
  3
JitterOff
350
2A8B
  3
Linepattern
350
2A83
  3
OverhangOff
350
2A8C
  3
Realistic
350
2A7F
  3
Shaded
350
2A8A
  3
Shaded with edges
350
2A89
  3
Shades of Gray
350
2A86
  3
Sketchy
350
2A87
  3
Thicken
350
2A82
  3
Wireframe
350
2A7C
  3
X-Ray
350
2A88
  0
XRECORD
  5
2C8F
102
{ACAD_REACTORS
330
3F
102
}
330
3F
100
AcDbXrecord
280
     1
 90
        1
330
D47
  0
DICTIONARY
  5
D63
102
{ACAD_REACTORS
330
3F
102
}
330
3F
100
AcDbDictionary
281
     1
  3
CANNOSCALE
350
2C87
  3
CMLEADERSTYLE
350
2C86
  3
CTABLESTYLE
350
D64
  3
DIMASSOC
350
D65
  3
INDEXCTL
350
2C89
  3
PROJECTNAME
350
D66
  3
SORTENTS
350
2C88
  3
XCLIPFRAME
350
2C8A
  0
XRECORD
  5
2C90
102
{ACAD_REACTORS
330
3F
102
}
330
3F
100
AcDbXrecord
280
     1
  1
DWGPROPS COOKIE
  2

  3

  4

  6

  7

  8
kg-paltec
  9

300
=
301
=
302
=
303
=
304
=
305
=
306
=
307
=
308
=
309
=
 40
0.0587031597222222
 41
2451212.682759178
 42
2458321.587524005
  1

 90
        0
  0
DICTIONARY
  5
1747
102
{ACAD_REACTORS
330
1746
102
}
330
1746
100
AcDbDictionary
281
     1
  0
XRECORD
  5
2C73
102
{ACAD_REACTORS
330
2C72
102
}
330
2C72
100
AcDbXrecord
280
     1
290
     1
  0
XRECORD
  5
2C75
102
{ACAD_REACTORS
330
2C74
102
}
330
2C74
100
AcDbXrecord
280
     1
290
     1
  0
XRECORD
  5
2C77
102
{ACAD_REACTORS
330
2C76
102
}
330
2C76
100
AcDbXrecord
280
     1
290
     1
  0
XRECORD
  5
2C79
102
{ACAD_REACTORS
330
2C78
102
}
330
2C78
100
AcDbXrecord
280
     1
290
     1
  0
XRECORD
  5
2C7B
102
{ACAD_REACTORS
330
2C7A
102
}
330
2C7A
100
AcDbXrecord
280
     1
290
     1
  0
XRECORD
  5
2C7D
102
{ACAD_REACTORS
330
2C7C
102
}
330
2C7C
100
AcDbXrecord
280
     1
290
     1
  0
XRECORD
  5
173F
102
{ACAD_REACTORS
330
173E
102
}
330
173E
100
AcDbXrecord
280
     1
290
     1
  0
XRECORD
  5
1742
102
{ACAD_REACTORS
330
1741
102
}
330
1741
100
AcDbXrecord
280
     1
290
     1
  0
XRECORD
  5
1745
102
{ACAD_REACTORS
330
1744
102
}
330
1744
100
AcDbXrecord
280
     1
290
     1
  0
SORTENTSTABLE
  5
D5C
102
{ACAD_REACTORS
330
D5B
102
}
330
D5B
100
AcDbSortentsTable
330
A
331
221B
  5
2230
331
21DE
  5
21F3
331
2137
  5
2142
331
266A
  5
267F
331
22FF
  5
2314
331
2306
  5
231B
331
22C9
  5
22DE
331
2294
  5
22A9
331
2257
  5
226C
331
2201
  5
2216
331
21C4
  5
21D9
331
26CA
  5
26DF
331
268D
  5
26A2
331
2124
  5
212F
331
2321
  5
2336
331
22EC
  5
2301
331
22AF
  5
22C4
331
227A
  5
228F
331
223D
  5
2252
331
246
  5
246
331
2224
  5
2239
331
21E7
  5
21FC
331
26B0
  5
26C5
331
2673
  5
2688
331
21B1
  5
21C6
331
230F
  5
2324
331
22D2
  5
22E7
331
229D
  5
22B2
331
2260
  5
2275
331
222A
  5
223F
331
220A
  5
221F
331
21CD
  5
21E2
331
26D3
  5
26E8
331
2211
  5
2226
331
21D4
  5
21E9
331
212D
  5
2138
331
2660
  5
2675
331
232A
  5
233F
331
22F5
  5
230A
331
22B8
  5
22CD
331
2283
  5
2298
331
2246
  5
225B
331
228A
  5
229F
331
224D
  5
2262
331
24F
  5
24F
331
26B9
  5
26CE
331
267C
  5
2691
331
21F7
  5
220C
331
21BA
  5
21CF
331
26C0
  5
26D5
331
2683
  5
2698
331
22DB
  5
22F0
331
22E2
  5
22F7
331
22A5
  5
22BA
331
2270
  5
2285
331
2233
  5
2248
331
221A
  5
222F
331
21DD
  5
21F2
331
2136
  5
2141
331
2669
  5
267E
331
22FE
  5
2313
331
2305
  5
231A
331
22C8
  5
22DD
331
2293
  5
22A8
331
2256
  5
226B
331
2200
  5
2215
331
21C3
  5
21D8
331
26C9
  5
26DE
331
268C
  5
26A1
331
2123
  5
212E
331
2320
  5
2335
331
22EB
  5
2300
331
22AE
  5
22C3
331
2279
  5
228E
331
223C
  5
2251
331
2223
  5
2238
331
21E6
  5
21FB
331
26AF
  5
26C4
331
2672
  5
2687
331
21B0
  5
21C5
331
230E
  5
2323
331
22D1
  5
22E6
331
229C
  5
22B1
331
225F
  5
2274
331
2229
  5
223E
331
2209
  5
221E
331
21CC
  5
21E1
331
26D2
  5
26E7
331
2210
  5
2225
331
21D3
  5
21E8
331
212C
  5
2137
331
2329
  5
233E
331
22F4
  5
2309
331
22B7
  5
22CC
331
2282
  5
2297
331
2245
  5
225A
331
2289
  5
229E
331
224C
  5
2261
331
21EF
  5
2204
331
26B8
  5
26CD
331
267B
  5
2690
331
21F6
  5
220B
331
21B9
  5
21CE
331
2682
  5
2697
331
2317
  5
232C
331
22DA
  5
22EF
331
22E1
  5
22F6
331
22A4
  5
22B9
331
226F
  5
2284
331
2232
  5
2247
331
2219
  5
222E
331
21DC
  5
21F1
331
2135
  5
2140
331
2668
  5
267D
331
22FD
  5
2312
331
2304
  5
2319
331
22C7
  5
22DC
331
2292
  5
22A7
331
2255
  5
226A
331
21FF
  5
2214
331
21C2
  5
21D7
331
26C8
  5
26DD
331
268B
  5
26A0
331
2122
  5
212D
331
231F
  5
2334
331
22EA
  5
22FF
331
22AD
  5
22C2
331
2278
  5
228D
331
223B
  5
2250
331
2222
  5
2237
331
21E5
  5
21FA
331
26AE
  5
26C3
331
2671
  5
2686
331
230D
  5
2322
331
22D0
  5
22E5
331
229B
  5
22B0
331
225E
  5
2273
331
2228
  5
223D
331
2208
  5
221D
331
21CB
  5
21E0
331
26D1
  5
26E6
331
265F
  5
2674
331
21D2
  5
21E7
331
212B
  5
2136
331
2328
  5
233D
331
22F3
  5
2308
331
22B6
  5
22CB
331
2281
  5
2296
331
2244
  5
2259
331
2288
  5
229D
331
224B
  5
2260
331
21EE
  5
2203
331
26B7
  5
26CC
331
267A
  5
268F
331
21F5
  5
220A
331
21B8
  5
21CD
331
2681
  5
2696
331
2316
  5
232B
331
22D9
  5
22EE
331
2267
  5
227C
331
22E0
  5
22F5
331
22A3
  5
22B8
331
226E
  5
2283
331
2231
  5
2246
331
2218
  5
222D
331
21DB
  5
21F0
331
2134
  5
213F
331
2667
  5
267C
331
22FC
  5
2311
331
22BF
  5
22D4
331
2303
  5
2318
331
22C6
  5
22DB
331
2291
  5
22A6
331
2254
  5
2269
331
256
  5
256
331
21FE
  5
2213
331
21C1
  5
21D6
331
26C7
  5
26DC
331
268A
  5
269F
331
2121
  5
212C
331
231E
  5
2333
331
22E9
  5
22FE
331
22AC
  5
22C1
331
2277
  5
228C
331
223A
  5
224F
331
2221
  5
2236
331
21E4
  5
21F9
331
21AF
  5
21C4
331
26AD
  5
26C2
331
2670
  5
2685
331
230C
  5
2321
331
22CF
  5
22E4
331
229A
  5
22AF
331
225D
  5
2272
331
2207
  5
221C
331
21CA
  5
21DF
331
26D0
  5
26E5
331
21D1
  5
21E6
331
212A
  5
2135
331
2327
  5
233C
331
22F2
  5
2307
331
22B5
  5
22CA
331
2280
  5
2295
331
2243
  5
2258
331
224A
  5
225F
331
21ED
  5
2202
331
26B6
  5
26CB
331
2679
  5
268E
331
21F4
  5
2209
331
21B7
  5
21CC
331
20D3
  5
20D3
331
2680
  5
2695
331
2315
  5
232A
331
22D8
  5
22ED
331
2266
  5
227B
331
22A2
  5
22B7
331
226D
  5
2282
331
2230
  5
2245
331
2217
  5
222C
331
21DA
  5
21EF
331
2133
  5
213E
331
26D8
  5
26ED
331
2666
  5
267B
331
22FB
  5
2310
331
22BE
  5
22D3
331
2302
  5
2317
331
22C5
  5
22DA
331
2290
  5
22A5
331
2253
  5
2268
331
26BF
  5
26D4
331
21FD
  5
2212
331
21C0
  5
21D5
331
26C6
  5
26DB
331
2689
  5
269E
331
2120
  5
212B
331
231D
  5
2332
331
22E8
  5
22FD
331
22AB
  5
22C0
331
2276
  5
228B
331
2239
  5
224E
331
2220
  5
2235
331
21E3
  5
21F8
331
21AE
  5
21C3
331
26AC
  5
26C1
331
266F
  5
2684
331
213B
  5
2146
331
230B
  5
2320
331
22CE
  5
22E3
331
2299
  5
22AE
331
225C
  5
2271
331
2206
  5
221B
331
21C9
  5
21DE
331
26CF
  5
26E4
331
21D0
  5
21E5
331
2129
  5
2134
331
2326
  5
233B
331
22F1
  5
2306
331
22B4
  5
22C9
331
227F
  5
2294
331
2242
  5
2257
331
2249
  5
225E
331
21EC
  5
2201
331
26B5
  5
26CA
331
2678
  5
268D
331
21F3
  5
2208
331
21B6
  5
21CB
331
20D2
  5
20D2
331
2314
  5
2329
331
22D7
  5
22EC
331
2265
  5
227A
331
22A1
  5
22B6
331
226C
  5
2281
331
222F
  5
2244
331
220F
  5
2224
331
2216
  5
222B
331
21D9
  5
21EE
331
2132
  5
213D
331
2665
  5
267A
331
22FA
  5
230F
331
22BD
  5
22D2
331
2301
  5
2316
331
22C4
  5
22D9
331
228F
  5
22A4
331
2252
  5
2267
331
26BE
  5
26D3
331
21FC
  5
2211
331
21BF
  5
21D4
331
26C5
  5
26DA
331
2688
  5
269D
331
231C
  5
2331
331
22E7
  5
22FC
331
22AA
  5
22BF
331
2275
  5
228A
331
2238
  5
224D
331
241
  5
241
331
221F
  5
2234
331
21E2
  5
21F7
331
21AD
  5
21C2
331
26AB
  5
26C0
331
266E
  5
2683
331
213A
  5
2145
331
230A
  5
231F
331
22CD
  5
22E2
331
2298
  5
22AD
331
225B
  5
2270
331
2205
  5
221A
331
21C8
  5
21DD
331
26CE
  5
26E3
331
2128
  5
2133
331
2325
  5
233A
331
22F0
  5
2305
331
22B3
  5
22C8
331
227E
  5
2293
331
2241
  5
2256
331
2248
  5
225D
331
21EB
  5
2200
331
26B4
  5
26C9
331
2677
  5
268C
331
21F2
  5
2207
331
21B5
  5
21CA
331
2313
  5
2328
331
22D6
  5
22EB
331
2264
  5
2279
331
22A0
  5
22B5
331
226B
  5
2280
331
222E
  5
2243
331
220E
  5
2223
331
26D7
  5
26EC
331
2215
  5
222A
331
21D8
  5
21ED
331
2131
  5
213C
331
2664
  5
2679
331
232E
  5
2343
331
22F9
  5
230E
331
22BC
  5
22D1
331
2287
  5
229C
331
2300
  5
2315
331
22C3
  5
22D8
331
228E
  5
22A3
331
2251
  5
2266
331
26BD
  5
26D2
331
21FB
  5
2210
331
21BE
  5
21D3
331
26C4
  5
26D9
331
2687
  5
269C
331
22DF
  5
22F4
331
231B
  5
2330
331
22E6
  5
22FB
331
22A9
  5
22BE
331
2274
  5
2289
331
2237
  5
224C
331
221E
  5
2233
331
21E1
  5
21F6
331
21AC
  5
21C1
331
26AA
  5
26BF
331
266D
  5
2682
331
2139
  5
2144
331
2309
  5
231E
331
22CC
  5
22E1
331
2297
  5
22AC
331
225A
  5
226F
331
2204
  5
2219
331
21C7
  5
21DC
331
26CD
  5
26E2
331
2127
  5
2132
331
2324
  5
2339
331
22EF
  5
2304
331
22B2
  5
22C7
331
227D
  5
2292
331
2240
  5
2255
331
249
  5
249
331
2227
  5
223C
331
21EA
  5
21FF
331
26B3
  5
26C8
331
2676
  5
268B
331
21F1
  5
2206
331
21B4
  5
21C9
331
2312
  5
2327
331
22D5
  5
22EA
331
2263
  5
2278
331
226A
  5
227F
331
222D
  5
2242
331
220D
  5
2222
331
26D6
  5
26EB
331
2214
  5
2229
331
21D7
  5
21EC
331
2130
  5
213B
331
2663
  5
2678
331
232D
  5
2342
331
22F8
  5
230D
331
22BB
  5
22D0
331
2286
  5
229B
331
22C2
  5
22D7
331
228D
  5
22A2
331
2250
  5
2265
331
26BC
  5
26D1
331
267F
  5
2694
331
21FA
  5
220F
331
21BD
  5
21D2
331
26C3
  5
26D8
331
2686
  5
269B
331
22DE
  5
22F3
331
231A
  5
232F
331
22E5
  5
22FA
331
22A8
  5
22BD
331
2273
  5
2288
331
2236
  5
224B
331
221D
  5
2232
331
21E0
  5
21F5
331
21AB
  5
21C0
331
266C
  5
2681
331
2138
  5
2143
331
2308
  5
231D
331
22CB
  5
22E0
331
2296
  5
22AB
331
2259
  5
226E
331
2203
  5
2218
331
21C6
  5
21DB
331
211F
  5
212A
331
26CC
  5
26E1
331
2126
  5
2131
331
2323
  5
2338
331
22EE
  5
2303
331
22B1
  5
22C6
331
227C
  5
2291
331
223F
  5
2254
331
2226
  5
223B
331
21E9
  5
21FE
331
26B2
  5
26C7
331
2675
  5
268A
331
21F0
  5
2205
331
21B3
  5
21C8
331
2311
  5
2326
331
22D4
  5
22E9
331
229F
  5
22B4
331
2262
  5
2277
331
2269
  5
227E
331
222C
  5
2241
331
220C
  5
2221
331
21CF
  5
21E4
331
26D5
  5
26EA
331
2213
  5
2228
331
21D6
  5
21EB
331
212F
  5
213A
331
2662
  5
2677
331
232C
  5
2341
331
22F7
  5
230C
331
22BA
  5
22CF
331
2285
  5
229A
331
22C1
  5
22D6
331
228C
  5
22A1
331
224F
  5
2264
331
251
  5
251
331
26BB
  5
26D0
331
267E
  5
2693
331
21F9
  5
220E
331
21BC
  5
21D1
331
26C2
  5
26D7
331
2685
  5
269A
331
22DD
  5
22F2
331
2319
  5
232E
331
22E4
  5
22F9
331
22A7
  5
22BC
331
2272
  5
2287
331
2235
  5
224A
331
221C
  5
2231
331
21DF
  5
21F4
331
266B
  5
2680
331
2307
  5
231C
331
22CA
  5
22DF
331
2295
  5
22AA
331
2258
  5
226D
331
2202
  5
2217
331
21C5
  5
21DA
331
26CB
  5
26E0
331
2125
  5
2130
331
2322
  5
2337
331
22ED
  5
2302
331
22B0
  5
22C5
331
227B
  5
2290
331
223E
  5
2253
331
2225
  5
223A
331
21E8
  5
21FD
331
26B1
  5
26C6
331
2674
  5
2689
331
21B2
  5
21C7
331
2310
  5
2325
331
22D3
  5
22E8
331
229E
  5
22B3
331
2261
  5
2276
331
2268
  5
227D
331
222B
  5
2240
331
220B
  5
2220
331
21CE
  5
21E3
331
26D4
  5
26E9
331
2212
  5
2227
331
21D5
  5
21EA
331
212E
  5
2139
331
2661
  5
2676
331
232B
  5
2340
331
22F6
  5
230B
331
22B9
  5
22CE
331
2284
  5
2299
331
2247
  5
225C
331
22C0
  5
22D5
331
228B
  5
22A0
331
224E
  5
2263
331
26BA
  5
26CF
331
267D
  5
2692
331
21F8
  5
220D
331
21BB
  5
21D0
331
26C1
  5
26D6
331
2684
  5
2699
331
22DC
  5
22F1
331
2318
  5
232D
331
22E3
  5
22F8
331
22A6
  5
22BB
331
2271
  5
2286
331
2234
  5
2249
  0
LAYOUT
  5
D4A
102
{ACAD_XDICTIONARY
360
2C92
102
}
102
{ACAD_REACTORS
330
D48
102
}
330
D48
100
AcDbPlotSettings
  1

  2
クセロPDF2
  4

  6

 40
0.0
 41
0.0
 42
0.0
 43
0.0
 44
0.0
 45
0.0
 46
0.0
 47
0.0
 48
0.0
 49
0.0
140
0.0
141
0.0
142
1.0
143
1.0
 70
  1712
 72
     0
 73
     0
 74
     0
  7

 75
     0
147
1.0
148
0.0
149
0.0
100
AcDbLayout
  1
Model
 70
     1
 71
     0
 10
0.0
 20
0.0
 11
12.0
 21
9.0
 12
0.0
 22
0.0
 32
0.0
 14
0.0
 24
0.0
 34
0.0
 15
0.0
 25
0.0
 35
0.0
146
0.0
 13
0.0
 23
0.0
 33
0.0
 16
1.0
 26
0.0
 36
0.0
 17
0.0
 27
1.0
 37
0.0
 76
     0
330
A
331
2A56
  0
LAYOUT
  5
D4B
102
{ACAD_XDICTIONARY
360
2C94
102
}
102
{ACAD_REACTORS
330
D48
102
}
330
D48
100
AcDbPlotSettings
  1

  2
クセロPDF2
  4

  6

 40
0.0
 41
0.0
 42
0.0
 43
0.0
 44
0.0
 45
0.0
 46
0.0
 47
0.0
 48
0.0
 49
0.0
140
0.0
141
0.0
142
1.0
143
1.0
 70
   688
 72
     0
 73
     0
 74
     5
  7

 75
    16
147
1.0
148
0.0
149
0.0
100
AcDbLayout
  1
レイアウト1
 70
     1
 71
     1
 10
0.0
 20
0.0
 11
12.0
 21
9.0
 12
0.0
 22
0.0
 32
0.0
 14
1.000000000000000E+20
 24
1.000000000000000E+20
 34
1.000000000000000E+20
 15
-1.000000000000000E+20
 25
-1.000000000000000E+20
 35
-1.000000000000000E+20
146
0.0
 13
0.0
 23
0.0
 33
0.0
 16
1.0
 26
0.0
 36
0.0
 17
0.0
 27
1.0
 37
0.0
 76
     0
330
B
  0
MATERIAL
  5
2A65
102
{ACAD_XDICTIONARY
360
2A66
102
}
102
{ACAD_REACTORS
330
D44
102
}
330
D44
100
AcDbMaterial
  1
ByBlock
 72
     0
 43
0.0208333333333333
 43
0.0
 43
0.0
 43
0.0
 43
0.0
 43
0.0208333333333333
 43
0.0
 43
0.0
 43
0.0
 43
0.0
 43
1.0
 43
0.0
 43
0.0
 43
0.0
 43
0.0
 43
1.0
 77
     0
 47
0.0208333333333333
 47
0.0
 47
0.0
 47
0.0
 47
0.0
 47
0.0208333333333333
 47
0.0
 47
0.0
 47
0.0
 47
0.0
 47
1.0
 47
0.0
 47
0.0
 47
0.0
 47
0.0
 47
1.0
171
     0
 49
0.0208333333333333
 49
0.0
 49
0.0
 49
0.0
 49
0.0
 49
0.0208333333333333
 49
0.0
 49
0.0
 49
0.0
 49
0.0
 49
1.0
 49
0.0
 49
0.0
 49
0.0
 49
0.0
 49
1.0
175
     0
142
0.0208333333333333
142
0.0
142
0.0
142
0.0
142
0.0
142
0.0208333333333333
142
0.0
142
0.0
142
0.0
142
0.0
142
1.0
142
0.0
142
0.0
142
0.0
142
0.0
142
1.0
179
     0
144
0.0208333333333333
144
0.0
144
0.0
144
0.0
144
0.0
144
0.0208333333333333
144
0.0
144
0.0
144
0.0
144
0.0
144
1.0
144
0.0
144
0.0
144
0.0
144
0.0
144
1.0
147
0.0208333333333333
147
0.0
147
0.0
147
0.0
147
0.0
147
0.0208333333333333
147
0.0
147
0.0
147
0.0
147
0.0
147
1.0
147
0.0
147
0.0
147
0.0
147
0.0
147
1.0
  0
MATERIAL
  5
2A5D
102
{ACAD_XDICTIONARY
360
2A5E
102
}
102
{ACAD_REACTORS
330
D44
102
}
330
D44
100
AcDbMaterial
  1
ByLayer
 72
     0
 43
0.0208333333333333
 43
0.0
 43
0.0
 43
0.0
 43
0.0
 43
0.0208333333333333
 43
0.0
 43
0.0
 43
0.0
 43
0.0
 43
1.0
 43
0.0
 43
0.0
 43
0.0
 43
0.0
 43
1.0
 77
     0
 47
0.0208333333333333
 47
0.0
 47
0.0
 47
0.0
 47
0.0
 47
0.0208333333333333
 47
0.0
 47
0.0
 47
0.0
 47
0.0
 47
1.0
 47
0.0
 47
0.0
 47
0.0
 47
0.0
 47
1.0
171
     0
 49
0.0208333333333333
 49
0.0
 49
0.0
 49
0.0
 49
0.0
 49
0.0208333333333333
 49
0.0
 49
0.0
 49
0.0
 49
0.0
 49
1.0
 49
0.0
 49
0.0
 49
0.0
 49
0.0
 49
1.0
175
     0
142
0.0208333333333333
142
0.0
142
0.0
142
0.0
142
0.0
142
0.0208333333333333
142
0.0
142
0.0
142
0.0
142
0.0
142
1.0
142
0.0
142
0.0
142
0.0
142
0.0
142
1.0
179
     0
144
0.0208333333333333
144
0.0
144
0.0
144
0.0
144
0.0
144
0.0208333333333333
144
0.0
144
0.0
144
0.0
144
0.0
144
1.0
144
0.0
144
0.0
144
0.0
144
0.0
144
1.0
147
0.0208333333333333
147
0.0
147
0.0
147
0.0
147
0.0
147
0.0208333333333333
147
0.0
147
0.0
147
0.0
147
0.0
147
1.0
147
0.0
147
0.0
147
0.0
147
0.0
147
1.0
  0
MATERIAL
  5
2A6D
102
{ACAD_XDICTIONARY
360
2A6E
102
}
102
{ACAD_REACTORS
330
D44
102
}
330
D44
100
AcDbMaterial
  1
Global
 72
     0
 43
0.0208333333333333
 43
0.0
 43
0.0
 43
0.0
 43
0.0
 43
0.0208333333333333
 43
0.0
 43
0.0
 43
0.0
 43
0.0
 43
1.0
 43
0.0
 43
0.0
 43
0.0
 43
0.0
 43
1.0
 77
     0
 47
0.0208333333333333
 47
0.0
 47
0.0
 47
0.0
 47
0.0
 47
0.0208333333333333
 47
0.0
 47
0.0
 47
0.0
 47
0.0
 47
1.0
 47
0.0
 47
0.0
 47
0.0
 47
0.0
 47
1.0
171
     0
 49
0.0208333333333333
 49
0.0
 49
0.0
 49
0.0
 49
0.0
 49
0.0208333333333333
 49
0.0
 49
0.0
 49
0.0
 49
0.0
 49
1.0
 49
0.0
 49
0.0
 49
0.0
 49
0.0
 49
1.0
175
     0
142
0.0208333333333333
142
0.0
142
0.0
142
0.0
142
0.0
142
0.0208333333333333
142
0.0
142
0.0
142
0.0
142
0.0
142
1.0
142
0.0
142
0.0
142
0.0
142
0.0
142
1.0
179
     0
144
0.0208333333333333
144
0.0
144
0.0
144
0.0
144
0.0
144
0.0208333333333333
144
0.0
144
0.0
144
0.0
144
0.0
144
1.0
144
0.0
144
0.0
144
0.0
144
0.0
144
1.0
147
0.0208333333333333
147
0.0
147
0.0
147
0.0
147
0.0
147
0.0208333333333333
147
0.0
147
0.0
147
0.0
147
0.0
147
1.0
147
0.0
147
0.0
147
0.0
147
0.0
147
1.0
  0
MLEADERSTYLE
  5
2AA1
102
{ACAD_XDICTIONARY
360
2C8D
102
}
102
{ACAD_REACTORS
330
2AA0
102
}
330
2AA0
100
AcDbMLeaderStyle
170
     2
171
     1
172
     0
 90
        2
 40
0.0
 41
0.0
173
     1
 91
-1056964608
340
1D
 92
       -2
290
     1
 42
0.09
291
     1
 43
0.36
  3
Standard
 44
0.18
300

342
7
174
     1
178
     6
175
     1
176
     0
 93
-1056964608
 45
0.18
292
     0
297
     0
 46
0.18
 94
-1056964608
 47
1.0
 49
1.0
140
1.0
293
     1
141
0.0
294
     1
177
     0
142
1.0
295
     0
296
     0
143
0.125
1001
ACAD_MLEADERVER
1070
     2
  0
MLINESTYLE
  5
42
102
{ACAD_REACTORS
330
41
102
}
330
0
100
AcDbMlineStyle
  2
STANDARD
 70
     0
  3

 62
   256
 51
90.0
 52
90.0
 71
     2
 49
0.5
 62
   256
  6
BYLAYER
 49
-0.5
 62
   256
  6
BYLAYER
  0
ACDBPLACEHOLDER
  5
D43
102
{ACAD_REACTORS
330
D42
102
}
330
D42
  0
SCALE
  5
2A8F
102
{ACAD_REACTORS
330
2A8E
102
}
330
2A8E
100
AcDbScale
 70
     0
300
1:1
140
1.0
141
1.0
290
     1
  0
SCALE
  5
2A90
102
{ACAD_REACTORS
330
2A8E
102
}
330
2A8E
100
AcDbScale
 70
     0
300
1/128" = 1'-0"
140
0.0078125
141
12.0
290
     0
  0
SCALE
  5
2A91
102
{ACAD_REACTORS
330
2A8E
102
}
330
2A8E
100
AcDbScale
 70
     0
300
1/64" = 1'-0"
140
0.015625
141
12.0
290
     0
  0
SCALE
  5
2A92
102
{ACAD_REACTORS
330
2A8E
102
}
330
2A8E
100
AcDbScale
 70
     0
300
1/32" = 1'-0"
140
0.03125
141
12.0
290
     0
  0
SCALE
  5
2A93
102
{ACAD_REACTORS
330
2A8E
102
}
330
2A8E
100
AcDbScale
 70
     0
300
1/16" = 1'-0"
140
0.0625
141
12.0
290
     0
  0
SCALE
  5
2A94
102
{ACAD_REACTORS
330
2A8E
102
}
330
2A8E
100
AcDbScale
 70
     0
300
3/32" = 1'-0"
140
0.09375
141
12.0
290
     0
  0
SCALE
  5
2A95
102
{ACAD_REACTORS
330
2A8E
102
}
330
2A8E
100
AcDbScale
 70
     0
300
1/8" = 1'-0"
140
0.125
141
12.0
290
     0
  0
SCALE
  5
2A96
102
{ACAD_REACTORS
330
2A8E
102
}
330
2A8E
100
AcDbScale
 70
     0
300
3/16" = 1'-0"
140
0.1875
141
12.0
290
     0
  0
SCALE
  5
2A97
102
{ACAD_REACTORS
330
2A8E
102
}
330
2A8E
100
AcDbScale
 70
     0
300
1/4" = 1'-0"
140
0.25
141
12.0
290
     0
  0
SCALE
  5
2A98
102
{ACAD_REACTORS
330
2A8E
102
}
330
2A8E
100
AcDbScale
 70
     0
300
3/8" = 1'-0"
140
0.375
141
12.0
290
     0
  0
SCALE
  5
2A99
102
{ACAD_REACTORS
330
2A8E
102
}
330
2A8E
100
AcDbScale
 70
     0
300
1/2" = 1'-0"
140
0.5
141
12.0
290
     0
  0
SCALE
  5
2A9A
102
{ACAD_REACTORS
330
2A8E
102
}
330
2A8E
100
AcDbScale
 70
     0
300
3/4" = 1'-0"
140
0.75
141
12.0
290
     0
  0
SCALE
  5
2A9B
102
{ACAD_REACTORS
330
2A8E
102
}
330
2A8E
100
AcDbScale
 70
     0
300
1" = 1'-0"
140
1.0
141
12.0
290
     0
  0
SCALE
  5
2A9C
102
{ACAD_REACTORS
330
2A8E
102
}
330
2A8E
100
AcDbScale
 70
     0
300
1-1/2" = 1'-0"
140
1.5
141
12.0
290
     0
  0
SCALE
  5
2A9D
102
{ACAD_REACTORS
330
2A8E
102
}
330
2A8E
100
AcDbScale
 70
     0
300
3" = 1'-0"
140
3.0
141
12.0
290
     0
  0
SCALE
  5
2A9E
102
{ACAD_REACTORS
330
2A8E
102
}
330
2A8E
100
AcDbScale
 70
     0
300
6" = 1'-0"
140
6.0
141
12.0
290
     0
  0
SCALE
  5
2A9F
102
{ACAD_REACTORS
330
2A8E
102
}
330
2A8E
100
AcDbScale
 70
     0
300
1'-0" = 1'-0"
140
12.0
141
12.0
290
     0
  0
TABLESTYLE
  5
D47
102
{ACAD_XDICTIONARY
360
2C8B
102
}
102
{ACAD_REACTORS
330
D46
102
}
330
D46
100
AcDbTableStyle
  3
Standard
 70
     0
 71
     0
 40
0.06
 41
0.06
280
     0
281
     0
  7
STANDARD
140
0.18
170
     2
 62
     0
 63
     7
283
     0
274
    -2
284
     1
 64
     0
275
    -2
285
     1
 65
     0
276
    -2
286
     1
 66
     0
277
    -2
287
     1
 67
     0
278
    -2
288
     1
 68
     0
279
    -2
289
     1
 69
     0
  7
STANDARD
140
0.25
170
     5
 62
     0
 63
     7
283
     0
274
    -2
284
     1
 64
     0
275
    -2
285
     1
 65
     0
276
    -2
286
     1
 66
     0
277
    -2
287
     1
 67
     0
278
    -2
288
     1
 68
     0
279
    -2
289
     1
 69
     0
  7
STANDARD
140
0.18
170
     5
 62
     0
 63
     7
283
     0
274
    -2
284
     1
 64
     0
275
    -2
285
     1
 65
     0
276
    -2
286
     1
 66
     0
277
    -2
287
     1
 67
     0
278
    -2
288
     1
 68
     0
279
    -2
289
     1
 69
     0
  0
VISUALSTYLE
  5
2A7B
102
{ACAD_XDICTIONARY
360
2CA3
102
}
102
{ACAD_REACTORS
330
2A75
102
}
330
2A75
100
AcDbVisualStyle
  2
2dWireframe
 70
     4
 71
     0
 72
     2
 73
     0
 90
        0
 40
-0.6
 41
-30.0
 62
     5
 63
     7
 74
     1
 91
        4
 64
     7
 65
   257
 75
     1
175
     1
 42
1.0
 92
        0
 66
   257
 43
1.0
 76
     1
 77
     6
 78
     2
 67
     7
 79
     5
170
     0
171
     0
290
     0
174
     0
 93
        1
 44
0.0
173
     0
291
     0
 45
0.0
1001
ACAD
1000
AcDbSavedByObjectVersion
1070
     0
  0
VISUALSTYLE
  5
2A7A
102
{ACAD_XDICTIONARY
360
2CA1
102
}
102
{ACAD_REACTORS
330
2A75
102
}
330
2A75
100
AcDbVisualStyle
  2
Basic
 70
     7
 71
     1
 72
     0
 73
     1
 90
        0
 40
-0.6
 41
-30.0
 62
     5
 63
     7
 74
     0
 91
        4
 64
     7
 65
   257
 75
     1
175
     1
 42
1.0
 92
        8
 66
     7
 43
1.0
 76
     1
 77
     6
 78
     2
 67
     7
 79
     5
170
     0
171
     0
290
     0
174
     0
 93
        1
 44
0.0
173
     0
291
     1
 45
0.0
1001
ACAD
1000
AcDbSavedByObjectVersion
1070
     0
  0
VISUALSTYLE
  5
2A81
102
{ACAD_XDICTIONARY
360
2CAF
102
}
102
{ACAD_REACTORS
330
2A75
102
}
330
2A75
100
AcDbVisualStyle
  2
Brighten
 70
    12
 71
     2
 72
     2
 73
     0
 90
        0
 40
-0.6
 41
-30.0
 62
     5
 63
     7
 74
     1
 91
        4
 64
     7
 65
   257
 75
     1
175
     1
 42
1.0
 92
        8
 66
     7
 43
1.0
 76
     1
 77
     6
 78
     2
 67
     7
 79
     5
170
     0
171
     0
290
     0
174
     0
 93
        1
 44
50.0
173
     0
291
     1
 45
0.0
1001
ACAD
1000
AcDbSavedByObjectVersion
1070
     0
  0
VISUALSTYLE
  5
2A85
102
{ACAD_XDICTIONARY
360
2CB7
102
}
102
{ACAD_REACTORS
330
2A75
102
}
330
2A75
100
AcDbVisualStyle
  2
ColorChange
 70
    16
 71
     2
 72
     2
 73
     3
 90
        0
 40
-0.6
 41
-30.0
 62
     5
 63
     8
 74
     1
 91
        4
 64
     7
 65
   257
 75
     1
175
     1
 42
1.0
 92
        8
 66
     8
 43
1.0
 76
     1
 77
     6
 78
     2
 67
     7
 79
     5
170
     0
171
     0
290
     0
174
     0
 93
        1
 44
0.0
173
     0
291
     1
 45
0.0
1001
ACAD
1000
AcDbSavedByObjectVersion
1070
     0
  0
VISUALSTYLE
  5
2A7E
102
{ACAD_XDICTIONARY
360
2CA9
102
}
102
{ACAD_REACTORS
330
2A75
102
}
330
2A75
100
AcDbVisualStyle
  2
Conceptual
 70
     9
 71
     3
 72
     2
 73
     0
 90
        0
 40
-0.6
 41
-30.0
 62
     5
 63
     7
 74
     2
 91
        2
 64
     7
 65
   257
 75
     1
175
     1
 42
179.0
 92
        8
 66
     7
 43
1.0
 76
     1
 77
     6
 78
     2
 67
     7
 79
     3
170
     0
171
     0
290
     0
174
     0
 93
        1
 44
0.0
173
     0
291
     0
 45
0.0
1001
ACAD
1000
AcDbSavedByObjectVersion
1070
     0
  0
VISUALSTYLE
  5
2A80
102
{ACAD_XDICTIONARY
360
2CAD
102
}
102
{ACAD_REACTORS
330
2A75
102
}
330
2A75
100
AcDbVisualStyle
  2
Dim
 70
    11
 71
     2
 72
     2
 73
     0
 90
        0
 40
-0.6
 41
-30.0
 62
     5
 63
     7
 74
     1
 91
        4
 64
     7
 65
   257
 75
     1
175
     1
 42
1.0
 92
        8
 66
     7
 43
1.0
 76
     1
 77
     6
 78
     2
 67
     7
 79
     5
170
     0
171
     0
290
     0
174
     0
 93
        1
 44
-50.0
173
     0
291
     1
 45
0.0
1001
ACAD
1000
AcDbSavedByObjectVersion
1070
     0
  0
VISUALSTYLE
  5
2A8D
102
{ACAD_XDICTIONARY
360
2CC7
102
}
102
{ACAD_REACTORS
330
2A75
102
}
330
2A75
100
AcDbVisualStyle
  2
EdgeColorOff
 70
    22
 71
     2
 72
     2
 73
     0
 90
        0
 40
-0.6
 41
-30.0
 62
     5
 63
     7
 74
     1
 91
        4
 64
     7
 65
   257
 75
     1
175
     1
 42
1.0
 92
        8
 66
     7
 43
1.0
 76
     1
 77
     6
 78
     2
 67
     7
 79
     5
170
     0
171
     0
290
     0
174
     0
 93
        1
 44
0.0
173
     0
291
     1
 45
0.0
1001
ACAD
1000
AcDbSavedByObjectVersion
1070
     0
  0
VISUALSTYLE
  5
2A84
102
{ACAD_XDICTIONARY
360
2CB5
102
}
102
{ACAD_REACTORS
330
2A75
102
}
330
2A75
100
AcDbVisualStyle
  2
Facepattern
 70
    15
 71
     2
 72
     2
 73
     0
 90
        0
 40
-0.6
 41
-30.0
 62
     5
 63
     7
 74
     1
 91
        4
 64
     7
 65
   257
 75
     1
175
     1
 42
1.0
 92
        8
 66
     7
 43
1.0
 76
     1
 77
     6
 78
     2
 67
     7
 79
     5
170
     0
171
     0
290
     0
174
     0
 93
        1
 44
0.0
173
     0
291
     1
 45
0.0
1001
ACAD
1000
AcDbSavedByObjectVersion
1070
     0
  0
VISUALSTYLE
  5
2A76
102
{ACAD_XDICTIONARY
360
2C99
102
}
102
{ACAD_REACTORS
330
2A75
102
}
330
2A75
100
AcDbVisualStyle
  2
Flat
 70
     0
 71
     2
 72
     1
 73
     1
 90
        2
 40
-0.6
 41
30.0
 62
     5
 63
     7
 74
     0
 91
        0
 64
     7
 65
   257
 75
     1
175
     1
 42
1.0
 92
        8
 66
     7
 43
1.0
 76
     1
 77
     6
 78
     2
 67
     7
 79
     5
170
     0
171
     0
290
     0
174
     0
 93
       13
 44
0.0
173
     0
291
     1
 45
0.0
1001
ACAD
1000
AcDbSavedByObjectVersion
1070
     0
  0
VISUALSTYLE
  5
2A77
102
{ACAD_XDICTIONARY
360
2C9B
102
}
102
{ACAD_REACTORS
330
2A75
102
}
330
2A75
100
AcDbVisualStyle
  2
FlatWithEdges
 70
     1
 71
     2
 72
     1
 73
     1
 90
        2
 40
-0.6
 41
30.0
 62
     5
 63
     7
 74
     1
 91
        0
 64
     7
 65
   257
 75
     1
175
     1
 42
1.0
 92
        0
 66
   257
 43
1.0
 76
     1
 77
     6
 78
     2
 67
     7
 79
     5
170
     0
171
     0
290
     0
174
     0
 93
       13
 44
0.0
173
     0
291
     1
 45
0.0
1001
ACAD
1000
AcDbSavedByObjectVersion
1070
     0
  0
VISUALSTYLE
  5
2A78
102
{ACAD_XDICTIONARY
360
2C9D
102
}
102
{ACAD_REACTORS
330
2A75
102
}
330
2A75
100
AcDbVisualStyle
  2
Gouraud
 70
     2
 71
     2
 72
     2
 73
     1
 90
        2
 40
-0.6
 41
30.0
 62
     5
 63
     7
 74
     0
 91
        0
 64
     7
 65
   257
 75
     1
175
     1
 42
1.0
 92
        0
 66
     7
 43
1.0
 76
     1
 77
     6
 78
     2
 67
     7
 79
     5
170
     0
171
     0
290
     0
174
     0
 93
       13
 44
0.0
173
     0
291
     1
 45
0.0
1001
ACAD
1000
AcDbSavedByObjectVersion
1070
     0
  0
VISUALSTYLE
  5
2A79
102
{ACAD_XDICTIONARY
360
2C9F
102
}
102
{ACAD_REACTORS
330
2A75
102
}
330
2A75
100
AcDbVisualStyle
  2
GouraudWithEdges
 70
     3
 71
     2
 72
     2
 73
     1
 90
        2
 40
-0.6
 41
30.0
 62
     5
 63
     7
 74
     1
 91
        0
 64
     7
 65
   257
 75
     1
175
     1
 42
1.0
 92
        0
 66
   257
 43
1.0
 76
     1
 77
     6
 78
     2
 67
     7
 79
     5
170
     0
171
     0
290
     0
174
     0
 93
       13
 44
0.0
173
     0
291
     1
 45
0.0
1001
ACAD
1000
AcDbSavedByObjectVersion
1070
     0
  0
VISUALSTYLE
  5
2A7D
102
{ACAD_XDICTIONARY
360
2CA7
102
}
102
{ACAD_REACTORS
330
2A75
102
}
330
2A75
100
AcDbVisualStyle
  2
Hidden
 70
     6
 71
     1
 72
     2
 73
     2
 90
        0
 40
-0.6
 41
-30.0
 62
     5
 63
     7
 74
     2
 91
        2
 64
     7
 65
   257
 75
     2
175
     1
 42
40.0
 92
        0
 66
   257
 43
1.0
 76
     1
 77
     6
 78
     2
 67
     7
 79
     3
170
     0
171
     0
290
     0
174
     0
 93
        1
 44
0.0
173
     0
291
     0
 45
0.0
1001
ACAD
1000
AcDbSavedByObjectVersion
1070
     0
  0
VISUALSTYLE
  5
2A8B
102
{ACAD_XDICTIONARY
360
2CC3
102
}
102
{ACAD_REACTORS
330
2A75
102
}
330
2A75
100
AcDbVisualStyle
  2
JitterOff
 70
    20
 71
     2
 72
     2
 73
     0
 90
        0
 40
-0.6
 41
-30.0
 62
     5
 63
     7
 74
     1
 91
        4
 64
     7
 65
   257
 75
     1
175
     1
 42
1.0
 92
       10
 66
     7
 43
1.0
 76
     1
 77
     6
 78
     2
 67
     7
 79
     5
170
     0
171
     0
290
     0
174
     0
 93
        1
 44
0.0
173
     0
291
     1
 45
0.0
1001
ACAD
1000
AcDbSavedByObjectVersion
1070
     0
  0
VISUALSTYLE
  5
2A83
102
{ACAD_XDICTIONARY
360
2CB3
102
}
102
{ACAD_REACTORS
330
2A75
102
}
330
2A75
100
AcDbVisualStyle
  2
Linepattern
 70
    14
 71
     2
 72
     2
 73
     0
 90
        0
 40
-0.6
 41
-30.0
 62
     5
 63
     7
 74
     1
 91
        4
 64
     7
 65
   257
 75
     7
175
     7
 42
1.0
 92
        8
 66
     7
 43
1.0
 76
     1
 77
     6
 78
     2
 67
     7
 79
     5
170
     0
171
     0
290
     0
174
     0
 93
        1
 44
0.0
173
     0
291
     1
 45
0.0
1001
ACAD
1000
AcDbSavedByObjectVersion
1070
     0
  0
VISUALSTYLE
  5
2A8C
102
{ACAD_XDICTIONARY
360
2CC5
102
}
102
{ACAD_REACTORS
330
2A75
102
}
330
2A75
100
AcDbVisualStyle
  2
OverhangOff
 70
    21
 71
     2
 72
     2
 73
     0
 90
        0
 40
-0.6
 41
-30.0
 62
     5
 63
     7
 74
     1
 91
        4
 64
     7
 65
   257
 75
     1
175
     1
 42
1.0
 92
        9
 66
     7
 43
1.0
 76
     1
 77
     6
 78
     2
 67
     7
 79
     5
170
     0
171
     0
290
     0
174
     0
 93
        1
 44
0.0
173
     0
291
     1
 45
0.0
1001
ACAD
1000
AcDbSavedByObjectVersion
1070
     0
  0
VISUALSTYLE
  5
2A7F
102
{ACAD_XDICTIONARY
360
2CAB
102
}
102
{ACAD_REACTORS
330
2A75
102
}
330
2A75
100
AcDbVisualStyle
  2
Realistic
 70
     8
 71
     2
 72
     3
 73
     0
 90
        2
 40
-0.6
 41
30.0
 62
     5
 63
     7
 74
     0
 91
        0
 64
     7
 65
   257
 75
     1
175
     1
 42
1.0
 92
        8
 66
   257
 43
1.0
 76
     1
 77
     6
 78
     2
 67
     7
 79
     3
170
     0
171
     0
290
     0
174
     0
 93
       13
 44
0.0
173
     0
291
     0
 45
0.0
1001
ACAD
1000
AcDbSavedByObjectVersion
1070
     0
  0
VISUALSTYLE
  5
2A8A
102
{ACAD_XDICTIONARY
360
2CC1
102
}
102
{ACAD_REACTORS
330
2A75
102
}
330
2A75
100
AcDbVisualStyle
  2
Shaded
 70
    27
 71
     2
 72
     2
 73
     1
 90
        2
 40
-0.6
 41
30.0
 62
     5
 63
     7
 74
     0
 91
        4
 64
     7
 65
   257
 75
     1
175
     1
 42
1.0
 92
        8
 66
   257
 43
1.0
 76
     1
 77
     6
 78
     2
 67
     8
 79
     3
170
     0
171
     0
290
     0
174
     0
 93
        5
 44
0.0
173
     0
291
     0
 45
0.0
1001
ACAD
1000
AcDbSavedByObjectVersion
1070
     0
  0
VISUALSTYLE
  5
2A89
102
{ACAD_XDICTIONARY
360
2CBF
102
}
102
{ACAD_REACTORS
330
2A75
102
}
330
2A75
100
AcDbVisualStyle
  2
Shaded with edges
 70
    26
 71
     2
 72
     2
 73
     1
 90
        2
 40
-0.6
 41
30.0
 62
     5
 63
     7
 74
     1
 91
       10
 64
     7
 65
   257
 75
     2
175
     1
 42
1.0
 92
        8
 66
   257
 43
1.0
 76
     1
 77
     6
 78
     2
 67
     7
 79
     3
170
     0
171
     0
290
     0
174
     0
 93
        5
 44
0.0
173
     0
291
     0
 45
0.0
1001
ACAD
1000
AcDbSavedByObjectVersion
1070
     0
  0
VISUALSTYLE
  5
2A86
102
{ACAD_XDICTIONARY
360
2CB9
102
}
102
{ACAD_REACTORS
330
2A75
102
}
330
2A75
100
AcDbVisualStyle
  2
Shades of Gray
 70
    23
 71
     2
 72
     2
 73
     3
 90
        0
 40
-0.6
 41
-30.0
 62
     5
 63
     7
 74
     2
 91
        2
 64
     7
 65
     7
 75
     1
175
     1
 42
40.0
 92
        8
 66
     7
 43
1.0
 76
     1
 77
     6
 78
     2
 67
     7
 79
     3
170
     0
171
     0
290
     0
174
     0
 93
        1
 44
0.0
173
     0
291
     0
 45
0.0
1001
ACAD
1000
AcDbSavedByObjectVersion
1070
     0
  0
VISUALSTYLE
  5
2A87
102
{ACAD_XDICTIONARY
360
2CBB
102
}
102
{ACAD_REACTORS
330
2A75
102
}
330
2A75
100
AcDbVisualStyle
  2
Sketchy
 70
    24
 71
     1
 72
     2
 73
     2
 90
        0
 40
-0.6
 41
-30.0
 62
     5
 63
     7
 74
     2
 91
        2
 64
     7
 65
     7
 75
     1
175
     1
 42
40.0
 92
       11
 66
     7
 43
1.0
 76
     1
 77
     6
 78
     2
 67
     7
 79
     6
170
     0
171
     0
290
     0
174
     0
 93
        1
 44
0.0
173
     0
291
     0
 45
0.0
1001
ACAD
1000
AcDbSavedByObjectVersion
1070
     0
  0
VISUALSTYLE
  5
2A82
102
{ACAD_XDICTIONARY
360
2CB1
102
}
102
{ACAD_REACTORS
330
2A75
102
}
330
2A75
100
AcDbVisualStyle
  2
Thicken
 70
    13
 71
     2
 72
     2
 73
     0
 90
        0
 40
-0.6
 41
-30.0
 62
     5
 63
     7
 74
     1
 91
        4
 64
     7
 65
   257
 75
     1
175
     1
 42
1.0
 92
       12
 66
     7
 43
1.0
 76
     1
 77
     6
 78
     2
 67
     7
 79
     5
170
     0
171
     0
290
     0
174
     0
 93
        1
 44
0.0
173
     0
291
     1
 45
0.0
1001
ACAD
1000
AcDbSavedByObjectVersion
1070
     0
  0
VISUALSTYLE
  5
2A7C
102
{ACAD_XDICTIONARY
360
2CA5
102
}
102
{ACAD_REACTORS
330
2A75
102
}
330
2A75
100
AcDbVisualStyle
  2
Wireframe
 70
     5
 71
     0
 72
     2
 73
     0
 90
        0
 40
-0.6
 41
-30.0
 62
     5
 63
     7
 74
     1
 91
        4
 64
     7
 65
   257
 75
     1
175
     1
 42
1.0
 92
        0
 66
   257
 43
1.0
 76
     1
 77
     6
 78
     2
 67
     7
 79
     3
170
     0
171
     0
290
     0
174
     0
 93
        1
 44
0.0
173
     0
291
     0
 45
0.0
1001
ACAD
1000
AcDbSavedByObjectVersion
1070
     0
  0
VISUALSTYLE
  5
2A88
102
{ACAD_XDICTIONARY
360
2CBD
102
}
102
{ACAD_REACTORS
330
2A75
102
}
330
2A75
100
AcDbVisualStyle
  2
X-Ray
 70
    25
 71
     2
 72
     2
 73
     1
 90
        1
 40
0.5
 41
-30.0
 62
     5
 63
     7
 74
     1
 91
        0
 64
     7
 65
   257
 75
     1
175
     1
 42
1.0
 92
        8
 66
     7
 43
1.0
 76
     1
 77
     6
 78
     2
 67
     7
 79
     3
170
     0
171
     0
290
     0
174
     0
 93
       13
 44
0.0
173
     0
291
     0
 45
0.0
1001
ACAD
1000
AcDbSavedByObjectVersion
1070
     0
  0
DICTIONARYVAR
  5
2C87
102
{ACAD_REACTORS
330
D63
102
}
330
D63
100
DictionaryVariables
280
     0
  1
1:1
  0
DICTIONARYVAR
  5
2C86
102
{ACAD_REACTORS
330
D63
102
}
330
D63
100
DictionaryVariables
280
     0
  1
STANDARD
  0
DICTIONARYVAR
  5
D64
102
{ACAD_REACTORS
330
D63
102
}
330
D63
100
DictionaryVariables
280
     0
  1
STANDARD
  0
DICTIONARYVAR
  5
D65
102
{ACAD_REACTORS
330
D63
102
}
330
D63
100
DictionaryVariables
280
     0
  1
1
  0
DICTIONARYVAR
  5
2C89
102
{ACAD_REACTORS
330
D63
102
}
330
D63
100
DictionaryVariables
280
     0
  1
0
  0
DICTIONARYVAR
  5
D66
102
{ACAD_REACTORS
330
D63
102
}
330
D63
100
DictionaryVariables
280
     0
  1

  0
DICTIONARYVAR
  5
2C88
102
{ACAD_REACTORS
330
D63
102
}
330
D63
100
DictionaryVariables
280
     0
  1
127
  0
DICTIONARYVAR
  5
2C8A
102
{ACAD_REACTORS
330
D63
102
}
330
D63
100
DictionaryVariables
280
     0
  1
2
  0
DICTIONARY
  5
2C92
330
D4A
100
AcDbDictionary
280
     1
281
     1
  3
ACAD_XREC_ROUNDTRIP
360
2C93
  0
DICTIONARY
  5
2C94
330
D4B
100
AcDbDictionary
280
     1
281
     1
  3
ACAD_XREC_ROUNDTRIP
360
2C95
  0
DICTIONARY
  5
2A66
330
2A65
100
AcDbDictionary
280
     1
281
     1
  3
ACAD_XREC_ROUNDTRIP
360
2C97
  3
BUMPTILE
360
2A68
  3
DIFFUSETILE
360
2A67
  3
OPACITYTILE
360
2A6B
  3
REFLECTIONTILE
360
2A6A
  3
REFRACTIONTILE
360
2A6C
  3
SPECULARTILE
360
2A69
  0
DICTIONARY
  5
2A5E
330
2A5D
100
AcDbDictionary
280
     1
281
     1
  3
ACAD_XREC_ROUNDTRIP
360
2C96
  3
BUMPTILE
360
2A60
  3
DIFFUSETILE
360
2A5F
  3
OPACITYTILE
360
2A63
  3
REFLECTIONTILE
360
2A62
  3
REFRACTIONTILE
360
2A64
  3
SPECULARTILE
360
2A61
  0
DICTIONARY
  5
2A6E
330
2A6D
100
AcDbDictionary
280
     1
281
     1
  3
ACAD_XREC_ROUNDTRIP
360
2C98
  3
BUMPTILE
360
2A70
  3
DIFFUSETILE
360
2A6F
  3
OPACITYTILE
360
2A73
  3
REFLECTIONTILE
360
2A72
  3
REFRACTIONTILE
360
2A74
  3
SPECULARTILE
360
2A71
  0
DICTIONARY
  5
2C8D
330
2AA1
100
AcDbDictionary
280
     1
281
     1
  3
ACAD_XREC_ROUNDTRIP
360
2C8E
  0
DICTIONARY
  5
2C8B
330
D47
100
AcDbDictionary
280
     1
281
     1
  3
ACAD_ROUNDTRIP_2008_TABLESTYLE_CELLSTYLEMAP
360
2C8C
  3
ACAD_XREC_ROUNDTRIP
360
2C91
  0
DICTIONARY
  5
2CA3
330
2A7B
100
AcDbDictionary
280
     1
281
     1
  3
ACAD_XREC_ROUNDTRIP
360
2CA4
  0
DICTIONARY
  5
2CA1
330
2A7A
100
AcDbDictionary
280
     1
281
     1
  3
ACAD_XREC_ROUNDTRIP
360
2CA2
  0
DICTIONARY
  5
2CAF
330
2A81
100
AcDbDictionary
280
     1
281
     1
  3
ACAD_XREC_ROUNDTRIP
360
2CB0
  0
DICTIONARY
  5
2CB7
330
2A85
100
AcDbDictionary
280
     1
281
     1
  3
ACAD_XREC_ROUNDTRIP
360
2CB8
  0
DICTIONARY
  5
2CA9
330
2A7E
100
AcDbDictionary
280
     1
281
     1
  3
ACAD_XREC_ROUNDTRIP
360
2CAA
  0
DICTIONARY
  5
2CAD
330
2A80
100
AcDbDictionary
280
     1
281
     1
  3
ACAD_XREC_ROUNDTRIP
360
2CAE
  0
DICTIONARY
  5
2CC7
330
2A8D
100
AcDbDictionary
280
     1
281
     1
  3
ACAD_XREC_ROUNDTRIP
360
2CC8
  0
DICTIONARY
  5
2CB5
330
2A84
100
AcDbDictionary
280
     1
281
     1
  3
ACAD_XREC_ROUNDTRIP
360
2CB6
  0
DICTIONARY
  5
2C99
330
2A76
100
AcDbDictionary
280
     1
281
     1
  3
ACAD_XREC_ROUNDTRIP
360
2C9A
  0
DICTIONARY
  5
2C9B
330
2A77
100
AcDbDictionary
280
     1
281
     1
  3
ACAD_XREC_ROUNDTRIP
360
2C9C
  0
DICTIONARY
  5
2C9D
330
2A78
100
AcDbDictionary
280
     1
281
     1
  3
ACAD_XREC_ROUNDTRIP
360
2C9E
  0
DICTIONARY
  5
2C9F
330
2A79
100
AcDbDictionary
280
     1
281
     1
  3
ACAD_XREC_ROUNDTRIP
360
2CA0
  0
DICTIONARY
  5
2CA7
330
2A7D
100
AcDbDictionary
280
     1
281
     1
  3
ACAD_XREC_ROUNDTRIP
360
2CA8
  0
DICTIONARY
  5
2CC3
330
2A8B
100
AcDbDictionary
280
     1
281
     1
  3
ACAD_XREC_ROUNDTRIP
360
2CC4
  0
DICTIONARY
  5
2CB3
330
2A83
100
AcDbDictionary
280
     1
281
     1
  3
ACAD_XREC_ROUNDTRIP
360
2CB4
  0
DICTIONARY
  5
2CC5
330
2A8C
100
AcDbDictionary
280
     1
281
     1
  3
ACAD_XREC_ROUNDTRIP
360
2CC6
  0
DICTIONARY
  5
2CAB
330
2A7F
100
AcDbDictionary
280
     1
281
     1
  3
ACAD_XREC_ROUNDTRIP
360
2CAC
  0
DICTIONARY
  5
2CC1
330
2A8A
100
AcDbDictionary
280
     1
281
     1
  3
ACAD_XREC_ROUNDTRIP
360
2CC2
  0
DICTIONARY
  5
2CBF
330
2A89
100
AcDbDictionary
280
     1
281
     1
  3
ACAD_XREC_ROUNDTRIP
360
2CC0
  0
DICTIONARY
  5
2CB9
330
2A86
100
AcDbDictionary
280
     1
281
     1
  3
ACAD_XREC_ROUNDTRIP
360
2CBA
  0
DICTIONARY
  5
2CBB
330
2A87
100
AcDbDictionary
280
     1
281
     1
  3
ACAD_XREC_ROUNDTRIP
360
2CBC
  0
DICTIONARY
  5
2CB1
330
2A82
100
AcDbDictionary
280
     1
281
     1
  3
ACAD_XREC_ROUNDTRIP
360
2CB2
  0
DICTIONARY
  5
2CA5
330
2A7C
100
AcDbDictionary
280
     1
281
     1
  3
ACAD_XREC_ROUNDTRIP
360
2CA6
  0
DICTIONARY
  5
2CBD
330
2A88
100
AcDbDictionary
280
     1
281
     1
  3
ACAD_XREC_ROUNDTRIP
360
2CBE
  0
XRECORD
  5
2C93
102
{ACAD_REACTORS
330
2C92
102
}
330
2C92
100
AcDbXrecord
280
     1
102
SHADEPLOT
 70
     0
102
SHADEPLOTRESLEVEL
 70
     2
102
SHADEPLOTCUSTOMDPI
 70
   300
  0
XRECORD
  5
2C95
102
{ACAD_REACTORS
330
2C94
102
}
330
2C94
100
AcDbXrecord
280
     1
102
SHADEPLOT
 70
     0
102
SHADEPLOTRESLEVEL
 70
     2
102
SHADEPLOTCUSTOMDPI
 70
   300
  0
XRECORD
  5
2C97
102
{ACAD_REACTORS
330
2A66
102
}
330
2A66
100
AcDbXrecord
280
     1
102
MATERIAL
148
0.0
149
0.0
149
0.0
 93
        0
 94
      127
282
     0
 72
     0
 77
     0
171
     0
175
     0
179
     0
273
     0
  0
XRECORD
  5
2A68
102
{ACAD_REACTORS
330
2A66
102
}
330
2A66
100
AcDbXrecord
280
     1
270
     1
271
     1
  0
XRECORD
  5
2A67
102
{ACAD_REACTORS
330
2A66
102
}
330
2A66
100
AcDbXrecord
280
     1
270
     1
271
     1
  0
XRECORD
  5
2A6B
102
{ACAD_REACTORS
330
2A66
102
}
330
2A66
100
AcDbXrecord
280
     1
270
     1
271
     1
  0
XRECORD
  5
2A6A
102
{ACAD_REACTORS
330
2A66
102
}
330
2A66
100
AcDbXrecord
280
     1
270
     1
271
     1
  0
XRECORD
  5
2A6C
102
{ACAD_REACTORS
330
2A66
102
}
330
2A66
100
AcDbXrecord
280
     1
270
     1
271
     1
  0
XRECORD
  5
2A69
102
{ACAD_REACTORS
330
2A66
102
}
330
2A66
100
AcDbXrecord
280
     1
270
     1
271
     1
  0
XRECORD
  5
2C96
102
{ACAD_REACTORS
330
2A5E
102
}
330
2A5E
100
AcDbXrecord
280
     1
102
MATERIAL
148
0.0
149
0.0
149
0.0
 93
        0
 94
      127
282
     0
 72
     0
 77
     0
171
     0
175
     0
179
     0
273
     0
  0
XRECORD
  5
2A60
102
{ACAD_REACTORS
330
2A5E
102
}
330
2A5E
100
AcDbXrecord
280
     1
270
     1
271
     1
  0
XRECORD
  5
2A5F
102
{ACAD_REACTORS
330
2A5E
102
}
330
2A5E
100
AcDbXrecord
280
     1
270
     1
271
     1
  0
XRECORD
  5
2A63
102
{ACAD_REACTORS
330
2A5E
102
}
330
2A5E
100
AcDbXrecord
280
     1
270
     1
271
     1
  0
XRECORD
  5
2A62
102
{ACAD_REACTORS
330
2A5E
102
}
330
2A5E
100
AcDbXrecord
280
     1
270
     1
271
     1
  0
XRECORD
  5
2A64
102
{ACAD_REACTORS
330
2A5E
102
}
330
2A5E
100
AcDbXrecord
280
     1
270
     1
271
     1
  0
XRECORD
  5
2A61
102
{ACAD_REACTORS
330
2A5E
102
}
330
2A5E
100
AcDbXrecord
280
     1
270
     1
271
     1
  0
XRECORD
  5
2C98
102
{ACAD_REACTORS
330
2A6E
102
}
330
2A6E
100
AcDbXrecord
280
     1
102
MATERIAL
148
0.0
149
0.0
149
0.0
 93
        0
 94
      127
282
     0
 72
     0
 77
     0
171
     0
175
     0
179
     0
273
     0
  0
XRECORD
  5
2A70
102
{ACAD_REACTORS
330
2A6E
102
}
330
2A6E
100
AcDbXrecord
280
     1
270
     1
271
     1
  0
XRECORD
  5
2A6F
102
{ACAD_REACTORS
330
2A6E
102
}
330
2A6E
100
AcDbXrecord
280
     1
270
     1
271
     1
  0
XRECORD
  5
2A73
102
{ACAD_REACTORS
330
2A6E
102
}
330
2A6E
100
AcDbXrecord
280
     1
270
     1
271
     1
  0
XRECORD
  5
2A72
102
{ACAD_REACTORS
330
2A6E
102
}
330
2A6E
100
AcDbXrecord
280
     1
270
     1
271
     1
  0
XRECORD
  5
2A74
102
{ACAD_REACTORS
330
2A6E
102
}
330
2A6E
100
AcDbXrecord
280
     1
270
     1
271
     1
  0
XRECORD
  5
2A71
102
{ACAD_REACTORS
330
2A6E
102
}
330
2A6E
100
AcDbXrecord
280
     1
270
     1
271
     1
  0
XRECORD
  5
2C8E
102
{ACAD_REACTORS
330
2C8D
102
}
330
2C8D
100
AcDbXrecord
280
     1
102
ACAD_ROUNDTRIP_2012_MLEADER_STYLE
298
     1
  0
CELLSTYLEMAP
  5
2C8C
102
{ACAD_REACTORS
330
2C8B
102
}
330
2C8B
100
AcDbCellStyleMap
 90
        3
300
CELLSTYLE
  1
TABLEFORMAT_BEGIN
 90
        5
170
     1
 91
        0
 92
    32768
 62
   257
 93
        1
300
CONTENTFORMAT
  1
CONTENTFORMAT_BEGIN
 90
        0
 91
        0
 92
        4
 93
        0
300

 40
0.0
140
1.0
 94
        5
 62
     0
340
7
144
0.25
309
CONTENTFORMAT_END
171
     0
 94
        6
 95
        1
302
GRIDFORMAT
  1
GRIDFORMAT_BEGIN
 90
        0
 91
        1
 62
     0
 92
       -2
340
0
 93
        0
 40
0.045
309
GRIDFORMAT_END
 95
        2
302
GRIDFORMAT
  1
GRIDFORMAT_BEGIN
 90
        0
 91
        1
 62
     0
 92
       -2
340
0
 93
        0
 40
0.045
309
GRIDFORMAT_END
 95
        4
302
GRIDFORMAT
  1
GRIDFORMAT_BEGIN
 90
        0
 91
        1
 62
     0
 92
       -2
340
0
 93
        0
 40
0.045
309
GRIDFORMAT_END
 95
        8
302
GRIDFORMAT
  1
GRIDFORMAT_BEGIN
 90
        0
 91
        1
 62
     0
 92
       -2
340
0
 93
        0
 40
0.045
309
GRIDFORMAT_END
 95
       16
302
GRIDFORMAT
  1
GRIDFORMAT_BEGIN
 90
        0
 91
        1
 62
     0
 92
       -2
340
0
 93
        0
 40
0.045
309
GRIDFORMAT_END
 95
       32
302
GRIDFORMAT
  1
GRIDFORMAT_BEGIN
 90
        0
 91
        1
 62
     0
 92
       -2
340
0
 93
        0
 40
0.045
309
GRIDFORMAT_END
309
TABLEFORMAT_END
  1
CELLSTYLE_BEGIN
 90
        1
 91
        1
300
_TITLE
309
CELLSTYLE_END
300
CELLSTYLE
  1
TABLEFORMAT_BEGIN
 90
        5
170
     1
 91
        0
 92
        0
 62
   257
 93
        1
300
CONTENTFORMAT
  1
CONTENTFORMAT_BEGIN
 90
        0
 91
        0
 92
        4
 93
        0
300

 40
0.0
140
1.0
 94
        5
 62
     0
340
7
144
0.18
309
CONTENTFORMAT_END
171
     0
 94
        6
 95
        1
302
GRIDFORMAT
  1
GRIDFORMAT_BEGIN
 90
        0
 91
        1
 62
     0
 92
       -2
340
0
 93
        0
 40
0.045
309
GRIDFORMAT_END
 95
        2
302
GRIDFORMAT
  1
GRIDFORMAT_BEGIN
 90
        0
 91
        1
 62
     0
 92
       -2
340
0
 93
        0
 40
0.045
309
GRIDFORMAT_END
 95
        4
302
GRIDFORMAT
  1
GRIDFORMAT_BEGIN
 90
        0
 91
        1
 62
     0
 92
       -2
340
0
 93
        0
 40
0.045
309
GRIDFORMAT_END
 95
        8
302
GRIDFORMAT
  1
GRIDFORMAT_BEGIN
 90
        0
 91
        1
 62
     0
 92
       -2
340
0
 93
        0
 40
0.045
309
GRIDFORMAT_END
 95
       16
302
GRIDFORMAT
  1
GRIDFORMAT_BEGIN
 90
        0
 91
        1
 62
     0
 92
       -2
340
0
 93
        0
 40
0.045
309
GRIDFORMAT_END
 95
       32
302
GRIDFORMAT
  1
GRIDFORMAT_BEGIN
 90
        0
 91
        1
 62
     0
 92
       -2
340
0
 93
        0
 40
0.045
309
GRIDFORMAT_END
309
TABLEFORMAT_END
  1
CELLSTYLE_BEGIN
 90
        2
 91
        1
300
_HEADER
309
CELLSTYLE_END
300
CELLSTYLE
  1
TABLEFORMAT_BEGIN
 90
        5
170
     1
 91
        0
 92
        0
 62
   257
 93
        1
300
CONTENTFORMAT
  1
CONTENTFORMAT_BEGIN
 90
        0
 91
        0
 92
        4
 93
        0
300

 40
0.0
140
1.0
 94
        2
 62
     0
340
7
144
0.18
309
CONTENTFORMAT_END
171
     0
 94
        6
 95
        1
302
GRIDFORMAT
  1
GRIDFORMAT_BEGIN
 90
        0
 91
        1
 62
     0
 92
       -2
340
0
 93
        0
 40
0.045
309
GRIDFORMAT_END
 95
        2
302
GRIDFORMAT
  1
GRIDFORMAT_BEGIN
 90
        0
 91
        1
 62
     0
 92
       -2
340
0
 93
        0
 40
0.045
309
GRIDFORMAT_END
 95
        4
302
GRIDFORMAT
  1
GRIDFORMAT_BEGIN
 90
        0
 91
        1
 62
     0
 92
       -2
340
0
 93
        0
 40
0.045
309
GRIDFORMAT_END
 95
        8
302
GRIDFORMAT
  1
GRIDFORMAT_BEGIN
 90
        0
 91
        1
 62
     0
 92
       -2
340
0
 93
        0
 40
0.045
309
GRIDFORMAT_END
 95
       16
302
GRIDFORMAT
  1
GRIDFORMAT_BEGIN
 90
        0
 91
        1
 62
     0
 92
       -2
340
0
 93
        0
 40
0.045
309
GRIDFORMAT_END
 95
       32
302
GRIDFORMAT
  1
GRIDFORMAT_BEGIN
 90
        0
 91
        1
 62
     0
 92
       -2
340
0
 93
        0
 40
0.045
309
GRIDFORMAT_END
309
TABLEFORMAT_END
  1
CELLSTYLE_BEGIN
 90
        3
 91
        2
300
_DATA
309
CELLSTYLE_END
  0
XRECORD
  5
2C91
102
{ACAD_REACTORS
330
2C8B
102
}
330
2C8B
100
AcDbXrecord
280
     1
102
ACAD_ROUNDTRIP_PRE2007_TABLESTYLE
 90
        4
 91
        0
  1

 92
        4
 93
        0
  2

 94
        4
 95
        0
  3

  0
XRECORD
  5
2CA4
102
{ACAD_REACTORS
330
2CA3
102
}
330
2CA3
100
AcDbXrecord
280
     1
102
RTVSPropertyOp0
 70
     1
102
RTVSPropertyOp1
 70
     1
102
RTVSPropertyOp2
 70
     1
102
RTVSPropertyOp3
 70
     1
102
RTVSPropertyOp4
 70
     1
102
RTVSPropertyOp5
 70
     1
102
RTVSPropertyOp6
 70
     1
102
RTVSPropertyOp7
 70
     1
102
RTVSPropertyOp8
 70
     1
102
RTVSPropertyOp9
 70
     1
102
RTVSPropertyOp10
 70
     1
102
RTVSPropertyOp11
 70
     1
102
RTVSPropertyOp12
 70
     1
102
RTVSPropertyOp13
 70
     1
102
RTVSPropertyOp14
 70
     1
102
RTVSPropertyOp15
 70
     1
102
RTVSPropertyOp16
 70
     1
102
RTVSPropertyOp17
 70
     1
102
RTVSPropertyOp18
 70
     1
102
RTVSPropertyOp19
 70
     1
102
RTVSPropertyOp20
 70
     1
102
RTVSPropertyOp21
 70
     1
102
RTVSPropertyOp22
 70
     1
102
RTVSPropertyOp23
 70
     1
102
RTVSPropertyOp24
 70
     1
102
RTVSPropertyOp25
 70
     1
102
RTVSPropertyOp26
 70
     1
102
RTVSPropertyOp27
 70
     1
102
RTVSPropertyOp28
 70
     1
102
RTVSPropertyOp29
 70
     1
102
RTVSPropertyOp30
 70
     1
102
RTVSPropertyOp31
 70
     1
102
RTVSPropertyOp32
 70
     1
  0
XRECORD
  5
2CA2
102
{ACAD_REACTORS
330
2CA1
102
}
330
2CA1
100
AcDbXrecord
280
     1
102
RTVSPropertyOp0
 70
     1
102
RTVSPropertyOp1
 70
     1
102
RTVSPropertyOp2
 70
     1
102
RTVSPropertyOp3
 70
     1
102
RTVSPropertyOp4
 70
     1
102
RTVSPropertyOp5
 70
     1
102
RTVSPropertyOp6
 70
     1
102
RTVSPropertyOp7
 70
     1
102
RTVSPropertyOp8
 70
     1
102
RTVSPropertyOp9
 70
     1
102
RTVSPropertyOp10
 70
     1
102
RTVSPropertyOp11
 70
     1
102
RTVSPropertyOp12
 70
     1
102
RTVSPropertyOp13
 70
     1
102
RTVSPropertyOp14
 70
     1
102
RTVSPropertyOp15
 70
     1
102
RTVSPropertyOp16
 70
     1
102
RTVSPropertyOp17
 70
     1
102
RTVSPropertyOp18
 70
     1
102
RTVSPropertyOp19
 70
     1
102
RTVSPropertyOp20
 70
     1
102
RTVSPropertyOp21
 70
     1
102
RTVSPropertyOp22
 70
     1
102
RTVSPropertyOp23
 70
     1
102
RTVSPropertyOp24
 70
     1
102
RTVSPropertyOp25
 70
     1
102
RTVSPropertyOp26
 70
     1
102
RTVSPropertyOp27
 70
     1
102
RTVSPropertyOp28
 70
     1
102
RTVSPropertyOp29
 70
     1
102
RTVSPropertyOp30
 70
     1
102
RTVSPropertyOp31
 70
     1
102
RTVSPropertyOp32
 70
     1
  0
XRECORD
  5
2CB0
102
{ACAD_REACTORS
330
2CAF
102
}
330
2CAF
100
AcDbXrecord
280
     1
102
RTVSPropertyOp0
 70
     1
102
RTVSPropertyOp1
 70
     1
102
RTVSPropertyOp2
 70
     1
102
RTVSPropertyOp3
 70
     1
102
RTVSPropertyOp4
 70
     1
102
RTVSPropertyOp5
 70
     1
102
RTVSPropertyOp6
 70
     1
102
RTVSPropertyOp7
 70
     1
102
RTVSPropertyOp8
 70
     1
102
RTVSPropertyOp9
 70
     1
102
RTVSPropertyOp10
 70
     1
102
RTVSPropertyOp11
 70
     1
102
RTVSPropertyOp12
 70
     1
102
RTVSPropertyOp13
 70
     1
102
RTVSPropertyOp14
 70
     1
102
RTVSPropertyOp15
 70
     1
102
RTVSPropertyOp16
 70
     1
102
RTVSPropertyOp17
 70
     1
102
RTVSPropertyOp18
 70
     1
102
RTVSPropertyOp19
 70
     1
102
RTVSPropertyOp20
 70
     1
102
RTVSPropertyOp21
 70
     1
102
RTVSPropertyOp22
 70
     1
102
RTVSPropertyOp23
 70
     1
102
RTVSPropertyOp24
 70
     1
102
RTVSPropertyOp25
 70
     1
102
RTVSPropertyOp26
 70
     1
102
RTVSPropertyOp27
 70
     1
102
RTVSPropertyOp28
 70
     1
102
RTVSPropertyOp29
 70
     1
102
RTVSPropertyOp30
 70
     1
102
RTVSPropertyOp31
 70
     1
102
RTVSPropertyOp32
 70
     1
  0
XRECORD
  5
2CB8
102
{ACAD_REACTORS
330
2CB7
102
}
330
2CB7
100
AcDbXrecord
280
     1
102
RTVSPropertyOp0
 70
     1
102
RTVSPropertyOp1
 70
     1
102
RTVSPropertyOp2
 70
     1
102
RTVSPropertyOp3
 70
     1
102
RTVSPropertyOp4
 70
     1
102
RTVSPropertyOp5
 70
     1
102
RTVSPropertyOp6
 70
     1
102
RTVSPropertyOp7
 70
     1
102
RTVSPropertyOp8
 70
     1
102
RTVSPropertyOp9
 70
     1
102
RTVSPropertyOp10
 70
     1
102
RTVSPropertyOp11
 70
     1
102
RTVSPropertyOp12
 70
     1
102
RTVSPropertyOp13
 70
     1
102
RTVSPropertyOp14
 70
     1
102
RTVSPropertyOp15
 70
     1
102
RTVSPropertyOp16
 70
     1
102
RTVSPropertyOp17
 70
     1
102
RTVSPropertyOp18
 70
     1
102
RTVSPropertyOp19
 70
     1
102
RTVSPropertyOp20
 70
     1
102
RTVSPropertyOp21
 70
     1
102
RTVSPropertyOp22
 70
     1
102
RTVSPropertyOp23
 70
     1
102
RTVSPropertyOp24
 70
     1
102
RTVSPropertyOp25
 70
     1
102
RTVSPropertyOp26
 70
     1
102
RTVSPropertyOp27
 70
     1
102
RTVSPropertyOp28
 70
     1
102
RTVSPropertyOp29
 70
     1
102
RTVSPropertyOp30
 70
     1
102
RTVSPropertyOp31
 70
     1
102
RTVSPropertyOp32
 70
     1
  0
XRECORD
  5
2CAA
102
{ACAD_REACTORS
330
2CA9
102
}
330
2CA9
100
AcDbXrecord
280
     1
102
RTVSPropertyOp0
 70
     1
102
RTVSPropertyOp1
 70
     1
102
RTVSPropertyOp2
 70
     1
102
RTVSPropertyOp3
 70
     1
102
RTVSPropertyOp4
 70
     1
102
RTVSPropertyOp5
 70
     1
102
RTVSPropertyOp6
 70
     1
102
RTVSPropertyOp7
 70
     1
102
RTVSPropertyOp8
 70
     1
102
RTVSPropertyOp9
 70
     1
102
RTVSPropertyOp10
 70
     1
102
RTVSPropertyOp11
 70
     1
102
RTVSPropertyOp12
 70
     1
102
RTVSPropertyOp13
 70
     1
102
RTVSPropertyOp14
 70
     1
102
RTVSPropertyOp15
 70
     1
102
RTVSPropertyOp16
 70
     1
102
RTVSPropertyOp17
 70
     1
102
RTVSPropertyOp18
 70
     1
102
RTVSPropertyOp19
 70
     1
102
RTVSPropertyOp20
 70
     1
102
RTVSPropertyOp21
 70
     1
102
RTVSPropertyOp22
 70
     1
102
RTVSPropertyOp23
 70
     1
102
RTVSPropertyOp24
 70
     1
102
RTVSPropertyOp25
 70
     1
102
RTVSPropertyOp26
 70
     1
102
RTVSPropertyOp27
 70
     1
102
RTVSPropertyOp28
 70
     1
102
RTVSPropertyOp29
 70
     1
102
RTVSPropertyOp30
 70
     1
102
RTVSPropertyOp31
 70
     1
102
RTVSPropertyOp32
 70
     1
  0
XRECORD
  5
2CAE
102
{ACAD_REACTORS
330
2CAD
102
}
330
2CAD
100
AcDbXrecord
280
     1
102
RTVSPropertyOp0
 70
     1
102
RTVSPropertyOp1
 70
     1
102
RTVSPropertyOp2
 70
     1
102
RTVSPropertyOp3
 70
     1
102
RTVSPropertyOp4
 70
     1
102
RTVSPropertyOp5
 70
     1
102
RTVSPropertyOp6
 70
     1
102
RTVSPropertyOp7
 70
     1
102
RTVSPropertyOp8
 70
     1
102
RTVSPropertyOp9
 70
     1
102
RTVSPropertyOp10
 70
     1
102
RTVSPropertyOp11
 70
     1
102
RTVSPropertyOp12
 70
     1
102
RTVSPropertyOp13
 70
     1
102
RTVSPropertyOp14
 70
     1
102
RTVSPropertyOp15
 70
     1
102
RTVSPropertyOp16
 70
     1
102
RTVSPropertyOp17
 70
     1
102
RTVSPropertyOp18
 70
     1
102
RTVSPropertyOp19
 70
     1
102
RTVSPropertyOp20
 70
     1
102
RTVSPropertyOp21
 70
     1
102
RTVSPropertyOp22
 70
     1
102
RTVSPropertyOp23
 70
     1
102
RTVSPropertyOp24
 70
     1
102
RTVSPropertyOp25
 70
     1
102
RTVSPropertyOp26
 70
     1
102
RTVSPropertyOp27
 70
     1
102
RTVSPropertyOp28
 70
     1
102
RTVSPropertyOp29
 70
     1
102
RTVSPropertyOp30
 70
     1
102
RTVSPropertyOp31
 70
     1
102
RTVSPropertyOp32
 70
     1
  0
XRECORD
  5
2CC8
102
{ACAD_REACTORS
330
2CC7
102
}
330
2CC7
100
AcDbXrecord
280
     1
102
RTVSPropertyOp0
 70
     0
102
RTVSPropertyOp1
 70
     0
102
RTVSPropertyOp2
 70
     0
102
RTVSPropertyOp3
 70
     0
102
RTVSPropertyOp4
 70
     0
102
RTVSPropertyOp5
 70
     0
102
RTVSPropertyOp6
 70
     0
102
RTVSPropertyOp7
 70
     0
102
RTVSPropertyOp8
 70
     0
102
RTVSPropertyOp9
 70
     0
102
RTVSPropertyOp10
 70
     0
102
RTVSPropertyOp11
 70
     0
102
RTVSPropertyOp12
 70
     0
102
RTVSPropertyOp13
 70
     0
102
RTVSPropertyOp14
 70
     2
102
RTVSPropertyOp15
 70
     0
102
RTVSPropertyOp16
 70
     0
102
RTVSPropertyOp17
 70
     0
102
RTVSPropertyOp18
 70
     0
102
RTVSPropertyOp19
 70
     0
102
RTVSPropertyOp20
 70
     0
102
RTVSPropertyOp21
 70
     0
102
RTVSPropertyOp22
 70
     0
102
RTVSPropertyOp23
 70
     0
102
RTVSPropertyOp24
 70
     0
102
RTVSPropertyOp25
 70
     0
102
RTVSPropertyOp26
 70
     0
102
RTVSPropertyOp27
 70
     0
102
RTVSPropertyOp28
 70
     0
102
RTVSPropertyOp29
 70
     0
102
RTVSPropertyOp30
 70
     0
102
RTVSPropertyOp31
 70
     0
102
RTVSPropertyOp32
 70
     0
  0
XRECORD
  5
2CB6
102
{ACAD_REACTORS
330
2CB5
102
}
330
2CB5
100
AcDbXrecord
280
     1
102
RTVSPropertyOp0
 70
     1
102
RTVSPropertyOp1
 70
     1
102
RTVSPropertyOp2
 70
     1
102
RTVSPropertyOp3
 70
     1
102
RTVSPropertyOp4
 70
     1
102
RTVSPropertyOp5
 70
     1
102
RTVSPropertyOp6
 70
     1
102
RTVSPropertyOp7
 70
     1
102
RTVSPropertyOp8
 70
     1
102
RTVSPropertyOp9
 70
     1
102
RTVSPropertyOp10
 70
     1
102
RTVSPropertyOp11
 70
     1
102
RTVSPropertyOp12
 70
     1
102
RTVSPropertyOp13
 70
     1
102
RTVSPropertyOp14
 70
     1
102
RTVSPropertyOp15
 70
     1
102
RTVSPropertyOp16
 70
     1
102
RTVSPropertyOp17
 70
     1
102
RTVSPropertyOp18
 70
     1
102
RTVSPropertyOp19
 70
     1
102
RTVSPropertyOp20
 70
     1
102
RTVSPropertyOp21
 70
     1
102
RTVSPropertyOp22
 70
     1
102
RTVSPropertyOp23
 70
     1
102
RTVSPropertyOp24
 70
     1
102
RTVSPropertyOp25
 70
     1
102
RTVSPropertyOp26
 70
     1
102
RTVSPropertyOp27
 70
     1
102
RTVSPropertyOp28
 70
     1
102
RTVSPropertyOp29
 70
     1
102
RTVSPropertyOp30
 70
     1
102
RTVSPropertyOp31
 70
     1
102
RTVSPropertyOp32
 70
     1
  0
XRECORD
  5
2C9A
102
{ACAD_REACTORS
330
2C99
102
}
330
2C99
100
AcDbXrecord
280
     1
102
RTVSPropertyOp0
 70
     1
102
RTVSPropertyOp1
 70
     1
102
RTVSPropertyOp2
 70
     1
102
RTVSPropertyOp3
 70
     1
102
RTVSPropertyOp4
 70
     1
102
RTVSPropertyOp5
 70
     1
102
RTVSPropertyOp6
 70
     1
102
RTVSPropertyOp7
 70
     1
102
RTVSPropertyOp8
 70
     1
102
RTVSPropertyOp9
 70
     1
102
RTVSPropertyOp10
 70
     1
102
RTVSPropertyOp11
 70
     1
102
RTVSPropertyOp12
 70
     1
102
RTVSPropertyOp13
 70
     1
102
RTVSPropertyOp14
 70
     1
102
RTVSPropertyOp15
 70
     1
102
RTVSPropertyOp16
 70
     1
102
RTVSPropertyOp17
 70
     1
102
RTVSPropertyOp18
 70
     1
102
RTVSPropertyOp19
 70
     1
102
RTVSPropertyOp20
 70
     1
102
RTVSPropertyOp21
 70
     1
102
RTVSPropertyOp22
 70
     1
102
RTVSPropertyOp23
 70
     1
102
RTVSPropertyOp24
 70
     1
102
RTVSPropertyOp25
 70
     1
102
RTVSPropertyOp26
 70
     1
102
RTVSPropertyOp27
 70
     1
102
RTVSPropertyOp28
 70
     1
102
RTVSPropertyOp29
 70
     1
102
RTVSPropertyOp30
 70
     1
102
RTVSPropertyOp31
 70
     1
102
RTVSPropertyOp32
 70
     1
  0
XRECORD
  5
2C9C
102
{ACAD_REACTORS
330
2C9B
102
}
330
2C9B
100
AcDbXrecord
280
     1
102
RTVSPropertyOp0
 70
     1
102
RTVSPropertyOp1
 70
     1
102
RTVSPropertyOp2
 70
     1
102
RTVSPropertyOp3
 70
     1
102
RTVSPropertyOp4
 70
     1
102
RTVSPropertyOp5
 70
     1
102
RTVSPropertyOp6
 70
     1
102
RTVSPropertyOp7
 70
     1
102
RTVSPropertyOp8
 70
     1
102
RTVSPropertyOp9
 70
     1
102
RTVSPropertyOp10
 70
     1
102
RTVSPropertyOp11
 70
     1
102
RTVSPropertyOp12
 70
     1
102
RTVSPropertyOp13
 70
     1
102
RTVSPropertyOp14
 70
     1
102
RTVSPropertyOp15
 70
     1
102
RTVSPropertyOp16
 70
     1
102
RTVSPropertyOp17
 70
     1
102
RTVSPropertyOp18
 70
     1
102
RTVSPropertyOp19
 70
     1
102
RTVSPropertyOp20
 70
     1
102
RTVSPropertyOp21
 70
     1
102
RTVSPropertyOp22
 70
     1
102
RTVSPropertyOp23
 70
     1
102
RTVSPropertyOp24
 70
     1
102
RTVSPropertyOp25
 70
     1
102
RTVSPropertyOp26
 70
     1
102
RTVSPropertyOp27
 70
     1
102
RTVSPropertyOp28
 70
     1
102
RTVSPropertyOp29
 70
     1
102
RTVSPropertyOp30
 70
     1
102
RTVSPropertyOp31
 70
     1
102
RTVSPropertyOp32
 70
     1
  0
XRECORD
  5
2C9E
102
{ACAD_REACTORS
330
2C9D
102
}
330
2C9D
100
AcDbXrecord
280
     1
102
RTVSPropertyOp0
 70
     1
102
RTVSPropertyOp1
 70
     1
102
RTVSPropertyOp2
 70
     1
102
RTVSPropertyOp3
 70
     1
102
RTVSPropertyOp4
 70
     1
102
RTVSPropertyOp5
 70
     1
102
RTVSPropertyOp6
 70
     1
102
RTVSPropertyOp7
 70
     1
102
RTVSPropertyOp8
 70
     1
102
RTVSPropertyOp9
 70
     1
102
RTVSPropertyOp10
 70
     1
102
RTVSPropertyOp11
 70
     1
102
RTVSPropertyOp12
 70
     1
102
RTVSPropertyOp13
 70
     1
102
RTVSPropertyOp14
 70
     1
102
RTVSPropertyOp15
 70
     1
102
RTVSPropertyOp16
 70
     1
102
RTVSPropertyOp17
 70
     1
102
RTVSPropertyOp18
 70
     1
102
RTVSPropertyOp19
 70
     1
102
RTVSPropertyOp20
 70
     1
102
RTVSPropertyOp21
 70
     1
102
RTVSPropertyOp22
 70
     1
102
RTVSPropertyOp23
 70
     1
102
RTVSPropertyOp24
 70
     1
102
RTVSPropertyOp25
 70
     1
102
RTVSPropertyOp26
 70
     1
102
RTVSPropertyOp27
 70
     1
102
RTVSPropertyOp28
 70
     1
102
RTVSPropertyOp29
 70
     1
102
RTVSPropertyOp30
 70
     1
102
RTVSPropertyOp31
 70
     1
102
RTVSPropertyOp32
 70
     1
  0
XRECORD
  5
2CA0
102
{ACAD_REACTORS
330
2C9F
102
}
330
2C9F
100
AcDbXrecord
280
     1
102
RTVSPropertyOp0
 70
     1
102
RTVSPropertyOp1
 70
     1
102
RTVSPropertyOp2
 70
     1
102
RTVSPropertyOp3
 70
     1
102
RTVSPropertyOp4
 70
     1
102
RTVSPropertyOp5
 70
     1
102
RTVSPropertyOp6
 70
     1
102
RTVSPropertyOp7
 70
     1
102
RTVSPropertyOp8
 70
     1
102
RTVSPropertyOp9
 70
     1
102
RTVSPropertyOp10
 70
     1
102
RTVSPropertyOp11
 70
     1
102
RTVSPropertyOp12
 70
     1
102
RTVSPropertyOp13
 70
     1
102
RTVSPropertyOp14
 70
     1
102
RTVSPropertyOp15
 70
     1
102
RTVSPropertyOp16
 70
     1
102
RTVSPropertyOp17
 70
     1
102
RTVSPropertyOp18
 70
     1
102
RTVSPropertyOp19
 70
     1
102
RTVSPropertyOp20
 70
     1
102
RTVSPropertyOp21
 70
     1
102
RTVSPropertyOp22
 70
     1
102
RTVSPropertyOp23
 70
     1
102
RTVSPropertyOp24
 70
     1
102
RTVSPropertyOp25
 70
     1
102
RTVSPropertyOp26
 70
     1
102
RTVSPropertyOp27
 70
     1
102
RTVSPropertyOp28
 70
     1
102
RTVSPropertyOp29
 70
     1
102
RTVSPropertyOp30
 70
     1
102
RTVSPropertyOp31
 70
     1
102
RTVSPropertyOp32
 70
     1
  0
XRECORD
  5
2CA8
102
{ACAD_REACTORS
330
2CA7
102
}
330
2CA7
100
AcDbXrecord
280
     1
102
RTVSPropertyOp0
 70
     1
102
RTVSPropertyOp1
 70
     1
102
RTVSPropertyOp2
 70
     1
102
RTVSPropertyOp3
 70
     1
102
RTVSPropertyOp4
 70
     1
102
RTVSPropertyOp5
 70
     1
102
RTVSPropertyOp6
 70
     1
102
RTVSPropertyOp7
 70
     1
102
RTVSPropertyOp8
 70
     1
102
RTVSPropertyOp9
 70
     1
102
RTVSPropertyOp10
 70
     1
102
RTVSPropertyOp11
 70
     1
102
RTVSPropertyOp12
 70
     1
102
RTVSPropertyOp13
 70
     1
102
RTVSPropertyOp14
 70
     1
102
RTVSPropertyOp15
 70
     1
102
RTVSPropertyOp16
 70
     1
102
RTVSPropertyOp17
 70
     1
102
RTVSPropertyOp18
 70
     1
102
RTVSPropertyOp19
 70
     1
102
RTVSPropertyOp20
 70
     1
102
RTVSPropertyOp21
 70
     1
102
RTVSPropertyOp22
 70
     1
102
RTVSPropertyOp23
 70
     1
102
RTVSPropertyOp24
 70
     1
102
RTVSPropertyOp25
 70
     1
102
RTVSPropertyOp26
 70
     1
102
RTVSPropertyOp27
 70
     1
102
RTVSPropertyOp28
 70
     1
102
RTVSPropertyOp29
 70
     1
102
RTVSPropertyOp30
 70
     1
102
RTVSPropertyOp31
 70
     1
102
RTVSPropertyOp32
 70
     1
  0
XRECORD
  5
2CC4
102
{ACAD_REACTORS
330
2CC3
102
}
330
2CC3
100
AcDbXrecord
280
     1
102
RTVSPropertyOp0
 70
     0
102
RTVSPropertyOp1
 70
     0
102
RTVSPropertyOp2
 70
     0
102
RTVSPropertyOp3
 70
     0
102
RTVSPropertyOp4
 70
     0
102
RTVSPropertyOp5
 70
     0
102
RTVSPropertyOp6
 70
     0
102
RTVSPropertyOp7
 70
     0
102
RTVSPropertyOp8
 70
     0
102
RTVSPropertyOp9
 70
     0
102
RTVSPropertyOp10
 70
     0
102
RTVSPropertyOp11
 70
     0
102
RTVSPropertyOp12
 70
     0
102
RTVSPropertyOp13
 70
     0
102
RTVSPropertyOp14
 70
     2
102
RTVSPropertyOp15
 70
     0
102
RTVSPropertyOp16
 70
     0
102
RTVSPropertyOp17
 70
     0
102
RTVSPropertyOp18
 70
     0
102
RTVSPropertyOp19
 70
     0
102
RTVSPropertyOp20
 70
     0
102
RTVSPropertyOp21
 70
     0
102
RTVSPropertyOp22
 70
     0
102
RTVSPropertyOp23
 70
     0
102
RTVSPropertyOp24
 70
     0
102
RTVSPropertyOp25
 70
     0
102
RTVSPropertyOp26
 70
     0
102
RTVSPropertyOp27
 70
     0
102
RTVSPropertyOp28
 70
     0
102
RTVSPropertyOp29
 70
     0
102
RTVSPropertyOp30
 70
     0
102
RTVSPropertyOp31
 70
     0
102
RTVSPropertyOp32
 70
     0
  0
XRECORD
  5
2CB4
102
{ACAD_REACTORS
330
2CB3
102
}
330
2CB3
100
AcDbXrecord
280
     1
102
RTVSPropertyOp0
 70
     1
102
RTVSPropertyOp1
 70
     1
102
RTVSPropertyOp2
 70
     1
102
RTVSPropertyOp3
 70
     1
102
RTVSPropertyOp4
 70
     1
102
RTVSPropertyOp5
 70
     1
102
RTVSPropertyOp6
 70
     1
102
RTVSPropertyOp7
 70
     1
102
RTVSPropertyOp8
 70
     1
102
RTVSPropertyOp9
 70
     1
102
RTVSPropertyOp10
 70
     1
102
RTVSPropertyOp11
 70
     1
102
RTVSPropertyOp12
 70
     1
102
RTVSPropertyOp13
 70
     1
102
RTVSPropertyOp14
 70
     1
102
RTVSPropertyOp15
 70
     1
102
RTVSPropertyOp16
 70
     1
102
RTVSPropertyOp17
 70
     1
102
RTVSPropertyOp18
 70
     1
102
RTVSPropertyOp19
 70
     1
102
RTVSPropertyOp20
 70
     1
102
RTVSPropertyOp21
 70
     1
102
RTVSPropertyOp22
 70
     1
102
RTVSPropertyOp23
 70
     1
102
RTVSPropertyOp24
 70
     1
102
RTVSPropertyOp25
 70
     1
102
RTVSPropertyOp26
 70
     1
102
RTVSPropertyOp27
 70
     1
102
RTVSPropertyOp28
 70
     1
102
RTVSPropertyOp29
 70
     1
102
RTVSPropertyOp30
 70
     1
102
RTVSPropertyOp31
 70
     1
102
RTVSPropertyOp32
 70
     1
  0
XRECORD
  5
2CC6
102
{ACAD_REACTORS
330
2CC5
102
}
330
2CC5
100
AcDbXrecord
280
     1
102
RTVSPropertyOp0
 70
     0
102
RTVSPropertyOp1
 70
     0
102
RTVSPropertyOp2
 70
     0
102
RTVSPropertyOp3
 70
     0
102
RTVSPropertyOp4
 70
     0
102
RTVSPropertyOp5
 70
     0
102
RTVSPropertyOp6
 70
     0
102
RTVSPropertyOp7
 70
     0
102
RTVSPropertyOp8
 70
     0
102
RTVSPropertyOp9
 70
     0
102
RTVSPropertyOp10
 70
     0
102
RTVSPropertyOp11
 70
     0
102
RTVSPropertyOp12
 70
     0
102
RTVSPropertyOp13
 70
     0
102
RTVSPropertyOp14
 70
     2
102
RTVSPropertyOp15
 70
     0
102
RTVSPropertyOp16
 70
     0
102
RTVSPropertyOp17
 70
     0
102
RTVSPropertyOp18
 70
     0
102
RTVSPropertyOp19
 70
     0
102
RTVSPropertyOp20
 70
     0
102
RTVSPropertyOp21
 70
     0
102
RTVSPropertyOp22
 70
     0
102
RTVSPropertyOp23
 70
     0
102
RTVSPropertyOp24
 70
     0
102
RTVSPropertyOp25
 70
     0
102
RTVSPropertyOp26
 70
     0
102
RTVSPropertyOp27
 70
     0
102
RTVSPropertyOp28
 70
     0
102
RTVSPropertyOp29
 70
     0
102
RTVSPropertyOp30
 70
     0
102
RTVSPropertyOp31
 70
     0
102
RTVSPropertyOp32
 70
     0
  0
XRECORD
  5
2CAC
102
{ACAD_REACTORS
330
2CAB
102
}
330
2CAB
100
AcDbXrecord
280
     1
102
RTVSPropertyOp0
 70
     1
102
RTVSPropertyOp1
 70
     1
102
RTVSPropertyOp2
 70
     1
102
RTVSPropertyOp3
 70
     1
102
RTVSPropertyOp4
 70
     1
102
RTVSPropertyOp5
 70
     1
102
RTVSPropertyOp6
 70
     1
102
RTVSPropertyOp7
 70
     1
102
RTVSPropertyOp8
 70
     1
102
RTVSPropertyOp9
 70
     1
102
RTVSPropertyOp10
 70
     1
102
RTVSPropertyOp11
 70
     1
102
RTVSPropertyOp12
 70
     1
102
RTVSPropertyOp13
 70
     1
102
RTVSPropertyOp14
 70
     1
102
RTVSPropertyOp15
 70
     1
102
RTVSPropertyOp16
 70
     1
102
RTVSPropertyOp17
 70
     1
102
RTVSPropertyOp18
 70
     1
102
RTVSPropertyOp19
 70
     1
102
RTVSPropertyOp20
 70
     1
102
RTVSPropertyOp21
 70
     1
102
RTVSPropertyOp22
 70
     1
102
RTVSPropertyOp23
 70
     1
102
RTVSPropertyOp24
 70
     1
102
RTVSPropertyOp25
 70
     1
102
RTVSPropertyOp26
 70
     1
102
RTVSPropertyOp27
 70
     1
102
RTVSPropertyOp28
 70
     1
102
RTVSPropertyOp29
 70
     1
102
RTVSPropertyOp30
 70
     1
102
RTVSPropertyOp31
 70
     1
102
RTVSPropertyOp32
 70
     1
  0
XRECORD
  5
2CC2
102
{ACAD_REACTORS
330
2CC1
102
}
330
2CC1
100
AcDbXrecord
280
     1
102
RTVSPropertyOp0
 70
     1
102
RTVSPropertyOp1
 70
     1
102
RTVSPropertyOp2
 70
     1
102
RTVSPropertyOp3
 70
     1
102
RTVSPropertyOp4
 70
     1
102
RTVSPropertyOp5
 70
     1
102
RTVSPropertyOp6
 70
     1
102
RTVSPropertyOp7
 70
     1
102
RTVSPropertyOp8
 70
     1
102
RTVSPropertyOp9
 70
     1
102
RTVSPropertyOp10
 70
     1
102
RTVSPropertyOp11
 70
     1
102
RTVSPropertyOp12
 70
     1
102
RTVSPropertyOp13
 70
     1
102
RTVSPropertyOp14
 70
     1
102
RTVSPropertyOp15
 70
     1
102
RTVSPropertyOp16
 70
     1
102
RTVSPropertyOp17
 70
     1
102
RTVSPropertyOp18
 70
     1
102
RTVSPropertyOp19
 70
     1
102
RTVSPropertyOp20
 70
     1
102
RTVSPropertyOp21
 70
     1
102
RTVSPropertyOp22
 70
     1
102
RTVSPropertyOp23
 70
     1
102
RTVSPropertyOp24
 70
     1
102
RTVSPropertyOp25
 70
     1
102
RTVSPropertyOp26
 70
     1
102
RTVSPropertyOp27
 70
     1
102
RTVSPropertyOp28
 70
     1
102
RTVSPropertyOp29
 70
     1
102
RTVSPropertyOp30
 70
     1
102
RTVSPropertyOp31
 70
     1
102
RTVSPropertyOp32
 70
     1
  0
XRECORD
  5
2CC0
102
{ACAD_REACTORS
330
2CBF
102
}
330
2CBF
100
AcDbXrecord
280
     1
102
RTVSPropertyOp0
 70
     1
102
RTVSPropertyOp1
 70
     1
102
RTVSPropertyOp2
 70
     1
102
RTVSPropertyOp3
 70
     1
102
RTVSPropertyOp4
 70
     1
102
RTVSPropertyOp5
 70
     1
102
RTVSPropertyOp6
 70
     1
102
RTVSPropertyOp7
 70
     1
102
RTVSPropertyOp8
 70
     1
102
RTVSPropertyOp9
 70
     1
102
RTVSPropertyOp10
 70
     1
102
RTVSPropertyOp11
 70
     1
102
RTVSPropertyOp12
 70
     1
102
RTVSPropertyOp13
 70
     1
102
RTVSPropertyOp14
 70
     1
102
RTVSPropertyOp15
 70
     1
102
RTVSPropertyOp16
 70
     1
102
RTVSPropertyOp17
 70
     1
102
RTVSPropertyOp18
 70
     1
102
RTVSPropertyOp19
 70
     1
102
RTVSPropertyOp20
 70
     1
102
RTVSPropertyOp21
 70
     1
102
RTVSPropertyOp22
 70
     1
102
RTVSPropertyOp23
 70
     1
102
RTVSPropertyOp24
 70
     1
102
RTVSPropertyOp25
 70
     1
102
RTVSPropertyOp26
 70
     1
102
RTVSPropertyOp27
 70
     1
102
RTVSPropertyOp28
 70
     1
102
RTVSPropertyOp29
 70
     1
102
RTVSPropertyOp30
 70
     1
102
RTVSPropertyOp31
 70
     1
102
RTVSPropertyOp32
 70
     1
  0
XRECORD
  5
2CBA
102
{ACAD_REACTORS
330
2CB9
102
}
330
2CB9
100
AcDbXrecord
280
     1
102
RTVSPropertyOp0
 70
     1
102
RTVSPropertyOp1
 70
     1
102
RTVSPropertyOp2
 70
     1
102
RTVSPropertyOp3
 70
     1
102
RTVSPropertyOp4
 70
     1
102
RTVSPropertyOp5
 70
     1
102
RTVSPropertyOp6
 70
     1
102
RTVSPropertyOp7
 70
     1
102
RTVSPropertyOp8
 70
     1
102
RTVSPropertyOp9
 70
     1
102
RTVSPropertyOp10
 70
     1
102
RTVSPropertyOp11
 70
     1
102
RTVSPropertyOp12
 70
     1
102
RTVSPropertyOp13
 70
     1
102
RTVSPropertyOp14
 70
     1
102
RTVSPropertyOp15
 70
     1
102
RTVSPropertyOp16
 70
     1
102
RTVSPropertyOp17
 70
     1
102
RTVSPropertyOp18
 70
     1
102
RTVSPropertyOp19
 70
     1
102
RTVSPropertyOp20
 70
     1
102
RTVSPropertyOp21
 70
     1
102
RTVSPropertyOp22
 70
     1
102
RTVSPropertyOp23
 70
     1
102
RTVSPropertyOp24
 70
     1
102
RTVSPropertyOp25
 70
     1
102
RTVSPropertyOp26
 70
     1
102
RTVSPropertyOp27
 70
     1
102
RTVSPropertyOp28
 70
     1
102
RTVSPropertyOp29
 70
     1
102
RTVSPropertyOp30
 70
     1
102
RTVSPropertyOp31
 70
     1
102
RTVSPropertyOp32
 70
     1
  0
XRECORD
  5
2CBC
102
{ACAD_REACTORS
330
2CBB
102
}
330
2CBB
100
AcDbXrecord
280
     1
102
RTVSPropertyOp0
 70
     1
102
RTVSPropertyOp1
 70
     1
102
RTVSPropertyOp2
 70
     1
102
RTVSPropertyOp3
 70
     1
102
RTVSPropertyOp4
 70
     1
102
RTVSPropertyOp5
 70
     1
102
RTVSPropertyOp6
 70
     1
102
RTVSPropertyOp7
 70
     1
102
RTVSPropertyOp8
 70
     1
102
RTVSPropertyOp9
 70
     1
102
RTVSPropertyOp10
 70
     1
102
RTVSPropertyOp11
 70
     1
102
RTVSPropertyOp12
 70
     1
102
RTVSPropertyOp13
 70
     1
102
RTVSPropertyOp14
 70
     1
102
RTVSPropertyOp15
 70
     1
102
RTVSPropertyOp16
 70
     1
102
RTVSPropertyOp17
 70
     1
102
RTVSPropertyOp18
 70
     1
102
RTVSPropertyOp19
 70
     1
102
RTVSPropertyOp20
 70
     1
102
RTVSPropertyOp21
 70
     1
102
RTVSPropertyOp22
 70
     1
102
RTVSPropertyOp23
 70
     1
102
RTVSPropertyOp24
 70
     1
102
RTVSPropertyOp25
 70
     1
102
RTVSPropertyOp26
 70
     1
102
RTVSPropertyOp27
 70
     1
102
RTVSPropertyOp28
 70
     1
102
RTVSPropertyOp29
 70
     1
102
RTVSPropertyOp30
 70
     1
102
RTVSPropertyOp31
 70
     1
102
RTVSPropertyOp32
 70
     1
  0
XRECORD
  5
2CB2
102
{ACAD_REACTORS
330
2CB1
102
}
330
2CB1
100
AcDbXrecord
280
     1
102
RTVSPropertyOp0
 70
     1
102
RTVSPropertyOp1
 70
     1
102
RTVSPropertyOp2
 70
     1
102
RTVSPropertyOp3
 70
     1
102
RTVSPropertyOp4
 70
     1
102
RTVSPropertyOp5
 70
     1
102
RTVSPropertyOp6
 70
     1
102
RTVSPropertyOp7
 70
     1
102
RTVSPropertyOp8
 70
     1
102
RTVSPropertyOp9
 70
     1
102
RTVSPropertyOp10
 70
     1
102
RTVSPropertyOp11
 70
     1
102
RTVSPropertyOp12
 70
     1
102
RTVSPropertyOp13
 70
     1
102
RTVSPropertyOp14
 70
     1
102
RTVSPropertyOp15
 70
     1
102
RTVSPropertyOp16
 70
     1
102
RTVSPropertyOp17
 70
     1
102
RTVSPropertyOp18
 70
     1
102
RTVSPropertyOp19
 70
     1
102
RTVSPropertyOp20
 70
     1
102
RTVSPropertyOp21
 70
     1
102
RTVSPropertyOp22
 70
     1
102
RTVSPropertyOp23
 70
     1
102
RTVSPropertyOp24
 70
     1
102
RTVSPropertyOp25
 70
     1
102
RTVSPropertyOp26
 70
     1
102
RTVSPropertyOp27
 70
     1
102
RTVSPropertyOp28
 70
     1
102
RTVSPropertyOp29
 70
     1
102
RTVSPropertyOp30
 70
     1
102
RTVSPropertyOp31
 70
     1
102
RTVSPropertyOp32
 70
     1
  0
XRECORD
  5
2CA6
102
{ACAD_REACTORS
330
2CA5
102
}
330
2CA5
100
AcDbXrecord
280
     1
102
RTVSPropertyOp0
 70
     1
102
RTVSPropertyOp1
 70
     1
102
RTVSPropertyOp2
 70
     1
102
RTVSPropertyOp3
 70
     1
102
RTVSPropertyOp4
 70
     1
102
RTVSPropertyOp5
 70
     1
102
RTVSPropertyOp6
 70
     1
102
RTVSPropertyOp7
 70
     1
102
RTVSPropertyOp8
 70
     1
102
RTVSPropertyOp9
 70
     1
102
RTVSPropertyOp10
 70
     1
102
RTVSPropertyOp11
 70
     1
102
RTVSPropertyOp12
 70
     1
102
RTVSPropertyOp13
 70
     1
102
RTVSPropertyOp14
 70
     1
102
RTVSPropertyOp15
 70
     1
102
RTVSPropertyOp16
 70
     1
102
RTVSPropertyOp17
 70
     1
102
RTVSPropertyOp18
 70
     1
102
RTVSPropertyOp19
 70
     1
102
RTVSPropertyOp20
 70
     1
102
RTVSPropertyOp21
 70
     1
102
RTVSPropertyOp22
 70
     1
102
RTVSPropertyOp23
 70
     1
102
RTVSPropertyOp24
 70
     1
102
RTVSPropertyOp25
 70
     1
102
RTVSPropertyOp26
 70
     1
102
RTVSPropertyOp27
 70
     1
102
RTVSPropertyOp28
 70
     1
102
RTVSPropertyOp29
 70
     1
102
RTVSPropertyOp30
 70
     1
102
RTVSPropertyOp31
 70
     1
102
RTVSPropertyOp32
 70
     1
  0
XRECORD
  5
2CBE
102
{ACAD_REACTORS
330
2CBD
102
}
330
2CBD
100
AcDbXrecord
280
     1
102
RTVSPropertyOp0
 70
     1
102
RTVSPropertyOp1
 70
     1
102
RTVSPropertyOp2
 70
     1
102
RTVSPropertyOp3
 70
     1
102
RTVSPropertyOp4
 70
     1
102
RTVSPropertyOp5
 70
     1
102
RTVSPropertyOp6
 70
     1
102
RTVSPropertyOp7
 70
     1
102
RTVSPropertyOp8
 70
     1
102
RTVSPropertyOp9
 70
     1
102
RTVSPropertyOp10
 70
     1
102
RTVSPropertyOp11
 70
     1
102
RTVSPropertyOp12
 70
     1
102
RTVSPropertyOp13
 70
     1
102
RTVSPropertyOp14
 70
     1
102
RTVSPropertyOp15
 70
     1
102
RTVSPropertyOp16
 70
     1
102
RTVSPropertyOp17
 70
     1
102
RTVSPropertyOp18
 70
     1
102
RTVSPropertyOp19
 70
     1
102
RTVSPropertyOp20
 70
     1
102
RTVSPropertyOp21
 70
     1
102
RTVSPropertyOp22
 70
     1
102
RTVSPropertyOp23
 70
     1
102
RTVSPropertyOp24
 70
     1
102
RTVSPropertyOp25
 70
     1
102
RTVSPropertyOp26
 70
     1
102
RTVSPropertyOp27
 70
     1
102
RTVSPropertyOp28
 70
     1
102
RTVSPropertyOp29
 70
     1
102
RTVSPropertyOp30
 70
     1
102
RTVSPropertyOp31
 70
     1
102
RTVSPropertyOp32
 70
     1
  0
ENDSEC
  0
EOF
